ISO-10303-21;
HEADER;
FILE_DESCRIPTION(('CATIA V5 STEP Exchange'),'2;1');

FILE_NAME('C:\\Users\\6730b\\Desktop\\Valise\\EcrouPerche-v2r1.stp','2016-06-10T20:14:57+00:00',('none'),('none'),'CATIA Version 5 Release 21 GA (IN-10)','CATIA V5 STEP AP203','none');

FILE_SCHEMA(('CONFIG_CONTROL_DESIGN'));

ENDSEC;
/* file written by CATIA V5R21 */
DATA;
#5=PRODUCT('EcrouPerche-v2','','',(#2)) ;
#1=APPLICATION_CONTEXT('configuration controlled 3D design of mechanical parts and assemblies') ;
#14=PRODUCT_DEFINITION('',' ',#6,#3) ;
#16=SECURITY_CLASSIFICATION(' ',' ',#15) ;
#15=SECURITY_CLASSIFICATION_LEVEL('unclassified') ;
#47=CARTESIAN_POINT(' ',(0.,0.,0.)) ;
#52=CARTESIAN_POINT('Axis2P3D Location',(0.,0.,50.)) ;
#57=CARTESIAN_POINT('Axis2P3D Location',(0.,0.,50.)) ;
#61=CARTESIAN_POINT('Vertex',(-4.49761062969,-2.45705588535,50.)) ;
#63=CARTESIAN_POINT('Vertex',(4.49761062969,2.45705588535,50.)) ;
#66=CARTESIAN_POINT('Axis2P3D Location',(0.,0.,50.)) ;
#76=CARTESIAN_POINT('Axis2P3D Location',(8.,-15.5716400146,75.)) ;
#81=CARTESIAN_POINT('Line Origine',(8.,0.,25.)) ;
#85=CARTESIAN_POINT('Vertex',(8.,6.,25.)) ;
#87=CARTESIAN_POINT('Vertex',(8.,-6.,25.)) ;
#90=CARTESIAN_POINT('Line Origine',(8.,6.,50.)) ;
#94=CARTESIAN_POINT('Vertex',(8.,6.,75.)) ;
#97=CARTESIAN_POINT('Line Origine',(8.,0.,75.)) ;
#101=CARTESIAN_POINT('Vertex',(8.,-6.,75.)) ;
#104=CARTESIAN_POINT('Line Origine',(8.,-6.,50.)) ;
#115=CARTESIAN_POINT('Axis2P3D Location',(8.,0.,67.)) ;
#119=CARTESIAN_POINT('Vertex',(8.,-4.,67.)) ;
#121=CARTESIAN_POINT('Vertex',(8.,4.,67.)) ;
#124=CARTESIAN_POINT('Axis2P3D Location',(8.,0.,67.)) ;
#134=CARTESIAN_POINT('Axis2P3D Location',(0.,0.,75.)) ;
#139=CARTESIAN_POINT('Line Origine',(-8.881784197E-016,-6.,75.)) ;
#143=CARTESIAN_POINT('Vertex',(-8.,-6.,75.)) ;
#146=CARTESIAN_POINT('Line Origine',(-8.881784197E-016,6.,75.)) ;
#150=CARTESIAN_POINT('Vertex',(-8.,6.,75.)) ;
#153=CARTESIAN_POINT('Line Origine',(-8.,8.881784197E-016,75.)) ;
#165=CARTESIAN_POINT('Axis2P3D Location',(8.,-14.3957374577,66.6042625423)) ;
#171=CARTESIAN_POINT('Control Point',(8.,-6.,75.)) ;
#172=CARTESIAN_POINT('Control Point',(7.57340471803,-6.56879370929,74.4312062907)) ;
#173=CARTESIAN_POINT('Control Point',(7.08516187544,-7.11446945038,73.8855305496)) ;
#174=CARTESIAN_POINT('Control Point',(6.53167213812,-7.63084720784,73.3691527922)) ;
#175=CARTESIAN_POINT('Control Point',(5.52394709521,-8.40268306153,72.5973169385)) ;
#176=CARTESIAN_POINT('Control Point',(4.34055144583,-9.03106527891,71.9689347211)) ;
#177=CARTESIAN_POINT('Control Point',(3.86150210797,-9.24740058268,71.7525994173)) ;
#178=CARTESIAN_POINT('Control Point',(2.77564027304,-9.65212125763,71.3478787424)) ;
#179=CARTESIAN_POINT('Control Point',(1.59896487122,-9.90336381504,71.096636185)) ;
#180=CARTESIAN_POINT('Control Point',(0.947596386235,-9.98781183616,71.0121881638)) ;
#181=CARTESIAN_POINT('Control Point',(-0.191463781679,-10.0388627168,70.9611372832)) ;
#182=CARTESIAN_POINT('Control Point',(-1.31872246918,-9.92978083944,71.0702191606)) ;
#183=CARTESIAN_POINT('Control Point',(-1.78624175244,-9.85596904247,71.1440309575)) ;
#184=CARTESIAN_POINT('Control Point',(-2.72671949574,-9.65029182106,71.3497081789)) ;
#185=CARTESIAN_POINT('Control Point',(-3.61089579963,-9.34369770081,71.6563022992)) ;
#186=CARTESIAN_POINT('Control Point',(-4.04749980842,-9.16207134149,71.8379286585)) ;
#187=CARTESIAN_POINT('Control Point',(-5.19485021964,-8.60495821603,72.395041784)) ;
#188=CARTESIAN_POINT('Control Point',(-6.18882196415,-7.90997626211,73.0900237379)) ;
#189=CARTESIAN_POINT('Control Point',(-6.75693867067,-7.42539413208,73.5746058679)) ;
#190=CARTESIAN_POINT('Control Point',(-7.33085159165,-6.84019699846,74.1598030015)) ;
#191=CARTESIAN_POINT('Control Point',(-7.82831593333,-6.2234118547,74.7765881453)) ;
#192=CARTESIAN_POINT('Control Point',(-7.88662503919,-6.14934184038,74.8506581596)) ;
#193=CARTESIAN_POINT('Control Point',(-7.94384659913,-6.07487120117,74.9251287988)) ;
#194=CARTESIAN_POINT('Control Point',(-8.,-6.,75.)) ;
#201=CARTESIAN_POINT('Axis2P3D Location',(-17.,0.,67.)) ;
#206=CARTESIAN_POINT('Axis2P3D Location',(-8.,0.,67.)) ;
#210=CARTESIAN_POINT('Vertex',(-8.,-4.,67.)) ;
#212=CARTESIAN_POINT('Vertex',(-8.,4.,67.)) ;
#215=CARTESIAN_POINT('Line Origine',(-17.,-4.,67.)) ;
#220=CARTESIAN_POINT('Line Origine',(-17.,4.,67.)) ;
#232=CARTESIAN_POINT('Axis2P3D Location',(-8.,0.,67.)) ;
#244=CARTESIAN_POINT('Axis2P3D Location',(8.,7.1054273576E-015,81.)) ;
#250=CARTESIAN_POINT('Control Point',(8.,6.,75.)) ;
#251=CARTESIAN_POINT('Control Point',(7.57340471803,6.5687937093,74.4312062907)) ;
#252=CARTESIAN_POINT('Control Point',(7.08516187544,7.11446945039,73.8855305496)) ;
#253=CARTESIAN_POINT('Control Point',(6.53167213802,7.63084720794,73.3691527921)) ;
#254=CARTESIAN_POINT('Control Point',(5.52394709508,8.4026830616,72.5973169384)) ;
#255=CARTESIAN_POINT('Control Point',(4.34055144571,9.03106527897,71.968934721)) ;
#256=CARTESIAN_POINT('Control Point',(3.86150210781,9.24740058275,71.7525994173)) ;
#257=CARTESIAN_POINT('Control Point',(2.77564027287,9.65212125768,71.3478787423)) ;
#258=CARTESIAN_POINT('Control Point',(1.59896487102,9.90336381508,71.0966361849)) ;
#259=CARTESIAN_POINT('Control Point',(0.947596386138,9.98781183616,71.0121881638)) ;
#260=CARTESIAN_POINT('Control Point',(-0.19146378181,10.0388627168,70.9611372832)) ;
#261=CARTESIAN_POINT('Control Point',(-1.31872246935,9.92978083942,71.0702191606)) ;
#262=CARTESIAN_POINT('Control Point',(-1.78624175256,9.85596904245,71.1440309576)) ;
#263=CARTESIAN_POINT('Control Point',(-2.72671949587,9.65029182103,71.349708179)) ;
#264=CARTESIAN_POINT('Control Point',(-3.61089579976,9.34369770076,71.6563022992)) ;
#265=CARTESIAN_POINT('Control Point',(-4.04749980855,9.16207134144,71.8379286586)) ;
#266=CARTESIAN_POINT('Control Point',(-5.19485021976,8.60495821596,72.395041784)) ;
#267=CARTESIAN_POINT('Control Point',(-6.18882196426,7.90997626203,73.090023738)) ;
#268=CARTESIAN_POINT('Control Point',(-6.75693867078,7.42539413198,73.574605868)) ;
#269=CARTESIAN_POINT('Control Point',(-7.33085159173,6.84019699837,74.1598030016)) ;
#270=CARTESIAN_POINT('Control Point',(-7.82831593339,6.22341185463,74.7765881454)) ;
#271=CARTESIAN_POINT('Control Point',(-7.88662503923,6.14934184033,74.8506581597)) ;
#272=CARTESIAN_POINT('Control Point',(-7.94384659914,6.07487120114,74.9251287989)) ;
#273=CARTESIAN_POINT('Control Point',(-8.,6.,75.)) ;
#280=CARTESIAN_POINT('Axis2P3D Location',(-8.,15.9957427979,75.)) ;
#285=CARTESIAN_POINT('Line Origine',(-8.,8.881784197E-016,25.)) ;
#289=CARTESIAN_POINT('Vertex',(-8.,-6.,25.)) ;
#291=CARTESIAN_POINT('Vertex',(-8.,6.,25.)) ;
#294=CARTESIAN_POINT('Line Origine',(-8.,-6.,50.)) ;
#299=CARTESIAN_POINT('Line Origine',(-8.,6.,50.)) ;
#315=CARTESIAN_POINT('Axis2P3D Location',(0.,0.,25.)) ;
#320=CARTESIAN_POINT('Axis2P3D Location',(1.7763568394E-015,1.7763568394E-015,25.)) ;
#324=CARTESIAN_POINT('Vertex',(-10.,1.22464679915E-015,25.)) ;
#327=CARTESIAN_POINT('Axis2P3D Location',(-1.7763568394E-015,-2.6645352591E-015,25.)) ;
#338=CARTESIAN_POINT('Axis2P3D Location',(-1.7763568394E-015,-2.6645352591E-015,25.)) ;
#342=CARTESIAN_POINT('Vertex',(10.,0.,25.)) ;
#345=CARTESIAN_POINT('Axis2P3D Location',(1.7763568394E-015,1.7763568394E-015,25.)) ;
#356=CARTESIAN_POINT('Axis2P3D Location',(0.,0.,37.5)) ;
#361=CARTESIAN_POINT('Line Origine',(-10.,1.22464679915E-015,37.5)) ;
#365=CARTESIAN_POINT('Vertex',(-10.,1.22464679915E-015,0.)) ;
#368=CARTESIAN_POINT('Axis2P3D Location',(0.,0.,0.)) ;
#372=CARTESIAN_POINT('Vertex',(10.,0.,0.)) ;
#375=CARTESIAN_POINT('Line Origine',(10.,-2.44929359829E-015,37.5)) ;
#391=CARTESIAN_POINT('Axis2P3D Location',(0.,0.,0.)) ;
#407=CARTESIAN_POINT('Axis2P3D Location',(0.,0.,0.)) ;
#416=CARTESIAN_POINT('Axis2P3D Location',(0.,1.33226762955E-015,0.)) ;
#420=CARTESIAN_POINT('Vertex',(-4.49761062969,-2.45705588535,-1.4155343564E-015)) ;
#422=CARTESIAN_POINT('Vertex',(4.49761062969,2.45705588535,-1.4155343564E-015)) ;
#425=CARTESIAN_POINT('Axis2P3D Location',(2.22044604925E-016,4.4408920985E-016,0.)) ;
#435=CARTESIAN_POINT('Axis2P3D Location',(0.,0.,0.1)) ;
#440=CARTESIAN_POINT('Line Origine',(-4.49761062969,-2.45705588535,24.8449999993)) ;
#445=CARTESIAN_POINT('Line Origine',(4.49761062969,2.45705588535,24.8449999993)) ;
#53=DIRECTION('Axis2P3D Direction',(0.,-0.,1.)) ;
#54=DIRECTION('Axis2P3D XDirection',(1.,0.,0.)) ;
#58=DIRECTION('Axis2P3D Direction',(0.,-0.,1.)) ;
#67=DIRECTION('Axis2P3D Direction',(0.,-0.,1.)) ;
#77=DIRECTION('Axis2P3D Direction',(-1.,0.,0.)) ;
#78=DIRECTION('Axis2P3D XDirection',(0.,1.,0.)) ;
#82=DIRECTION('Vector Direction',(0.,1.,0.)) ;
#91=DIRECTION('Vector Direction',(0.,0.,-1.)) ;
#98=DIRECTION('Vector Direction',(0.,1.,0.)) ;
#105=DIRECTION('Vector Direction',(0.,0.,-1.)) ;
#116=DIRECTION('Axis2P3D Direction',(-1.,0.,0.)) ;
#125=DIRECTION('Axis2P3D Direction',(-1.,0.,0.)) ;
#135=DIRECTION('Axis2P3D Direction',(0.,0.,1.)) ;
#136=DIRECTION('Axis2P3D XDirection',(1.,0.,0.)) ;
#140=DIRECTION('Vector Direction',(-1.,4.4408920985E-016,0.)) ;
#147=DIRECTION('Vector Direction',(-1.,2.22044604925E-016,0.)) ;
#154=DIRECTION('Vector Direction',(0.,-1.,0.)) ;
#166=DIRECTION('Axis2P3D Direction',(0.,-0.707106781187,0.707106781187)) ;
#167=DIRECTION('Axis2P3D XDirection',(0.,0.707106781187,0.707106781187)) ;
#202=DIRECTION('Axis2P3D Direction',(1.,0.,-0.)) ;
#203=DIRECTION('Axis2P3D XDirection',(0.,1.,0.)) ;
#207=DIRECTION('Axis2P3D Direction',(1.,0.,-0.)) ;
#216=DIRECTION('Vector Direction',(1.,0.,0.)) ;
#221=DIRECTION('Vector Direction',(1.,0.,0.)) ;
#233=DIRECTION('Axis2P3D Direction',(1.,0.,-0.)) ;
#245=DIRECTION('Axis2P3D Direction',(0.,0.707106781187,0.707106781187)) ;
#246=DIRECTION('Axis2P3D XDirection',(0.,0.707106781187,-0.707106781187)) ;
#281=DIRECTION('Axis2P3D Direction',(1.,0.,0.)) ;
#282=DIRECTION('Axis2P3D XDirection',(0.,-1.,0.)) ;
#286=DIRECTION('Vector Direction',(0.,-1.,0.)) ;
#295=DIRECTION('Vector Direction',(0.,0.,-1.)) ;
#300=DIRECTION('Vector Direction',(0.,0.,-1.)) ;
#316=DIRECTION('Axis2P3D Direction',(0.,0.,1.)) ;
#317=DIRECTION('Axis2P3D XDirection',(1.,0.,0.)) ;
#321=DIRECTION('Axis2P3D Direction',(0.,0.,1.)) ;
#328=DIRECTION('Axis2P3D Direction',(0.,0.,1.)) ;
#339=DIRECTION('Axis2P3D Direction',(0.,0.,1.)) ;
#346=DIRECTION('Axis2P3D Direction',(0.,0.,1.)) ;
#357=DIRECTION('Axis2P3D Direction',(0.,0.,1.)) ;
#358=DIRECTION('Axis2P3D XDirection',(1.,0.,0.)) ;
#362=DIRECTION('Vector Direction',(0.,0.,1.)) ;
#369=DIRECTION('Axis2P3D Direction',(0.,0.,1.)) ;
#376=DIRECTION('Vector Direction',(0.,0.,1.)) ;
#392=DIRECTION('Axis2P3D Direction',(0.,0.,1.)) ;
#408=DIRECTION('Axis2P3D Direction',(0.,0.,1.)) ;
#409=DIRECTION('Axis2P3D XDirection',(1.,0.,0.)) ;
#417=DIRECTION('Axis2P3D Direction',(0.,0.,1.)) ;
#426=DIRECTION('Axis2P3D Direction',(0.,0.,1.)) ;
#436=DIRECTION('Axis2P3D Direction',(0.,-0.,1.)) ;
#437=DIRECTION('Axis2P3D XDirection',(0.87758256189,0.479425538604,0.)) ;
#441=DIRECTION('Vector Direction',(0.,0.,1.)) ;
#446=DIRECTION('Vector Direction',(0.,0.,1.)) ;
#48=AXIS2_PLACEMENT_3D(' ',#47,$,$) ;
#55=AXIS2_PLACEMENT_3D('Plane Axis2P3D',#52,#53,#54) ;
#59=AXIS2_PLACEMENT_3D('Circle Axis2P3D',#57,#58,$) ;
#68=AXIS2_PLACEMENT_3D('Circle Axis2P3D',#66,#67,$) ;
#79=AXIS2_PLACEMENT_3D('Plane Axis2P3D',#76,#77,#78) ;
#117=AXIS2_PLACEMENT_3D('Circle Axis2P3D',#115,#116,$) ;
#126=AXIS2_PLACEMENT_3D('Circle Axis2P3D',#124,#125,$) ;
#137=AXIS2_PLACEMENT_3D('Plane Axis2P3D',#134,#135,#136) ;
#168=AXIS2_PLACEMENT_3D('Plane Axis2P3D',#165,#166,#167) ;
#204=AXIS2_PLACEMENT_3D('Cylinder Axis2P3D',#201,#202,#203) ;
#208=AXIS2_PLACEMENT_3D('Circle Axis2P3D',#206,#207,$) ;
#234=AXIS2_PLACEMENT_3D('Circle Axis2P3D',#232,#233,$) ;
#247=AXIS2_PLACEMENT_3D('Plane Axis2P3D',#244,#245,#246) ;
#283=AXIS2_PLACEMENT_3D('Plane Axis2P3D',#280,#281,#282) ;
#318=AXIS2_PLACEMENT_3D('Plane Axis2P3D',#315,#316,#317) ;
#322=AXIS2_PLACEMENT_3D('Circle Axis2P3D',#320,#321,$) ;
#329=AXIS2_PLACEMENT_3D('Circle Axis2P3D',#327,#328,$) ;
#340=AXIS2_PLACEMENT_3D('Circle Axis2P3D',#338,#339,$) ;
#347=AXIS2_PLACEMENT_3D('Circle Axis2P3D',#345,#346,$) ;
#359=AXIS2_PLACEMENT_3D('Cylinder Axis2P3D',#356,#357,#358) ;
#370=AXIS2_PLACEMENT_3D('Circle Axis2P3D',#368,#369,$) ;
#393=AXIS2_PLACEMENT_3D('Circle Axis2P3D',#391,#392,$) ;
#410=AXIS2_PLACEMENT_3D('Plane Axis2P3D',#407,#408,#409) ;
#418=AXIS2_PLACEMENT_3D('Circle Axis2P3D',#416,#417,$) ;
#427=AXIS2_PLACEMENT_3D('Circle Axis2P3D',#425,#426,$) ;
#438=AXIS2_PLACEMENT_3D('Cylinder Axis2P3D',#435,#436,#437) ;
#40=PRODUCT_DEFINITION_SHAPE(' ',' ',#14) ;
#31=APPROVAL_PERSON_ORGANIZATION(#25,#21,#19) ;
#25=PERSON_AND_ORGANIZATION(#22,#23) ;
#22=PERSON(' ',' ',' ',$,$,$) ;
#23=ORGANIZATION(' ',' ',' ') ;
#21=APPROVAL(#20,' ') ;
#20=APPROVAL_STATUS('not_yet_approved') ;
#19=APPROVAL_ROLE('APPROVER') ;
#13=DATE_AND_TIME(#11,#12) ;
#12=LOCAL_TIME(22,14,57.,#10) ;
#10=COORDINATED_UNIVERSAL_TIME_OFFSET(0,0,.AHEAD.) ;
#72=ORIENTED_EDGE('',*,*,#65,.F.) ;
#73=ORIENTED_EDGE('',*,*,#70,.F.) ;
#110=ORIENTED_EDGE('',*,*,#89,.F.) ;
#111=ORIENTED_EDGE('',*,*,#96,.F.) ;
#112=ORIENTED_EDGE('',*,*,#103,.T.) ;
#113=ORIENTED_EDGE('',*,*,#108,.T.) ;
#130=ORIENTED_EDGE('',*,*,#123,.F.) ;
#131=ORIENTED_EDGE('',*,*,#128,.F.) ;
#159=ORIENTED_EDGE('',*,*,#145,.F.) ;
#160=ORIENTED_EDGE('',*,*,#103,.F.) ;
#161=ORIENTED_EDGE('',*,*,#152,.T.) ;
#162=ORIENTED_EDGE('',*,*,#157,.F.) ;
#197=ORIENTED_EDGE('',*,*,#145,.T.) ;
#198=ORIENTED_EDGE('',*,*,#195,.F.) ;
#226=ORIENTED_EDGE('',*,*,#214,.F.) ;
#227=ORIENTED_EDGE('',*,*,#219,.F.) ;
#228=ORIENTED_EDGE('',*,*,#123,.T.) ;
#229=ORIENTED_EDGE('',*,*,#224,.T.) ;
#238=ORIENTED_EDGE('',*,*,#236,.F.) ;
#239=ORIENTED_EDGE('',*,*,#224,.F.) ;
#240=ORIENTED_EDGE('',*,*,#128,.T.) ;
#241=ORIENTED_EDGE('',*,*,#219,.T.) ;
#276=ORIENTED_EDGE('',*,*,#274,.T.) ;
#277=ORIENTED_EDGE('',*,*,#152,.F.) ;
#305=ORIENTED_EDGE('',*,*,#293,.F.) ;
#306=ORIENTED_EDGE('',*,*,#298,.F.) ;
#307=ORIENTED_EDGE('',*,*,#157,.T.) ;
#308=ORIENTED_EDGE('',*,*,#303,.T.) ;
#311=ORIENTED_EDGE('',*,*,#214,.T.) ;
#312=ORIENTED_EDGE('',*,*,#236,.T.) ;
#333=ORIENTED_EDGE('',*,*,#293,.T.) ;
#334=ORIENTED_EDGE('',*,*,#326,.T.) ;
#335=ORIENTED_EDGE('',*,*,#331,.T.) ;
#351=ORIENTED_EDGE('',*,*,#89,.T.) ;
#352=ORIENTED_EDGE('',*,*,#344,.T.) ;
#353=ORIENTED_EDGE('',*,*,#349,.T.) ;
#381=ORIENTED_EDGE('',*,*,#298,.T.) ;
#382=ORIENTED_EDGE('',*,*,#331,.F.) ;
#383=ORIENTED_EDGE('',*,*,#367,.F.) ;
#384=ORIENTED_EDGE('',*,*,#374,.T.) ;
#385=ORIENTED_EDGE('',*,*,#379,.T.) ;
#386=ORIENTED_EDGE('',*,*,#344,.F.) ;
#387=ORIENTED_EDGE('',*,*,#108,.F.) ;
#388=ORIENTED_EDGE('',*,*,#195,.T.) ;
#397=ORIENTED_EDGE('',*,*,#96,.T.) ;
#398=ORIENTED_EDGE('',*,*,#349,.F.) ;
#399=ORIENTED_EDGE('',*,*,#379,.F.) ;
#400=ORIENTED_EDGE('',*,*,#395,.T.) ;
#401=ORIENTED_EDGE('',*,*,#367,.T.) ;
#402=ORIENTED_EDGE('',*,*,#326,.F.) ;
#403=ORIENTED_EDGE('',*,*,#303,.F.) ;
#404=ORIENTED_EDGE('',*,*,#274,.F.) ;
#413=ORIENTED_EDGE('',*,*,#374,.F.) ;
#414=ORIENTED_EDGE('',*,*,#395,.F.) ;
#431=ORIENTED_EDGE('',*,*,#424,.T.) ;
#432=ORIENTED_EDGE('',*,*,#429,.T.) ;
#451=ORIENTED_EDGE('',*,*,#424,.F.) ;
#452=ORIENTED_EDGE('',*,*,#444,.F.) ;
#453=ORIENTED_EDGE('',*,*,#65,.T.) ;
#454=ORIENTED_EDGE('',*,*,#449,.T.) ;
#458=ORIENTED_EDGE('',*,*,#429,.F.) ;
#459=ORIENTED_EDGE('',*,*,#449,.F.) ;
#460=ORIENTED_EDGE('',*,*,#70,.T.) ;
#461=ORIENTED_EDGE('',*,*,#444,.T.) ;
#132=FACE_BOUND('',#129,.T.) ;
#313=FACE_BOUND('',#310,.T.) ;
#433=FACE_BOUND('',#430,.T.) ;
#51=CLOSED_SHELL('Closed Shell',(#75,#133,#164,#200,#231,#243,#279,#314,#337,#355,#390,#406,#434,#456,#463)) ;
#83=VECTOR('Line Direction',#82,1.) ;
#92=VECTOR('Line Direction',#91,1.) ;
#99=VECTOR('Line Direction',#98,1.) ;
#106=VECTOR('Line Direction',#105,1.) ;
#141=VECTOR('Line Direction',#140,1.) ;
#148=VECTOR('Line Direction',#147,1.) ;
#155=VECTOR('Line Direction',#154,1.) ;
#217=VECTOR('Line Direction',#216,1.) ;
#222=VECTOR('Line Direction',#221,1.) ;
#287=VECTOR('Line Direction',#286,1.) ;
#296=VECTOR('Line Direction',#295,1.) ;
#301=VECTOR('Line Direction',#300,1.) ;
#363=VECTOR('Line Direction',#362,1.) ;
#377=VECTOR('Line Direction',#376,1.) ;
#442=VECTOR('Line Direction',#441,1.) ;
#447=VECTOR('Line Direction',#446,1.) ;
#465=ADVANCED_BREP_SHAPE_REPRESENTATION('NONE',(#464),#46) ;
#49=SHAPE_REPRESENTATION(' ',(#48),#46) ;
#75=ADVANCED_FACE('Corps principal',(#74),#56,.F.) ;
#133=ADVANCED_FACE('Corps principal',(#114,#132),#80,.F.) ;
#164=ADVANCED_FACE('Corps principal',(#163),#138,.T.) ;
#200=ADVANCED_FACE('Corps principal',(#199),#169,.T.) ;
#231=ADVANCED_FACE('Corps principal',(#230),#205,.F.) ;
#243=ADVANCED_FACE('Corps principal',(#242),#205,.F.) ;
#279=ADVANCED_FACE('Corps principal',(#278),#248,.T.) ;
#314=ADVANCED_FACE('Corps principal',(#309,#313),#284,.F.) ;
#337=ADVANCED_FACE('Corps principal',(#336),#319,.T.) ;
#355=ADVANCED_FACE('Corps principal',(#354),#319,.T.) ;
#390=ADVANCED_FACE('Corps principal',(#389),#360,.T.) ;
#406=ADVANCED_FACE('Corps principal',(#405),#360,.T.) ;
#434=ADVANCED_FACE('Corps principal',(#415,#433),#411,.F.) ;
#456=ADVANCED_FACE('Corps principal',(#455),#439,.F.) ;
#463=ADVANCED_FACE('Corps principal',(#462),#439,.F.) ;
#4=APPLICATION_PROTOCOL_DEFINITION('international standard','config_control_design',1994,#1) ;
#32=APPROVAL_DATE_TIME(#13,#21) ;
#170=B_SPLINE_CURVE_WITH_KNOTS('',5,(#171,#172,#173,#174,#175,#176,#177,#178,#179,#180,#181,#182,#183,#184,#185,#186,#187,#188,#189,#190,#191,#192,#193,#194),.UNSPECIFIED.,.F.,.U.,(6,3,3,3,3,3,3,6),(0.,6.43830762724,10.4392912315,15.0836416861,18.4561806939,22.0246318633,28.2771718804,29.1246563333),.UNSPECIFIED.) ;
#249=B_SPLINE_CURVE_WITH_KNOTS('',5,(#250,#251,#252,#253,#254,#255,#256,#257,#258,#259,#260,#261,#262,#263,#264,#265,#266,#267,#268,#269,#270,#271,#272,#273),.UNSPECIFIED.,.F.,.U.,(6,3,3,3,3,3,3,6),(0.,6.43830762727,10.4392912315,15.0836416862,18.4561806941,22.0246318635,28.2771718806,29.1246563333),.UNSPECIFIED.) ;
#464=MANIFOLD_SOLID_BREP('Corps principal',#51) ;
#11=CALENDAR_DATE(2016,10,6) ;
#30=CC_DESIGN_APPROVAL(#21,(#16,#6,#14)) ;
#18=CC_DESIGN_DATE_AND_TIME_ASSIGNMENT(#13,#17,(#16)) ;
#29=CC_DESIGN_DATE_AND_TIME_ASSIGNMENT(#13,#28,(#14)) ;
#17=DATE_TIME_ROLE('classification_date') ;
#28=DATE_TIME_ROLE('creation_date') ;
#27=CC_DESIGN_PERSON_AND_ORGANIZATION_ASSIGNMENT(#25,#26,(#16)) ;
#33=CC_DESIGN_PERSON_AND_ORGANIZATION_ASSIGNMENT(#25,#34,(#6)) ;
#35=CC_DESIGN_PERSON_AND_ORGANIZATION_ASSIGNMENT(#25,#36,(#6,#14)) ;
#37=CC_DESIGN_PERSON_AND_ORGANIZATION_ASSIGNMENT(#25,#38,(#5)) ;
#26=PERSON_AND_ORGANIZATION_ROLE('classification_officer') ;
#34=PERSON_AND_ORGANIZATION_ROLE('design_supplier') ;
#36=PERSON_AND_ORGANIZATION_ROLE('creator') ;
#38=PERSON_AND_ORGANIZATION_ROLE('design_owner') ;
#39=CC_DESIGN_SECURITY_CLASSIFICATION(#16,(#6)) ;
#60=CIRCLE('generated circle',#59,5.125) ;
#69=CIRCLE('generated circle',#68,5.125) ;
#118=CIRCLE('generated circle',#117,4.) ;
#127=CIRCLE('generated circle',#126,4.) ;
#209=CIRCLE('generated circle',#208,4.) ;
#235=CIRCLE('generated circle',#234,4.) ;
#323=CIRCLE('generated circle',#322,10.) ;
#330=CIRCLE('generated circle',#329,10.) ;
#341=CIRCLE('generated circle',#340,10.) ;
#348=CIRCLE('generated circle',#347,10.) ;
#371=CIRCLE('generated circle',#370,10.) ;
#394=CIRCLE('generated circle',#393,10.) ;
#419=CIRCLE('generated circle',#418,5.125) ;
#428=CIRCLE('generated circle',#427,5.125) ;
#466=SHAPE_REPRESENTATION_RELATIONSHIP(' ',' ',#49,#465) ;
#205=CYLINDRICAL_SURFACE('generated cylinder',#204,4.) ;
#360=CYLINDRICAL_SURFACE('generated cylinder',#359,10.) ;
#439=CYLINDRICAL_SURFACE('generated cylinder',#438,5.125) ;
#3=DESIGN_CONTEXT(' ',#1,'design') ;
#65=EDGE_CURVE('',#62,#64,#60,.T.) ;
#70=EDGE_CURVE('',#64,#62,#69,.T.) ;
#89=EDGE_CURVE('',#86,#88,#84,.F.) ;
#96=EDGE_CURVE('',#95,#86,#93,.T.) ;
#103=EDGE_CURVE('',#95,#102,#100,.F.) ;
#108=EDGE_CURVE('',#102,#88,#107,.T.) ;
#123=EDGE_CURVE('',#120,#122,#118,.F.) ;
#128=EDGE_CURVE('',#122,#120,#127,.F.) ;
#145=EDGE_CURVE('',#102,#144,#142,.T.) ;
#152=EDGE_CURVE('',#95,#151,#149,.T.) ;
#157=EDGE_CURVE('',#144,#151,#156,.F.) ;
#195=EDGE_CURVE('',#102,#144,#170,.T.) ;
#214=EDGE_CURVE('',#211,#213,#209,.T.) ;
#219=EDGE_CURVE('',#120,#211,#218,.F.) ;
#224=EDGE_CURVE('',#122,#213,#223,.F.) ;
#236=EDGE_CURVE('',#213,#211,#235,.T.) ;
#274=EDGE_CURVE('',#95,#151,#249,.T.) ;
#293=EDGE_CURVE('',#290,#292,#288,.F.) ;
#298=EDGE_CURVE('',#144,#290,#297,.T.) ;
#303=EDGE_CURVE('',#151,#292,#302,.T.) ;
#326=EDGE_CURVE('',#292,#325,#323,.T.) ;
#331=EDGE_CURVE('',#325,#290,#330,.T.) ;
#344=EDGE_CURVE('',#88,#343,#341,.T.) ;
#349=EDGE_CURVE('',#343,#86,#348,.T.) ;
#367=EDGE_CURVE('',#366,#325,#364,.T.) ;
#374=EDGE_CURVE('',#366,#373,#371,.T.) ;
#379=EDGE_CURVE('',#373,#343,#378,.T.) ;
#395=EDGE_CURVE('',#373,#366,#394,.T.) ;
#424=EDGE_CURVE('',#421,#423,#419,.T.) ;
#429=EDGE_CURVE('',#423,#421,#428,.T.) ;
#444=EDGE_CURVE('',#62,#421,#443,.F.) ;
#449=EDGE_CURVE('',#64,#423,#448,.F.) ;
#71=EDGE_LOOP('',(#72,#73)) ;
#109=EDGE_LOOP('',(#110,#111,#112,#113)) ;
#129=EDGE_LOOP('',(#130,#131)) ;
#158=EDGE_LOOP('',(#159,#160,#161,#162)) ;
#196=EDGE_LOOP('',(#197,#198)) ;
#225=EDGE_LOOP('',(#226,#227,#228,#229)) ;
#237=EDGE_LOOP('',(#238,#239,#240,#241)) ;
#275=EDGE_LOOP('',(#276,#277)) ;
#304=EDGE_LOOP('',(#305,#306,#307,#308)) ;
#310=EDGE_LOOP('',(#311,#312)) ;
#332=EDGE_LOOP('',(#333,#334,#335)) ;
#350=EDGE_LOOP('',(#351,#352,#353)) ;
#380=EDGE_LOOP('',(#381,#382,#383,#384,#385,#386,#387,#388)) ;
#396=EDGE_LOOP('',(#397,#398,#399,#400,#401,#402,#403,#404)) ;
#412=EDGE_LOOP('',(#413,#414)) ;
#430=EDGE_LOOP('',(#431,#432)) ;
#450=EDGE_LOOP('',(#451,#452,#453,#454)) ;
#457=EDGE_LOOP('',(#458,#459,#460,#461)) ;
#74=FACE_OUTER_BOUND('',#71,.T.) ;
#114=FACE_OUTER_BOUND('',#109,.T.) ;
#163=FACE_OUTER_BOUND('',#158,.T.) ;
#199=FACE_OUTER_BOUND('',#196,.T.) ;
#230=FACE_OUTER_BOUND('',#225,.T.) ;
#242=FACE_OUTER_BOUND('',#237,.T.) ;
#278=FACE_OUTER_BOUND('',#275,.T.) ;
#309=FACE_OUTER_BOUND('',#304,.T.) ;
#336=FACE_OUTER_BOUND('',#332,.T.) ;
#354=FACE_OUTER_BOUND('',#350,.T.) ;
#389=FACE_OUTER_BOUND('',#380,.T.) ;
#405=FACE_OUTER_BOUND('',#396,.T.) ;
#415=FACE_OUTER_BOUND('',#412,.T.) ;
#455=FACE_OUTER_BOUND('',#450,.T.) ;
#462=FACE_OUTER_BOUND('',#457,.T.) ;
#45=UNCERTAINTY_MEASURE_WITH_UNIT(LENGTH_MEASURE(0.005),#41,'distance_accuracy_value','CONFUSED CURVE UNCERTAINTY') ;
#84=LINE('Line',#81,#83) ;
#93=LINE('Line',#90,#92) ;
#100=LINE('Line',#97,#99) ;
#107=LINE('Line',#104,#106) ;
#142=LINE('Line',#139,#141) ;
#149=LINE('Line',#146,#148) ;
#156=LINE('Line',#153,#155) ;
#218=LINE('Line',#215,#217) ;
#223=LINE('Line',#220,#222) ;
#288=LINE('Line',#285,#287) ;
#297=LINE('Line',#294,#296) ;
#302=LINE('Line',#299,#301) ;
#364=LINE('Line',#361,#363) ;
#378=LINE('Line',#375,#377) ;
#443=LINE('Line',#440,#442) ;
#448=LINE('Line',#445,#447) ;
#2=MECHANICAL_CONTEXT(' ',#1,'mechanical') ;
#24=PERSONAL_ADDRESS(' ',' ',' ',' ',' ',' ',' ',' ',' ',' ',' ',' ',(#22),' ') ;
#56=PLANE('',#55) ;
#80=PLANE('',#79) ;
#138=PLANE('',#137) ;
#169=PLANE('',#168) ;
#248=PLANE('',#247) ;
#284=PLANE('',#283) ;
#319=PLANE('',#318) ;
#411=PLANE('',#410) ;
#43=PLANE_ANGLE_MEASURE_WITH_UNIT(PLANE_ANGLE_MEASURE(0.0174532925199),#42) ;
#7=PRODUCT_CATEGORY('part',$) ;
#9=PRODUCT_CATEGORY_RELATIONSHIP(' ',' ',#7,#8) ;
#6=PRODUCT_DEFINITION_FORMATION_WITH_SPECIFIED_SOURCE('',' ',#5,.NOT_KNOWN.) ;
#8=PRODUCT_RELATED_PRODUCT_CATEGORY('detail',$,(#5)) ;
#50=SHAPE_DEFINITION_REPRESENTATION(#40,#49) ;
#62=VERTEX_POINT('',#61) ;
#64=VERTEX_POINT('',#63) ;
#86=VERTEX_POINT('',#85) ;
#88=VERTEX_POINT('',#87) ;
#95=VERTEX_POINT('',#94) ;
#102=VERTEX_POINT('',#101) ;
#120=VERTEX_POINT('',#119) ;
#122=VERTEX_POINT('',#121) ;
#144=VERTEX_POINT('',#143) ;
#151=VERTEX_POINT('',#150) ;
#211=VERTEX_POINT('',#210) ;
#213=VERTEX_POINT('',#212) ;
#290=VERTEX_POINT('',#289) ;
#292=VERTEX_POINT('',#291) ;
#325=VERTEX_POINT('',#324) ;
#343=VERTEX_POINT('',#342) ;
#366=VERTEX_POINT('',#365) ;
#373=VERTEX_POINT('',#372) ;
#421=VERTEX_POINT('',#420) ;
#423=VERTEX_POINT('',#422) ;
#41=(LENGTH_UNIT()NAMED_UNIT(*)SI_UNIT(.MILLI.,.METRE.)) ;
#42=(NAMED_UNIT(*)PLANE_ANGLE_UNIT()SI_UNIT($,.RADIAN.)) ;
#44=(NAMED_UNIT(*)SI_UNIT($,.STERADIAN.)SOLID_ANGLE_UNIT()) ;
#46=(GEOMETRIC_REPRESENTATION_CONTEXT(3)GLOBAL_UNCERTAINTY_ASSIGNED_CONTEXT((#45))GLOBAL_UNIT_ASSIGNED_CONTEXT((#41,#42,#44))REPRESENTATION_CONTEXT(' ',' ')) ;
ENDSEC;
END-ISO-10303-21;
