  0
SECTION
  2
HEADER
  9
$ACADVER
  1
AC1021
  9
$ACADMAINTVER
 70
    25
  9
$DWGCODEPAGE
  3
ANSI_1252
  9
$INSBASE
 10
0.0
 20
0.0
 30
0.0
  9
$EXTMIN
 10
-13.73055
 20
-101.583531
 30
-0.000003
  9
$EXTMAX
 10
86.26945
 20
58.416469
 30
0.000008
  9
$LIMMIN
 10
0.0
 20
0.0
  9
$LIMMAX
 10
12.0
 20
9.0
  9
$ORTHOMODE
 70
     0
  9
$REGENMODE
 70
     1
  9
$FILLMODE
 70
     1
  9
$QTEXTMODE
 70
     0
  9
$MIRRTEXT
 70
     1
  9
$LTSCALE
 40
1.0
  9
$ATTMODE
 70
     1
  9
$TEXTSIZE
 40
0.2
  9
$TRACEWID
 40
0.05
  9
$TEXTSTYLE
  7
STANDARD
  9
$CLAYER
  8
Detourage
  9
$CELTYPE
  6
BYBLOCK
  9
$CECOLOR
 62
   256
  9
$CELTSCALE
 40
1.0
  9
$DISPSILH
 70
     0
  9
$DIMSCALE
 40
1.0
  9
$DIMASZ
 40
0.18
  9
$DIMEXO
 40
0.0625
  9
$DIMDLI
 40
0.38
  9
$DIMRND
 40
0.0
  9
$DIMDLE
 40
0.0
  9
$DIMEXE
 40
0.18
  9
$DIMTP
 40
0.0
  9
$DIMTM
 40
0.0
  9
$DIMTXT
 40
0.18
  9
$DIMCEN
 40
0.09
  9
$DIMTSZ
 40
0.0
  9
$DIMTOL
 70
     0
  9
$DIMLIM
 70
     0
  9
$DIMTIH
 70
     1
  9
$DIMTOH
 70
     1
  9
$DIMSE1
 70
     0
  9
$DIMSE2
 70
     0
  9
$DIMTAD
 70
     0
  9
$DIMZIN
 70
     0
  9
$DIMBLK
  1

  9
$DIMASO
 70
     1
  9
$DIMSHO
 70
     1
  9
$DIMPOST
  1

  9
$DIMAPOST
  1

  9
$DIMALT
 70
     0
  9
$DIMALTD
 70
     2
  9
$DIMALTF
 40
25.4
  9
$DIMLFAC
 40
1.0
  9
$DIMTOFL
 70
     0
  9
$DIMTVP
 40
0.0
  9
$DIMTIX
 70
     0
  9
$DIMSOXD
 70
     0
  9
$DIMSAH
 70
     0
  9
$DIMBLK1
  1

  9
$DIMBLK2
  1

  9
$DIMSTYLE
  2
STANDARD
  9
$DIMCLRD
 70
     0
  9
$DIMCLRE
 70
     0
  9
$DIMCLRT
 70
     0
  9
$DIMTFAC
 40
1.0
  9
$DIMGAP
 40
0.09
  9
$DIMJUST
 70
     0
  9
$DIMSD1
 70
     0
  9
$DIMSD2
 70
     0
  9
$DIMTOLJ
 70
     1
  9
$DIMTZIN
 70
     0
  9
$DIMALTZ
 70
     0
  9
$DIMALTTZ
 70
     0
  9
$DIMUPT
 70
     0
  9
$DIMDEC
 70
     4
  9
$DIMTDEC
 70
     4
  9
$DIMALTU
 70
     2
  9
$DIMALTTD
 70
     2
  9
$DIMTXSTY
  7
STANDARD
  9
$DIMAUNIT
 70
     0
  9
$DIMADEC
 70
     0
  9
$DIMALTRND
 40
0.0
  9
$DIMAZIN
 70
     0
  9
$DIMDSEP
 70
    46
  9
$DIMATFIT
 70
     3
  9
$DIMFRAC
 70
     0
  9
$DIMLDRBLK
  1

  9
$DIMLUNIT
 70
     2
  9
$DIMLWD
 70
    -2
  9
$DIMLWE
 70
    -2
  9
$DIMTMOVE
 70
     2
  9
$DIMFXL
 40
1.0
  9
$DIMFXLON
 70
     0
  9
$DIMJOGANG
 40
0.785398
  9
$DIMTFILL
 70
     0
  9
$DIMTFILLCLR
 70
     0
  9
$DIMARCSYM
 70
     0
  9
$DIMLTYPE
  6

  9
$DIMLTEX1
  6

  9
$DIMLTEX2
  6

  9
$LUNITS
 70
     2
  9
$LUPREC
 70
     4
  9
$SKETCHINC
 40
0.1
  9
$FILLETRAD
 40
0.5
  9
$AUNITS
 70
     0
  9
$AUPREC
 70
     0
  9
$MENU
  1
.
  9
$ELEVATION
 40
0.0
  9
$PELEVATION
 40
0.0
  9
$THICKNESS
 40
0.0
  9
$LIMCHECK
 70
     0
  9
$CHAMFERA
 40
0.0
  9
$CHAMFERB
 40
0.0
  9
$CHAMFERC
 40
0.0
  9
$CHAMFERD
 40
0.0
  9
$SKPOLY
 70
     0
  9
$TDCREATE
 40
2457350.760213646
  9
$TDUCREATE
 40
2457350.676880313
  9
$TDUPDATE
 40
2458024.4652525
  9
$TDUUPDATE
 40
2458024.381919167
  9
$TDINDWG
 40
0.0000000116
  9
$TDUSRTIMER
 40
0.0000000116
  9
$USRTIMER
 70
     1
  9
$ANGBASE
 50
0.0
  9
$ANGDIR
 70
     0
  9
$PDMODE
 70
     0
  9
$PDSIZE
 40
0.0
  9
$PLINEWID
 40
0.0
  9
$SPLFRAME
 70
     0
  9
$SPLINETYPE
 70
     6
  9
$SPLINESEGS
 70
     8
  9
$HANDSEED
  5
13D8
  9
$SURFTAB1
 70
     6
  9
$SURFTAB2
 70
     6
  9
$SURFTYPE
 70
     6
  9
$SURFU
 70
     6
  9
$SURFV
 70
     6
  9
$UCSBASE
  2

  9
$UCSNAME
  2

  9
$UCSORG
 10
0.0
 20
0.0
 30
0.0
  9
$UCSXDIR
 10
1.0
 20
0.0
 30
0.0
  9
$UCSYDIR
 10
0.0
 20
1.0
 30
0.0
  9
$UCSORTHOREF
  2

  9
$UCSORTHOVIEW
 70
     0
  9
$UCSORGTOP
 10
0.0
 20
0.0
 30
0.0
  9
$UCSORGBOTTOM
 10
0.0
 20
0.0
 30
0.0
  9
$UCSORGLEFT
 10
0.0
 20
0.0
 30
0.0
  9
$UCSORGRIGHT
 10
0.0
 20
0.0
 30
0.0
  9
$UCSORGFRONT
 10
0.0
 20
0.0
 30
0.0
  9
$UCSORGBACK
 10
0.0
 20
0.0
 30
0.0
  9
$PUCSBASE
  2

  9
$PUCSNAME
  2

  9
$PUCSORG
 10
0.0
 20
0.0
 30
0.0
  9
$PUCSXDIR
 10
1.0
 20
0.0
 30
0.0
  9
$PUCSYDIR
 10
0.0
 20
1.0
 30
0.0
  9
$PUCSORTHOREF
  2

  9
$PUCSORTHOVIEW
 70
     0
  9
$PUCSORGTOP
 10
0.0
 20
0.0
 30
0.0
  9
$PUCSORGBOTTOM
 10
0.0
 20
0.0
 30
0.0
  9
$PUCSORGLEFT
 10
0.0
 20
0.0
 30
0.0
  9
$PUCSORGRIGHT
 10
0.0
 20
0.0
 30
0.0
  9
$PUCSORGFRONT
 10
0.0
 20
0.0
 30
0.0
  9
$PUCSORGBACK
 10
0.0
 20
0.0
 30
0.0
  9
$USERI1
 70
     0
  9
$USERI2
 70
     0
  9
$USERI3
 70
     0
  9
$USERI4
 70
     0
  9
$USERI5
 70
     0
  9
$USERR1
 40
0.0
  9
$USERR2
 40
0.0
  9
$USERR3
 40
0.0
  9
$USERR4
 40
0.0
  9
$USERR5
 40
0.0
  9
$WORLDVIEW
 70
     1
  9
$SHADEDGE
 70
     3
  9
$SHADEDIF
 70
    70
  9
$TILEMODE
 70
     1
  9
$MAXACTVP
 70
    64
  9
$PINSBASE
 10
0.0
 20
0.0
 30
0.0
  9
$PLIMCHECK
 70
     0
  9
$PEXTMIN
 10
1.000000E+20
 20
1.000000E+20
 30
1.000000E+20
  9
$PEXTMAX
 10
-1.000000E+20
 20
-1.000000E+20
 30
-1.000000E+20
  9
$PLIMMIN
 10
0.0
 20
0.0
  9
$PLIMMAX
 10
12.0
 20
9.0
  9
$UNITMODE
 70
     0
  9
$VISRETAIN
 70
     1
  9
$PLINEGEN
 70
     0
  9
$PSLTSCALE
 70
     0
  9
$TREEDEPTH
 70
  3020
  9
$CMLSTYLE
  2
STANDARD
  9
$CMLJUST
 70
     0
  9
$CMLSCALE
 40
1.0
  9
$PROXYGRAPHICS
 70
     1
  9
$MEASUREMENT
 70
     0
  9
$CELWEIGHT
370
    -1
  9
$ENDCAPS
280
     0
  9
$JOINSTYLE
280
     0
  9
$LWDISPLAY
290
     0
  9
$INSUNITS
 70
     0
  9
$HYPERLINKBASE
  1

  9
$STYLESHEET
  1

  9
$XEDIT
290
     1
  9
$CEPSNTYPE
380
     0
  9
$PSTYLEMODE
290
     1
  9
$FINGERPRINTGUID
  2
{981356A8-C092-48FA-A09A-46646FDC6B37}
  9
$VERSIONGUID
  2
{FAEB1C32-E019-11D5-929B-00C0DF256EC4}
  9
$EXTNAMES
290
     1
  9
$PSVPSCALE
 40
0.0
  9
$OLESTARTUP
290
     0
  9
$SORTENTS
280
   127
  9
$INDEXCTL
280
     0
  9
$HIDETEXT
280
     1
  9
$XCLIPFRAME
290
     0
  9
$HALOGAP
280
     0
  9
$OBSCOLOR
 70
   257
  9
$OBSLTYPE
280
     0
  9
$INTERSECTIONDISPLAY
280
     0
  9
$INTERSECTIONCOLOR
 70
   257
  9
$DIMASSOC
280
     2
  9
$PROJECTNAME
  1

  9
$CAMERADISPLAY
290
     0
  9
$LENSLENGTH
 40
50.0
  9
$CAMERAHEIGHT
 40
0.0
  9
$STEPSPERSEC
 40
2.0
  9
$STEPSIZE
 40
6.0
  9
$3DDWFPREC
 40
2.0
  9
$PSOLWIDTH
 40
0.25
  9
$PSOLHEIGHT
 40
4.0
  9
$LOFTANG1
 40
1.570796
  9
$LOFTANG2
 40
1.570796
  9
$LOFTMAG1
 40
0.0
  9
$LOFTMAG2
 40
0.0
  9
$LOFTPARAM
 70
     7
  9
$LOFTNORMALS
280
     1
  9
$LATITUDE
 40
37.795
  9
$LONGITUDE
 40
-122.394
  9
$NORTHDIRECTION
 40
0.0
  9
$TIMEZONE
 70
 -8000
  9
$LIGHTGLYPHDISPLAY
280
     1
  9
$TILEMODELIGHTSYNCH
280
     1
  9
$SOLIDHIST
280
     1
  9
$SHOWHIST
280
     1
  9
$DWFFRAME
280
     2
  9
$DGNFRAME
280
     2
  9
$REALWORLDSCALE
290
     1
  9
$INTERFERECOLOR
 62
   256
  9
$CSHADOW
280
     0
  9
$SHADOWPLANELOCATION
 40
0.0
  0
ENDSEC
  0
SECTION
  2
CLASSES
  0
CLASS
  1
ACDBDICTIONARYWDFLT
  2
AcDbDictionaryWithDefault
  3
ObjectDBX Classes
 90
        0
 91
        6
280
     0
281
     0
  0
CLASS
  1
MATERIAL
  2
AcDbMaterial
  3
ObjectDBX Classes
 90
     1153
 91
        5
280
     0
281
     0
  0
CLASS
  1
SCALE
  2
AcDbScale
  3
ObjectDBX Classes
 90
     1153
 91
        5
280
     0
281
     0
  0
CLASS
  1
VISUALSTYLE
  2
AcDbVisualStyle
  3
ObjectDBX Classes
 90
     4095
 91
        5
280
     0
281
     0
  0
CLASS
  1
SUN
  2
AcDbSun
  3
SCENEOE
 90
     1153
 91
        5
280
     0
281
     0
  0
CLASS
  1
TABLESTYLE
  2
AcDbTableStyle
  3
ObjectDBX Classes
 90
     4095
 91
        5
280
     0
281
     0
  0
CLASS
  1
DICTIONARYVAR
  2
AcDbDictionaryVar
  3
ObjectDBX Classes
 90
        0
 91
        4
280
     0
281
     0
  0
CLASS
  1
XRECORD
  2
AcDbXrecord
  3
ObjectDBX Classes
 90
        0
 91
        1
280
     0
281
     0
  0
CLASS
  1
LWPOLYLINE
  2
AcDbPolyline
  3
ObjectDBX Classes
 90
        0
 91
        1
280
     0
281
     1
  0
CLASS
  1
HATCH
  2
AcDbHatch
  3
ObjectDBX Classes
 90
        0
 91
        1
280
     0
281
     1
  0
CLASS
  1
ACDBPLACEHOLDER
  2
AcDbPlaceHolder
  3
ObjectDBX Classes
 90
        0
 91
        1
280
     0
281
     0
  0
CLASS
  1
LAYOUT
  2
AcDbLayout
  3
ObjectDBX Classes
 90
        0
 91
        1
280
     0
281
     0
  0
CLASS
  1
SORTENTSTABLE
  2
AcDbSortentsTable
  3
ObjectDBX Classes
 90
        0
 91
        4
280
     0
281
     0
  0
CLASS
  1
McDbContainer2
  2
McDbContainer2
  3
NanoSPDS
 90
      893
 91
        4
280
     0
281
     0
  0
CLASS
  1
McDbMarker
  2
McDbMarker
  3
NanoSPDS
 90
      893
 91
        4
280
     0
281
     1
  0
CLASS
  1
CELLSTYLEMAP
  2
AcDbCellStyleMap
  3
ObjectDBX Classes
 90
     1152
 91
        4
280
     0
281
     0
  0
CLASS
  1
CSACDOCUMENTOPTIONS
  2
CDocDataContainer
  3
"DERU003_CSAPP"
 90
     4095
 91
        4
280
     0
281
     0
  0
CLASS
  1
PLOTSETTINGS
  2
AcDbPlotSettings
  3
ObjectDBX Classes
 90
        0
 91
        4
280
     0
281
     0
  0
ENDSEC
  0
SECTION
  2
TABLES
  0
TABLE
  2
VPORT
  5
2FC
330
0
100
AcDbSymbolTable
 70
     1
  0
VPORT
  5
313
330
2FC
100
AcDbSymbolTableRecord
100
AcDbViewportTableRecord
  2
*ACTIVE
 70
     0
 10
0.0
 20
0.0
 11
1.0
 21
1.0
 12
142.100849
 22
-21.076111
 13
0.0
 23
0.0
 14
0.5
 24
0.5
 15
0.5
 25
0.5
 16
0.0
 26
0.0
 36
1.0
 17
0.0
 27
0.0
 37
0.0
 40
317.238572
 41
1.906183
 42
50.0
 43
0.0
 44
0.0
 50
0.0
 51
0.0
 71
    16
 72
   100
 73
     1
 74
     2
 75
     0
 76
     0
 77
     0
 78
     0
281
     0
 65
     1
110
0.0
120
0.0
130
0.0
111
1.0
121
0.0
131
0.0
112
0.0
122
1.0
132
0.0
 79
     0
146
0.0
 60
     3
 61
     5
292
     1
282
     1
141
0.0
142
0.0
 63
   256
361
7C4
  0
ENDTAB
  0
TABLE
  2
LTYPE
  5
2F9
330
0
100
AcDbSymbolTable
 70
     1
  0
LTYPE
  5
307
330
2F9
100
AcDbSymbolTableRecord
100
AcDbLinetypeTableRecord
  2
BYBLOCK
 70
     0
  3

 72
    65
 73
     0
 40
0.0
  0
LTYPE
  5
308
330
2F9
100
AcDbSymbolTableRecord
100
AcDbLinetypeTableRecord
  2
BYLAYER
 70
     0
  3

 72
    65
 73
     0
 40
0.0
  0
LTYPE
  5
309
330
2F9
100
AcDbSymbolTableRecord
100
AcDbLinetypeTableRecord
  2
CONTINUOUS
 70
     0
  3
Solid line
 72
    65
 73
     0
 40
0.0
  0
ENDTAB
  0
TABLE
  2
LAYER
  5
2F6
330
0
100
AcDbSymbolTable
 70
     6
  0
LAYER
  5
304
330
2F6
100
AcDbSymbolTableRecord
100
AcDbLayerTableRecord
  2
0
 70
     0
 62
     7
  6
CONTINUOUS
370
    -3
390
0
347
319
  0
LAYER
  5
31A
330
2F6
100
AcDbSymbolTableRecord
100
AcDbLayerTableRecord
  2
LAYER0
 70
     0
 62
     7
  6
CONTINUOUS
370
    -3
390
0
347
319
  0
LAYER
  5
365
330
2F6
100
AcDbSymbolTableRecord
100
AcDbLayerTableRecord
  2
Detourage
 70
     0
 62
     6
  6
CONTINUOUS
370
    -3
390
0
347
319
  0
LAYER
  5
501
330
2F6
100
AcDbSymbolTableRecord
100
AcDbLayerTableRecord
  2
DEFPOINTS
 70
     0
 62
     7
  6
CONTINUOUS
290
     0
370
    -3
390
0
347
319
  0
LAYER
  5
510
330
2F6
100
AcDbSymbolTableRecord
100
AcDbLayerTableRecord
  2
DIMENSION
 70
     0
 62
     3
  6
CONTINUOUS
370
    -3
390
0
347
319
  0
LAYER
  5
1319
330
2F6
100
AcDbSymbolTableRecord
100
AcDbLayerTableRecord
  2
Gravure
 70
     0
 62
     2
  6
CONTINUOUS
370
    -3
390
0
347
319
  0
ENDTAB
  0
TABLE
  2
STYLE
  5
2F7
330
0
100
AcDbSymbolTable
 70
     1
  0
STYLE
  5
305
330
2F7
100
AcDbSymbolTableRecord
100
AcDbTextStyleTableRecord
  2
STANDARD
 70
     0
 40
0.0
 41
1.0
 50
0.0
 71
     0
 42
0.2
  3
txt
  4

  0
ENDTAB
  0
TABLE
  2
VIEW
  5
2FA
330
0
100
AcDbSymbolTable
 70
     0
  0
ENDTAB
  0
TABLE
  2
UCS
  5
2FB
330
0
100
AcDbSymbolTable
 70
     0
  0
ENDTAB
  0
TABLE
  2
APPID
  5
2FD
330
0
100
AcDbSymbolTable
 70
    10
  0
APPID
  5
306
330
2FD
100
AcDbSymbolTableRecord
100
AcDbRegAppTableRecord
  2
ACAD
 70
     0
  0
APPID
  5
31D
330
2FD
100
AcDbSymbolTableRecord
100
AcDbRegAppTableRecord
  2
MCS_DIM1
 70
     0
  0
APPID
  5
31E
330
2FD
100
AcDbSymbolTableRecord
100
AcDbRegAppTableRecord
  2
MCSXDATA5
 70
     0
  0
APPID
  5
31F
330
2FD
100
AcDbSymbolTableRecord
100
AcDbRegAppTableRecord
  2
MCS_DOCUMENT_ID
 70
     0
  0
APPID
  5
320
330
2FD
100
AcDbSymbolTableRecord
100
AcDbRegAppTableRecord
  2
MCS_PARAMS_DATA
 70
     0
  0
APPID
  5
321
330
2FD
100
AcDbSymbolTableRecord
100
AcDbRegAppTableRecord
  2
MC_VERSION_DATA
 70
     0
  0
APPID
  5
500
330
2FD
100
AcDbSymbolTableRecord
100
AcDbRegAppTableRecord
  2
ACAD_DSTYLE_DIMRADIAL_EXTE
 70
     0
  0
APPID
  5
625
330
2FD
100
AcDbSymbolTableRecord
100
AcDbRegAppTableRecord
  2
ACAD_DSTYLE_DIMRADIAL_EXT0
 70
     0
  0
APPID
  5
68A
330
2FD
100
AcDbSymbolTableRecord
100
AcDbRegAppTableRecord
  2
ACAD_DSTYLE_DIMRADIAL_EXT1
 70
     0
  0
APPID
  5
F18
330
2FD
100
AcDbSymbolTableRecord
100
AcDbRegAppTableRecord
  2
ACAD_PSEXT
 70
     0
  0
ENDTAB
  0
TABLE
  2
DIMSTYLE
  5
2FE
330
0
100
AcDbSymbolTable
 70
     1
100
AcDbDimStyleTable
  0
DIMSTYLE
105
322
330
2FE
100
AcDbSymbolTableRecord
100
AcDbDimStyleTableRecord
  2
STANDARD
 70
     0
178
     0
340
305
  0
ENDTAB
  0
TABLE
  2
BLOCK_RECORD
  5
2F5
330
0
100
AcDbSymbolTable
 70
    12
  0
BLOCK_RECORD
  5
310
102
{ACAD_XDICTIONARY
360
4B5
102
}
330
2F5
100
AcDbSymbolTableRecord
100
AcDbBlockTableRecord
  2
*MODEL_SPACE
340
7C2
 70
     0
280
     1
281
     0
  0
BLOCK_RECORD
  5
30E
330
2F5
100
AcDbSymbolTableRecord
100
AcDbBlockTableRecord
  2
*PAPER_SPACE
340
7C3
 70
     0
280
     1
281
     0
  0
BLOCK_RECORD
  5
502
330
2F5
100
AcDbSymbolTableRecord
100
AcDbBlockTableRecord
  2
*D0
340
0
 70
     0
280
     1
281
     0
  0
BLOCK_RECORD
  5
50D
330
2F5
100
AcDbSymbolTableRecord
100
AcDbBlockTableRecord
  2
_NONE
340
0
 70
     0
280
     1
281
     0
  0
BLOCK_RECORD
  5
517
330
2F5
100
AcDbSymbolTableRecord
100
AcDbBlockTableRecord
  2
*D2
340
0
 70
     0
280
     1
281
     0
  0
BLOCK_RECORD
  5
626
330
2F5
100
AcDbSymbolTableRecord
100
AcDbBlockTableRecord
  2
*D3
340
0
 70
     0
280
     1
281
     0
  0
BLOCK_RECORD
  5
68B
330
2F5
100
AcDbSymbolTableRecord
100
AcDbBlockTableRecord
  2
*D4
340
0
 70
     0
280
     1
281
     0
  0
BLOCK_RECORD
  5
C8E
330
2F5
100
AcDbSymbolTableRecord
100
AcDbBlockTableRecord
  2
ve-D
340
0
310
2800000020000000200000000100080000000000000400000000000000000000000000000000000000000000000080000080000000808000800000008000800080800000C0C0C000C0DCC000F0CAA6000020400000206000002080000020A0000020C0000020E00000400000004020000040400000406000004080000040A0
310
000040C0000040E00000600000006020000060400000606000006080000060A0000060C0000060E00000800000008020000080400000806000008080000080A0000080C0000080E00000A0000000A0200000A0400000A0600000A0800000A0A00000A0C00000A0E00000C0000000C0200000C0400000C0600000C0800000C0
310
A00000C0C00000C0E00000E0000000E0200000E0400000E0600000E0800000E0A00000E0C00000E0E00040000000400020004000400040006000400080004000A0004000C0004000E00040200000402020004020400040206000402080004020A0004020C0004020E000404000004040200040404000404060004040800040
310
40A0004040C0004040E00040600000406020004060400040606000406080004060A0004060C0004060E00040800000408020004080400040806000408080004080A0004080C0004080E00040A0000040A0200040A0400040A0600040A0800040A0A00040A0C00040A0E00040C0000040C0200040C0400040C0600040C08000
310
40C0A00040C0C00040C0E00040E0000040E0200040E0400040E0600040E0800040E0A00040E0C00040E0E00080000000800020008000400080006000800080008000A0008000C0008000E00080200000802020008020400080206000802080008020A0008020C0008020E00080400000804020008040400080406000804080
310
008040A0008040C0008040E00080600000806020008060400080606000806080008060A0008060C0008060E00080800000808020008080400080806000808080008080A0008080C0008080E00080A0000080A0200080A0400080A0600080A0800080A0A00080A0C00080A0E00080C0000080C0200080C0400080C0600080C0
310
800080C0A00080C0C00080C0E00080E0000080E0200080E0400080E0600080E0800080E0A00080E0C00080E0E000C0000000C0002000C0004000C0006000C0008000C000A000C000C000C000E000C0200000C0202000C0204000C0206000C0208000C020A000C020C000C020E000C0400000C0402000C0404000C0406000C0
310
408000C040A000C040C000C040E000C0600000C0602000C0604000C0606000C0608000C060A000C060C000C060E000C0800000C0802000C0804000C0806000C0808000C080A000C080C000C080E000C0A00000C0A02000C0A04000C0A06000C0A08000C0A0A000C0A0C000C0A0E000C0C00000C0C02000C0C04000C0C06000
310
C0C08000C0C0A000F0FBFF00A4A0A000808080000000FF0000FF000000FFFF00FF000000FF00FF00FFFF0000FFFFFF00FFFFFFFFFF000000FDFDFDFDFDFDFDFDFDFDFDFD000000FFFFFFFFFFFFFFFFFFFFFF000000FFFFFFFFFFFFFFFFFFFFFFFFFFFFFFFFFFFF0000FFFFFFFFFFFFFFFFFF00FFFFFDFFFFFFFFFFFFFFFFFF
310
FFFFFFFFFFFFFFFDFF0000FFFFFFFFFFFFFFFF00FFFDFDFFFFFFFFFFFFFFFFFFFFFFFFFFFFFFFDFFFDFF00FFFFFFFFFFFFFF0000FDFDFDFDFFFFFFFFFFFFFFFFFFFFFFFFFFFFFDFFFDFF00FFFFFFFFFFFFFFFF00FFFFFDFFFFFFFFFFFFFFFFFFFFFFFFFFFFFFFFFDFFFF00FFFFFFFFFFFFFFFF00FFFFFFFFFFFFFFFFFFFFFF
310
FFFFFFFFFFFFFFFFFFFFFF00FFFFFFFFFFFFFFFFFF00FFFFFFFFFFFFFFFFFFFFFFFFFFFFFFFFFFFFFFFFFF00FFFFFFFFFFFFFFFFFF00FFFFFFFFFFFFFFFFFFFFFFFFFFFFFFFFFFFFFFFFFFFFFDFFFFFFFFFFFFFFFFFFFDFFFFFFFFFFFFFFFFFFFFFFFFFFFFFFFFFFFFFFFFFFFFFDFFFFFFFFFFFFFFFFFFFDFDFFFFFFFFFFFF
310
FFFFFFFFFFFFFFFFFFFFFFFFFFFFFDFFFFFFFFFFFFFFFFFFFFFFFDFFFFFFFFFFFFFFFFFFFFFFFFFFFFFFFFFFFFFFFF0000FFFFFFFFFFFFFFFFFFFFFDFDFFFFFFFFFFFFFFFFFFFFFFFFFFFFFFFFFFFFFF00FFFFFFFFFFFFFFFFFFFFFFFFFDFFFFFFFFFFFFFFFFFFFFFFFFFFFFFFFFFFFFFF00FFFFFFFFFFFFFFFFFFFFFFFFFD
310
FDFDFDFDFDFDFDFDFDFDFDFDFDFDFDFDFDFD00FFFFFFFFFFFFFFFFFFFFFFFFFFFFFDFDFFFFFFFFFFFFFFFFFFFFFFFFFFFFFF00FFFFFFFFFFFFFFFFFFFFFFFFFFFFFFFFFDFFFFFFFFFFFFFFFFFFFFFFFFFFFFFFFFFFFFFFFFFFFFFFFFFFFFFFFFFFFFFFFFFDFDFFFFFFFFFFFFFFFFFFFFFFFFFF00FFFFFFFFFFFFFFFFFFFFFF
310
FFFFFFFFFFFFFFFFFFFFFFFFFFFFFFFFFFFFFFFF00FFFFFFFFFFFFFFFFFFFFFFFFFFFFFFFFFFFFFF0000FFFFFFFFFFFFFFFFFFFF00FFFFFFFFFFFFFFFFFFFFFFFFFFFFFFFFFFFFFFFFFF00FFFFFFFFFFFFFFFFFF00FFFFFFFFFFFFFFFFFFFFFFFFFFFFFFFFFFFFFFFFFFFF0000FFFFFFFFFFFFFF00FFFFFFFFFFFFFFFFFFFF
310
FFFFFFFFFFFFFFFFFFFFFFFFFFFF00FFFFFFFFFFFF00FFFFFFFFFFFFFFFFFFFFFFFFFFFFFFFFFFFFFFFFFFFF0000FFFFFFFFFFFFFF00FFFFFFFFFFFFFFFFFFFFFFFFFFFFFFFFFFFFFFFF0000FFFFFFFFFFFFFFFFFF00FFFFFFFFFFFFFFFFFFFFFFFFFFFFFFFFFFFF0000FFFFFFFFFFFFFFFFFFFF0000FFFFFFFFFFFFFFFFFF
310
FFFFFFFFFFFFFFFD00FFFFFFFFFFFFFFFFFFFFFFFF00FFFFFFFFFFFFFFFFFFFFFFFFFFFFFFFFFF00FFFFFFFFFFFFFFFFFFFFFFFFFF00FFFFFFFFFFFFFFFFFFFFFFFFFFFFFFFFFF0000FFFFFFFFFFFFFFFFFFFFFF0000FFFFFFFFFFFFFFFFFFFFFFFFFFFFFFFFFFFF0000FFFFFFFFFFFFFFFF000000FFFFFFFFFFFFFFFFFFFF
310
FFFFFFFFFFFFFFFFFFFF00FDFDFDFDFDFDFD00FFFFFFFFFFFFFFFFFFFFFFFFFFFFFFFFFFFFFFFFFFFFFFFFFFFFFFFFFFFFFFFFFFFFFFFFFF
102
{BLKREFS
331
0
331
0
331
0
331
0
331
0
331
0
331
0
331
0
102
}
 70
     0
280
     1
281
     0
  0
BLOCK_RECORD
  5
CE0
330
2F5
100
AcDbSymbolTableRecord
100
AcDbBlockTableRecord
  2
ve-g
340
0
310
2800000020000000200000000100080000000000000400000000000000000000000000000000000000000000000080000080000000808000800000008000800080800000C0C0C000C0DCC000F0CAA6000020400000206000002080000020A0000020C0000020E00000400000004020000040400000406000004080000040A0
310
000040C0000040E00000600000006020000060400000606000006080000060A0000060C0000060E00000800000008020000080400000806000008080000080A0000080C0000080E00000A0000000A0200000A0400000A0600000A0800000A0A00000A0C00000A0E00000C0000000C0200000C0400000C0600000C0800000C0
310
A00000C0C00000C0E00000E0000000E0200000E0400000E0600000E0800000E0A00000E0C00000E0E00040000000400020004000400040006000400080004000A0004000C0004000E00040200000402020004020400040206000402080004020A0004020C0004020E000404000004040200040404000404060004040800040
310
40A0004040C0004040E00040600000406020004060400040606000406080004060A0004060C0004060E00040800000408020004080400040806000408080004080A0004080C0004080E00040A0000040A0200040A0400040A0600040A0800040A0A00040A0C00040A0E00040C0000040C0200040C0400040C0600040C08000
310
40C0A00040C0C00040C0E00040E0000040E0200040E0400040E0600040E0800040E0A00040E0C00040E0E00080000000800020008000400080006000800080008000A0008000C0008000E00080200000802020008020400080206000802080008020A0008020C0008020E00080400000804020008040400080406000804080
310
008040A0008040C0008040E00080600000806020008060400080606000806080008060A0008060C0008060E00080800000808020008080400080806000808080008080A0008080C0008080E00080A0000080A0200080A0400080A0600080A0800080A0A00080A0C00080A0E00080C0000080C0200080C0400080C0600080C0
310
800080C0A00080C0C00080C0E00080E0000080E0200080E0400080E0600080E0800080E0A00080E0C00080E0E000C0000000C0002000C0004000C0006000C0008000C000A000C000C000C000E000C0200000C0202000C0204000C0206000C0208000C020A000C020C000C020E000C0400000C0402000C0404000C0406000C0
310
408000C040A000C040C000C040E000C0600000C0602000C0604000C0606000C0608000C060A000C060C000C060E000C0800000C0802000C0804000C0806000C0808000C080A000C080C000C080E000C0A00000C0A02000C0A04000C0A06000C0A08000C0A0A000C0A0C000C0A0E000C0C00000C0C02000C0C04000C0C06000
310
C0C08000C0C0A000F0FBFF00A4A0A000808080000000FF0000FF000000FFFF00FF000000FF00FF00FFFF0000FFFFFF00FFFFFFFFFF00FFFFFFFFFFFFFFFFFFFFFFFFFFFFFFFFFFFFFFFFFFFFFFFFFFFFFFFF000000000000FFFFFFFFFFFFFFFFFFFFFFFFFFFFFFFFFFFFFFFFFFFFFFFFFFFF00FFFFFDFFFF0000FFFFFFFFFF
310
FFFFFFFFFFFFFFFFFFFFFFFFFFFFFFFFFFFFFF00FFFDFDFFFFFFFFFDFFFFFFFFFFFFFFFFFFFFFFFFFFFFFFFFFFFFFFFFFFFF00FFFDFDFDFDFFFFFFFFFDFFFFFFFFFFFFFFFFFFFFFFFFFFFFFFFFFFFFFFFFFF00FFFFFFFDFFFFFFFFFFFDFFFFFFFFFFFFFFFFFFFFFFFFFFFFFFFFFFFFFFFFFF00FFFFFFFFFFFFFFFFFFFFFDFF
310
FFFFFFFFFFFFFFFFFFFFFFFFFFFFFFFFFFFFFFFDFFFFFFFFFFFFFFFFFFFFFFFDFFFFFFFFFFFFFFFFFFFFFFFFFFFFFFFFFFFFFFFDFFFFFFFFFFFFFFFFFFFFFFFDFFFFFFFFFFFFFFFFFFFFFFFFFFFFFFFFFFFFFFFDFFFFFFFFFFFFFFFFFFFFFFFFFDFFFFFFFFFFFFFFFFFFFFFFFFFFFFFFFFFFFFFDFFFFFFFFFFFFFFFFFFFFFF
310
FFFDFDFFFFFFFFFFFFFFFFFFFFFFFFFFFFFFFFFFFDFFFFFFFFFFFFFFFFFFFFFFFFFFFDFFFFFFFFFFFFFFFFFFFFFFFFFFFFFFFFFFFDFFFFFFFFFFFFFFFFFFFFFFFFFFFDFDFFFFFFFFFFFFFFFFFFFFFFFFFFFFFFFFFDFFFFFFFFFFFFFFFFFFFFFFFFFFFDFDFFFFFFFFFFFFFFFFFFFFFFFFFFFFFFFFFDFFFFFFFFFFFFFFFFFFFF
310
FFFFFFFDFFFDFFFFFFFFFFFFFFFFFFFFFFFFFFFFFFFDFFFFFFFFFFFFFFFFFFFFFFFFFFFDFFFFFDFFFFFFFFFFFFFFFFFD0000FFFFFFFDFFFFFFFFFFFFFFFFFFFFFFFFFFFDFFFFFDFFFFFFFFFFFFFF00FFFF0000FFFFFDFFFFFFFFFFFFFFFFFFFFFFFFFFFDFFFFFFFFFFFFFFFFFFFF00FFFFFF0000FFFDFFFFFFFFFFFFFFFFFF
310
FFFFFFFFFDFFFFFFFF00FFFFFFFF00FFFFFFFFFFFDFF00FFFFFFFFFFFFFFFFFFFFFFFFFFFDFFFFFFFF00FFFFFFFF00FFFFFFFFFFFDFF00FFFFFDFDFFFFFFFFFFFFFFFFFFFDFFFFFFFFFF00FFFF00FFFFFFFFFFFFFDFF00FFFDFFFFFDFFFFFFFFFFFFFFFFFDFFFFFFFFFFFF00FF00FFFFFFFFFFFFFDFFFF00FFFDFDFFFFFFFF
310
FFFFFFFFFFFDFFFFFFFFFFFF0000FFFFFFFFFFFFFFFDFFFF0000FFFFFFFFFFFFFFFFFFFFFFFDFFFFFFFFFFFFFF00FFFFFFFFFFFFFFFDFFFFFF000000000000FFFFFFFFFFFFFDFFFFFFFFFFFFFFFFFFFFFFFFFFFFFFFDFFFFFFFFFFFFFFFFFFFDFFFFFFFFFFFDFFFFFFFFFFFFFFFFFFFFFFFFFFFFFF00FFFFFFFFFFFFFFFFFF
310
FFFDFDFFFFFFFDFFFFFFFFFFFFFFFFFFFFFFFFFFFF00FFFFFFFFFFFFFFFFFFFFFFFFFF00FFFFFDFFFFFFFFFFFFFFFFFFFFFFFFFFFF00FFFFFFFFFFFFFFFFFFFFFFFFFF0000FFFDFFFFFFFFFFFFFFFFFFFFFFFFFF0000FFFFFFFFFFFFFFFFFFFFFFFFFFFFFF000000FFFFFFFFFFFFFFFFFF00000000FFFFFFFFFFFFFFFFFFFF
310
FFFFFFFFFFFFFFFFFFFF000000000000000000FFFFFFFFFFFFFFFFFFFFFFFFFFFFFFFFFFFFFFFFFFFFFFFFFFFFFFFFFFFFFFFFFFFFFFFFFF
102
{BLKREFS
331
0
331
0
331
0
331
0
331
0
331
0
331
0
331
0
102
}
 70
     0
280
     1
281
     0
  0
BLOCK_RECORD
  5
D31
330
2F5
100
AcDbSymbolTableRecord
100
AcDbBlockTableRecord
  2
passe-fil
340
0
310
2800000020000000200000000100080000000000000400000000000000000000000000000000000000000000000080000080000000808000800000008000800080800000C0C0C000C0DCC000F0CAA6000020400000206000002080000020A0000020C0000020E00000400000004020000040400000406000004080000040A0
310
000040C0000040E00000600000006020000060400000606000006080000060A0000060C0000060E00000800000008020000080400000806000008080000080A0000080C0000080E00000A0000000A0200000A0400000A0600000A0800000A0A00000A0C00000A0E00000C0000000C0200000C0400000C0600000C0800000C0
310
A00000C0C00000C0E00000E0000000E0200000E0400000E0600000E0800000E0A00000E0C00000E0E00040000000400020004000400040006000400080004000A0004000C0004000E00040200000402020004020400040206000402080004020A0004020C0004020E000404000004040200040404000404060004040800040
310
40A0004040C0004040E00040600000406020004060400040606000406080004060A0004060C0004060E00040800000408020004080400040806000408080004080A0004080C0004080E00040A0000040A0200040A0400040A0600040A0800040A0A00040A0C00040A0E00040C0000040C0200040C0400040C0600040C08000
310
40C0A00040C0C00040C0E00040E0000040E0200040E0400040E0600040E0800040E0A00040E0C00040E0E00080000000800020008000400080006000800080008000A0008000C0008000E00080200000802020008020400080206000802080008020A0008020C0008020E00080400000804020008040400080406000804080
310
008040A0008040C0008040E00080600000806020008060400080606000806080008060A0008060C0008060E00080800000808020008080400080806000808080008080A0008080C0008080E00080A0000080A0200080A0400080A0600080A0800080A0A00080A0C00080A0E00080C0000080C0200080C0400080C0600080C0
310
800080C0A00080C0C00080C0E00080E0000080E0200080E0400080E0600080E0800080E0A00080E0C00080E0E000C0000000C0002000C0004000C0006000C0008000C000A000C000C000C000E000C0200000C0202000C0204000C0206000C0208000C020A000C020C000C020E000C0400000C0402000C0404000C0406000C0
310
408000C040A000C040C000C040E000C0600000C0602000C0604000C0606000C0608000C060A000C060C000C060E000C0800000C0802000C0804000C0806000C0808000C080A000C080C000C080E000C0A00000C0A02000C0A04000C0A06000C0A08000C0A0A000C0A0C000C0A0E000C0C00000C0C02000C0C04000C0C06000
310
C0C08000C0C0A000F0FBFF00A4A0A000808080000000FF0000FF000000FFFF00FF000000FF00FF00FFFF0000FFFFFF00FFFFFFFFFFFFFFFFFFFFFFFFFFFFFFFFFFFFFFFFFFFFFFFFFFFFFFFFFFFFFFFFFFFFFFFFFFFFFFFFFFFFFFFFFFFFFFFFFFFFFFFFFFFFFFFFFFFFFFFFFFFFFFFFFFFFFFFFFFFFFFFFFFFFFFFFFFFFFF
310
FFFFFFFFFFFFFFFFFFFFFFFFFFFFFFFFFFFFFFFFFFFFFFFF00000000000000000000FFFFFFFFFFFFFFFFFFFFFFFFFFFFFFFFFFFFFFFF0000FFFFFFFFFFFFFFFFFFFF0000FFFFFFFFFFFFFFFFFFFFFFFFFFFFFFFF0000FFFFFFFFFFFFFFFFFFFFFFFFFFFFFF00FFFFFFFFFFFFFFFFFFFFFFFFFF00FFFFFFFFFFFFFFFFFFFFFF
310
FFFFFFFFFFFFFF0000FFFFFFFFFFFFFFFFFFFFFF00FFFFFFFFFFFFFDFDFDFDFFFFFFFFFFFFFFFFFFFF00FFFFFFFFFFFFFFFFFF00FFFFFFFFFFFFFFFDFFFFFDFFFFFFFFFFFFFFFFFFFFFF00FFFFFFFFFFFFFFFF00FFFFFFFFFFFFFFFDFFFFFDFFFFFFFFFFFFFFFFFFFFFDFF00FFFFFFFFFFFFFF00FFFFFFFFFFFFFFFDFDFDFD
310
FFFFFFFFFFFFFFFFFFFFFDFFFF0000FFFFFFFFFF00FFFFFFFFFFFFFFFFFFFFFFFFFFFFFFFFFFFFFFFFFDFFFFFFFFFF00FFFFFFFF00FFFFFFFFFFFFFFFFFFFFFFFFFFFFFFFFFFFFFFFFFDFFFFFFFFFFFF00FFFFFF00FFFFFFFFFFFFFFFFFFFFFFFFFFFFFFFFFFFFFFFDFFFFFFFFFFFFFFFF00FFFF00FFFFFFFFFFFFFFFFFFFF
310
FFFFFFFFFFFFFFFFFFFDFFFFFFFFFFFFFFFF00FFFF00FFFFFFFFFFFFFFFFFFFFFFFFFFFFFFFFFFFFFFFDFFFFFFFFFFFFFFFFFF00FF00FFFFFFFFFFFFFFFFFFFFFFFFFFFFFFFFFFFFFFFDFFFFFFFFFFFFFFFF00FFFF00FFFFFFFFFFFFFFFFFFFFFFFFFFFFFFFFFFFFFFFDFFFFFFFFFFFFFFFF00FFFF00FFFFFFFFFFFFFFFFFF
310
FFFFFFFFFFFFFFFFFFFFFDFFFFFFFFFFFFFF00FFFFFF00FFFFFFFFFFFFFFFFFFFFFFFFFFFFFFFFFFFFFFFFFDFFFFFFFFFF00FFFFFFFF00FFFFFFFFFFFFFFFDFDFDFDFFFFFFFFFFFFFFFFFFFDFFFFFF0000FFFFFFFFFF00FFFFFFFFFFFFFFFDFFFFFDFFFFFFFFFFFFFFFFFFFFFDFF00FFFFFFFFFFFFFF00FFFFFFFFFFFFFFFD
310
FFFFFDFFFFFFFFFFFFFFFFFFFFFFFDFFFFFFFFFFFFFFFFFF00FFFFFFFFFFFFFDFDFDFDFFFFFFFFFFFFFFFFFFFF00FFFFFFFFFFFFFFFFFFFF00FFFFFFFFFFFFFFFFFFFFFFFFFFFFFFFFFFFF0000FFFFFFFFFFFFFFFFFFFFFFFF00FFFFFFFFFFFFFFFFFFFFFFFFFFFFFFFF00FFFFFFFFFFFFFFFFFFFFFFFFFFFFFF0000FFFFFF
310
FFFFFFFFFFFFFFFF000000FFFFFFFFFFFFFFFFFFFFFFFFFFFFFFFFFFFF0000000000000000000000FFFFFFFFFFFFFFFFFFFFFFFFFFFFFFFFFFFFFFFFFFFFFFFFFFFFFFFFFFFFFFFFFFFFFFFFFFFFFFFFFFFFFFFFFFFFFFFFFFFFFFFFFFFFFFFFFFFFFFFFFFFFFFFFFFFFFFFFFFFFFFFFFFFFFFFFFFFFFFFFFFFFFFFFFFFFFF
310
FFFFFFFFFFFFFFFFFFFFFFFFFFFFFFFFFFFFFFFFFFFFFFFFFFFFFFFFFFFFFFFFFFFFFFFFFFFFFFFFFFFFFFFFFFFFFFFFFFFFFFFFFFFFFFFF
102
{BLKREFS
331
0
331
0
331
0
331
0
102
}
 70
     0
280
     1
281
     0
  0
BLOCK_RECORD
  5
D47
330
2F5
100
AcDbSymbolTableRecord
100
AcDbBlockTableRecord
  2
porte-rotule
340
0
310
2800000020000000200000000100080000000000000400000000000000000000000000000000000000000000000080000080000000808000800000008000800080800000C0C0C000C0DCC000F0CAA6000020400000206000002080000020A0000020C0000020E00000400000004020000040400000406000004080000040A0
310
000040C0000040E00000600000006020000060400000606000006080000060A0000060C0000060E00000800000008020000080400000806000008080000080A0000080C0000080E00000A0000000A0200000A0400000A0600000A0800000A0A00000A0C00000A0E00000C0000000C0200000C0400000C0600000C0800000C0
310
A00000C0C00000C0E00000E0000000E0200000E0400000E0600000E0800000E0A00000E0C00000E0E00040000000400020004000400040006000400080004000A0004000C0004000E00040200000402020004020400040206000402080004020A0004020C0004020E000404000004040200040404000404060004040800040
310
40A0004040C0004040E00040600000406020004060400040606000406080004060A0004060C0004060E00040800000408020004080400040806000408080004080A0004080C0004080E00040A0000040A0200040A0400040A0600040A0800040A0A00040A0C00040A0E00040C0000040C0200040C0400040C0600040C08000
310
40C0A00040C0C00040C0E00040E0000040E0200040E0400040E0600040E0800040E0A00040E0C00040E0E00080000000800020008000400080006000800080008000A0008000C0008000E00080200000802020008020400080206000802080008020A0008020C0008020E00080400000804020008040400080406000804080
310
008040A0008040C0008040E00080600000806020008060400080606000806080008060A0008060C0008060E00080800000808020008080400080806000808080008080A0008080C0008080E00080A0000080A0200080A0400080A0600080A0800080A0A00080A0C00080A0E00080C0000080C0200080C0400080C0600080C0
310
800080C0A00080C0C00080C0E00080E0000080E0200080E0400080E0600080E0800080E0A00080E0C00080E0E000C0000000C0002000C0004000C0006000C0008000C000A000C000C000C000E000C0200000C0202000C0204000C0206000C0208000C020A000C020C000C020E000C0400000C0402000C0404000C0406000C0
310
408000C040A000C040C000C040E000C0600000C0602000C0604000C0606000C0608000C060A000C060C000C060E000C0800000C0802000C0804000C0806000C0808000C080A000C080C000C080E000C0A00000C0A02000C0A04000C0A06000C0A08000C0A0A000C0A0C000C0A0E000C0C00000C0C02000C0C04000C0C06000
310
C0C08000C0C0A000F0FBFF00A4A0A000808080000000FF0000FF000000FFFF00FF000000FF00FF00FFFF0000FFFFFF00FFFFFFFFFFFFFFFFFFFFFFFFFFFFFFFFFFFFFFFFFFFFFFFFFFFFFFFFFFFFFFFFFFFFFFFFFFFFFFFFFFFFFFFFFFFFFFFFFFFFFFFFFFFFFFFFFFFFFFFFFFFFFFFFFFFFFFFFFFFFFFFFFFFFFFFFFFFFFF
310
FFFFFFFFFFFFFFFFFFFFFFFFFFFFFFFFFFFFFFFFFFFFFFFFFFFFFFFFFFFFFFFFFFFFFFFFFFFFFFFFFFFFFFFFFFFFFFFFFFFFFFFFFF00FDFDFDFDFDFDFDFDFDFDFDFDFDFDFDFDFDFDFDFDFDFF0000FFFFFFFFFFFF00FFFFFFFFFFFFFFFFFFFFFFFFFFFFFFFFFFFFFFFFFFFFFFFF0000FFFFFFFF00FFFFFDFFFFFFFFFFFFFFFF
310
FFFFFFFFFFFFFFFFFFFFFFFFFDFFFF0000FFFFFF00FFFDFFFDFFFFFFFFFFFFFFFFFFFFFFFFFFFFFFFFFFFFFDFFFDFFFF00FFFF00FFFFFDFFFFFDFFFFFFFFFFFFFFFFFFFFFFFFFFFFFFFFFFFDFFFFFDFF00FFFFFF00FFFDFDFDFFFFFFFFFFFFFFFFFFFFFFFFFFFFFFFFFFFFFDFDFDFFFF00FFFFFF00FFFFFFFFFFFFFFFFFFFF
310
FDFDFDFD00FFFFFFFFFFFFFFFFFFFFFFFF00FFFFFFFF00FFFFFFFFFFFFFFFFFDFFFFFFFFFF000000FFFFFFFFFFFFFFFFFF00FFFFFFFFFF00FFFFFFFFFFFFFFFFFFFFFFFFFFFFFFFF0000FFFFFFFFFFFFFF00FFFFFFFFFFFF0000FFFFFFFF00FFFFFFFFFFFFFFFFFFFFFF000000FFFFFFFF00FFFFFFFFFFFFFFFF00FFFF00FF
310
FFFFFFFF00FFFFFFFFFFFFFFFFFF000000FF00FFFFFFFFFFFFFFFFFF0000FFFFFFFFFF00FF0000FFFFFFFFFFFFFFFFFFFF0000FFFFFFFFFFFFFFFFFFFF0000FFFFFF00FFFFFFFF00FFFFFFFFFFFFFFFFFFFF00FFFFFFFFFFFFFFFFFFFFFFFF0000FFFF0000FFFFFF0000FFFFFFFFFFFFFFFF00FFFFFFFFFFFFFFFFFFFFFFFF
310
FFFF00FFFFFF0000FFFFFF0000FFFFFFFFFFFF00FFFFFFFFFFFFFFFFFFFFFFFFFFFFFF0000FFFFFF0000FFFFFFFFFFFFFFFFFF00FFFFFFFFFFFFFFFFFFFFFFFFFFFFFFFFFF00FFFFFFFF000000FFFFFFFDFFFF00FFFFFFFFFFFFFFFFFFFFFFFFFFFFFFFFFFFF0000FFFFFFFF00FFFDFDFFFDFF00FFFFFFFFFFFFFFFFFFFFFF
310
FFFFFFFFFFFFFFFFFF0000FFFFFFFFFDFFFFFFFDFF00FFFFFFFFFFFFFFFFFFFFFFFFFFFFFFFFFFFFFFFFFF0000FFFFFDFFFFFDFF00FFFFFFFFFFFFFFFFFFFFFFFFFFFFFFFFFFFFFFFFFFFFFFFF0000FDFDFDFDFF00FFFFFFFFFFFFFFFFFFFFFFFFFFFFFFFFFFFFFFFFFFFFFFFFFF0000FFFFFF0000FFFFFFFFFFFFFFFFFFFF
310
FFFFFFFFFFFFFFFFFFFFFFFFFFFFFFFF00000000FFFFFFFFFFFFFFFFFFFFFFFFFFFFFFFFFFFFFFFFFFFFFFFFFFFFFFFFFFFFFFFFFFFFFFFFFFFFFFFFFFFFFFFFFFFFFFFFFFFFFFFFFFFFFFFFFFFFFFFFFFFFFFFFFFFFFFFFFFFFFFFFFFFFFFFFFFFFFFFFFFFFFFFFFFFFFFFFFFFFFFFFFFFFFFFFFFFFFFFFFFFFFFFFFFFFFF
310
FFFFFFFFFFFFFFFFFFFFFFFFFFFFFFFFFFFFFFFFFFFFFFFFFFFFFFFFFFFFFFFFFFFFFFFFFFFFFFFFFFFFFFFFFFFFFFFFFFFFFFFFFFFFFFFF
102
{BLKREFS
331
0
331
0
331
0
331
0
331
0
331
0
102
}
 70
     0
280
     1
281
     0
  0
BLOCK_RECORD
  5
D9D
330
2F5
100
AcDbSymbolTableRecord
100
AcDbBlockTableRecord
  2
taquet
340
0
310
2800000020000000200000000100080000000000000400000000000000000000000000000000000000000000000080000080000000808000800000008000800080800000C0C0C000C0DCC000F0CAA6000020400000206000002080000020A0000020C0000020E00000400000004020000040400000406000004080000040A0
310
000040C0000040E00000600000006020000060400000606000006080000060A0000060C0000060E00000800000008020000080400000806000008080000080A0000080C0000080E00000A0000000A0200000A0400000A0600000A0800000A0A00000A0C00000A0E00000C0000000C0200000C0400000C0600000C0800000C0
310
A00000C0C00000C0E00000E0000000E0200000E0400000E0600000E0800000E0A00000E0C00000E0E00040000000400020004000400040006000400080004000A0004000C0004000E00040200000402020004020400040206000402080004020A0004020C0004020E000404000004040200040404000404060004040800040
310
40A0004040C0004040E00040600000406020004060400040606000406080004060A0004060C0004060E00040800000408020004080400040806000408080004080A0004080C0004080E00040A0000040A0200040A0400040A0600040A0800040A0A00040A0C00040A0E00040C0000040C0200040C0400040C0600040C08000
310
40C0A00040C0C00040C0E00040E0000040E0200040E0400040E0600040E0800040E0A00040E0C00040E0E00080000000800020008000400080006000800080008000A0008000C0008000E00080200000802020008020400080206000802080008020A0008020C0008020E00080400000804020008040400080406000804080
310
008040A0008040C0008040E00080600000806020008060400080606000806080008060A0008060C0008060E00080800000808020008080400080806000808080008080A0008080C0008080E00080A0000080A0200080A0400080A0600080A0800080A0A00080A0C00080A0E00080C0000080C0200080C0400080C0600080C0
310
800080C0A00080C0C00080C0E00080E0000080E0200080E0400080E0600080E0800080E0A00080E0C00080E0E000C0000000C0002000C0004000C0006000C0008000C000A000C000C000C000E000C0200000C0202000C0204000C0206000C0208000C020A000C020C000C020E000C0400000C0402000C0404000C0406000C0
310
408000C040A000C040C000C040E000C0600000C0602000C0604000C0606000C0608000C060A000C060C000C060E000C0800000C0802000C0804000C0806000C0808000C080A000C080C000C080E000C0A00000C0A02000C0A04000C0A06000C0A08000C0A0A000C0A0C000C0A0E000C0C00000C0C02000C0C04000C0C06000
310
C0C08000C0C0A000F0FBFF00A4A0A000808080000000FF0000FF000000FFFF00FF000000FF00FF00FFFF0000FFFFFF00FFFFFFFFFFFFFFFFFFFFFFFFFF00FDFDFDFD0000FFFFFFFFFFFFFFFFFFFFFFFFFFFFFFFFFFFFFFFFFFFFFF0000FFFFFFFFFFFFFF0000FFFFFFFFFFFFFFFFFFFFFFFFFFFFFFFFFFFFFF0000FFFFFFFF
310
FFFFFFFFFFFFFF0000FFFFFFFFFFFFFFFFFFFFFFFFFFFFFFFFFF00FFFFFFFFFFFFFFFFFFFFFFFFFF00FFFFFFFFFFFFFFFFFFFFFFFFFFFFFFFF00FFFFFFFFFFFFFFFFFFFFFFFFFFFFFF00FFFFFFFFFFFFFFFFFFFFFFFFFFFFFF00FFFFFFFFFFFFFFFFFFFFFFFFFFFFFF00FFFFFFFFFFFFFFFFFFFFFFFFFFFF00FFFFFFFFFFFF
310
FFFFFDFFFFFFFFFFFFFFFF00FFFFFFFFFFFFFFFFFFFFFFFFFFFDFFFFFFFFFFFFFFFDFFFDFFFFFFFFFFFFFFFDFFFFFFFFFFFFFFFFFFFFFFFFFFFDFFFFFFFFFFFFFDFFFFFFFDFFFFFFFFFFFFFDFFFFFFFFFFFFFFFFFFFFFFFFFFFDFFFFFFFFFFFFFFFDFFFDFFFFFFFFFFFFFFFDFFFFFFFFFFFFFFFFFFFFFFFFFFFDFFFFFFFFFF
310
FFFFFFFDFFFFFFFFFFFFFFFFFDFFFFFFFFFFFFFFFFFFFFFFFFFFFDFFFFFFFFFFFFFFFFFFFFFFFFFFFFFFFFFFFDFFFFFFFFFFFFFFFFFFFFFFFFFFFDFFFFFFFFFFFFFFFFFFFFFFFFFFFFFFFFFFFDFFFFFFFFFFFFFFFFFFFFFFFFFFFDFFFFFFFFFFFFFFFFFFFFFFFFFFFFFFFFFFFDFFFFFFFFFFFFFFFFFFFFFFFFFFFDFFFFFFFF
310
FFFFFFFFFFFFFFFFFFFFFFFFFFFDFFFFFFFFFFFFFFFFFFFFFFFFFFFDFFFFFFFFFFFFFFFFFFFFFFFFFFFFFFFFFFFDFFFFFFFFFFFFFFFFFFFFFFFFFFFDFFFFFFFFFFFFFFFFFFFFFFFFFFFFFFFFFFFDFFFFFFFFFFFFFFFFFFFFFFFFFFFDFFFFFFFFFFFFFFFFFFFFFFFFFFFFFFFFFFFDFFFFFFFFFFFFFFFFFFFFFFFFFFFDFFFFFF
310
FFFFFFFFFFFFFFFFFFFFFFFFFFFFFDFFFFFFFFFFFFFFFFFFFFFFFFFFFDFFFFFFFFFFFFFFFFFFFFFFFFFFFFFFFFFFFDFFFFFFFFFFFFFFFFFFFFFFFFFFFDFFFFFFFFFFFFFFFFFDFFFFFFFFFFFFFFFFFDFFFFFFFFFFFFFFFFFFFFFFFFFFFDFFFFFFFFFFFFFFFDFFFDFFFFFFFFFFFFFFFDFFFFFFFFFFFFFFFFFFFFFFFFFFFDFFFF
310
FFFFFFFFFDFFFFFFFDFFFFFFFFFFFFFDFFFFFFFFFFFFFFFFFFFFFFFFFF00FFFFFFFFFFFFFFFDFFFDFFFFFFFFFFFFFF00FFFFFFFFFFFFFFFFFFFFFFFFFF00FFFFFFFFFFFFFFFFFDFFFFFFFFFFFFFFFF00FFFFFFFFFFFFFFFFFFFFFFFFFFFF00FFFFFFFFFFFFFFFFFFFFFFFFFFFFFF00FFFFFFFFFFFFFFFFFFFFFFFFFFFFFF00
310
FFFFFFFFFFFFFFFFFFFFFFFFFFFFFF00FFFFFFFFFFFFFFFFFFFFFFFFFFFFFFFF00FFFFFFFFFFFFFFFFFFFFFFFFFF00FFFFFFFFFFFFFFFFFFFFFFFFFFFFFFFFFF0000FFFFFFFFFFFFFFFFFFFFFF0000FFFFFFFFFFFFFFFFFFFFFFFFFFFFFFFFFFFFFF0000FFFFFFFFFFFFFF0000FFFFFFFFFFFFFFFFFFFFFFFFFFFFFFFFFFFF
310
FFFFFFFFFF00FDFDFDFD0000FFFFFFFFFFFFFFFFFFFFFFFFFFFFFFFFFFFFFFFFFFFFFFFFFFFFFFFFFFFFFFFFFFFFFFFFFFFFFFFFFFFFFFFF
102
{BLKREFS
331
0
331
0
331
0
331
0
102
}
 70
     0
280
     1
281
     0
  0
BLOCK_RECORD
  5
DAB
330
2F5
100
AcDbSymbolTableRecord
100
AcDbBlockTableRecord
  2
ressort
340
0
310
2800000020000000200000000100080000000000000400000000000000000000000000000000000000000000000080000080000000808000800000008000800080800000C0C0C000C0DCC000F0CAA6000020400000206000002080000020A0000020C0000020E00000400000004020000040400000406000004080000040A0
310
000040C0000040E00000600000006020000060400000606000006080000060A0000060C0000060E00000800000008020000080400000806000008080000080A0000080C0000080E00000A0000000A0200000A0400000A0600000A0800000A0A00000A0C00000A0E00000C0000000C0200000C0400000C0600000C0800000C0
310
A00000C0C00000C0E00000E0000000E0200000E0400000E0600000E0800000E0A00000E0C00000E0E00040000000400020004000400040006000400080004000A0004000C0004000E00040200000402020004020400040206000402080004020A0004020C0004020E000404000004040200040404000404060004040800040
310
40A0004040C0004040E00040600000406020004060400040606000406080004060A0004060C0004060E00040800000408020004080400040806000408080004080A0004080C0004080E00040A0000040A0200040A0400040A0600040A0800040A0A00040A0C00040A0E00040C0000040C0200040C0400040C0600040C08000
310
40C0A00040C0C00040C0E00040E0000040E0200040E0400040E0600040E0800040E0A00040E0C00040E0E00080000000800020008000400080006000800080008000A0008000C0008000E00080200000802020008020400080206000802080008020A0008020C0008020E00080400000804020008040400080406000804080
310
008040A0008040C0008040E00080600000806020008060400080606000806080008060A0008060C0008060E00080800000808020008080400080806000808080008080A0008080C0008080E00080A0000080A0200080A0400080A0600080A0800080A0A00080A0C00080A0E00080C0000080C0200080C0400080C0600080C0
310
800080C0A00080C0C00080C0E00080E0000080E0200080E0400080E0600080E0800080E0A00080E0C00080E0E000C0000000C0002000C0004000C0006000C0008000C000A000C000C000C000E000C0200000C0202000C0204000C0206000C0208000C020A000C020C000C020E000C0400000C0402000C0404000C0406000C0
310
408000C040A000C040C000C040E000C0600000C0602000C0604000C0606000C0608000C060A000C060C000C060E000C0800000C0802000C0804000C0806000C0808000C080A000C080C000C080E000C0A00000C0A02000C0A04000C0A06000C0A08000C0A0A000C0A0C000C0A0E000C0C00000C0C02000C0C04000C0C06000
310
C0C08000C0C0A000F0FBFF00A4A0A000808080000000FF0000FF000000FFFF00FF000000FF00FF00FFFF0000FFFFFF00FFFFFFFFFFFFFFFFFFFFFFFFFDFDFDFDFDFDFDFDFDFFFFFFFFFFFFFFFFFFFFFFFFFFFFFFFFFFFFFFFFFFFFFDFDFFFFFFFFFFFFFFFDFDFFFFFFFFFFFFFFFFFFFFFFFFFFFFFFFFFFFFFFFFFFFDFFFFFF
310
FFFFFFFFFFFFFDFFFFFFFFFFFFFFFFFFFFFFFFFFFFFFFFFFFFFFFFFFFDFFFFFFFFFFFFFFFFFFFDFFFFFFFFFFFFFFFFFFFFFFFFFFFFFFFFFFFFFFFFFFFFFDFDFFFFFFFFFFFDFDFFFFFFFFFFFFFFFFFFFFFFFFFFFFFFFFFFFFFFFFFFFFFFFFFFFDFFFFFFFDFFFFFFFFFFFFFFFFFFFFFFFFFFFFFFFFFFFFFFFFFFFFFFFFFFFFFF
310
FDFFFFFFFDFFFFFFFFFFFFFFFFFFFFFFFFFFFFFFFFFFFFFFFFFFFFFFFFFFFDFDFFFFFFFFFFFDFDFFFFFFFFFFFFFFFFFFFFFFFFFFFFFFFFFFFFFFFFFFFFFDFFFFFFFFFFFFFFFFFFFDFFFFFFFFFFFFFFFFFFFFFFFFFFFFFFFFFFFFFFFFFFFDFFFFFFFFFFFFFFFFFFFDFFFFFFFFFFFFFFFFFFFFFFFFFFFFFFFFFFFFFFFFFFFDFF
310
FFFFFFFFFFFFFFFFFDFFFFFFFFFFFFFFFFFFFFFFFFFFFFFFFFFFFFFFFFFFFDFFFFFFFFFFFFFFFFFFFDFFFFFFFFFFFFFFFFFFFFFFFFFFFFFFFFFFFFFFFFFFFDFFFFFFFFFFFFFFFFFFFDFFFFFFFFFFFFFFFFFFFFFFFFFFFFFFFFFFFFFFFFFFFDFFFFFFFFFFFFFFFFFFFDFFFFFFFFFFFFFFFFFFFFFFFFFFFFFFFFFFFFFFFFFFFD
310
FFFFFFFFFFFFFFFFFFFDFFFFFFFFFFFFFFFFFFFFFFFFFFFFFFFFFFFFFFFFFFFDFFFFFFFFFFFFFFFFFFFDFFFFFFFFFFFFFFFFFFFFFFFFFFFFFFFFFFFFFFFFFFFDFFFFFFFFFFFFFFFFFFFDFFFFFFFFFFFFFFFFFFFFFFFFFFFFFFFFFFFFFFFFFFFFFDFDFFFFFFFFFFFDFDFFFFFFFFFFFFFFFFFFFFFFFFFFFFFFFFFFFFFFFFFFFF
310
FFFFFFFDFFFFFFFDFFFFFFFFFFFFFFFFFFFFFFFFFFFFFFFFFFFFFFFFFFFFFFFFFFFFFFFDFFFFFFFDFFFFFFFFFFFFFFFFFFFFFFFFFFFFFFFFFFFFFFFFFFFFFFFFFFFDFDFDFFFFFFFDFDFDFFFFFFFFFFFFFFFFFFFFFFFFFFFFFFFFFFFFFFFFFFFFFDFDFFFFFFFFFFFFFFFDFDFFFFFFFFFFFFFFFFFFFFFFFFFFFFFFFFFFFFFFFF
310
FFFDFFFFFFFFFFFFFFFFFFFDFFFFFFFFFFFFFFFFFFFFFFFFFFFFFFFFFFFFFFFFFFFDFFFFFFFFFFFFFFFFFFFDFFFFFFFFFFFFFFFFFFFFFFFFFFFFFFFFFFFFFFFFFFFDFFFFFFFFFFFFFFFFFFFDFFFFFFFFFFFFFFFFFFFFFFFFFFFFFFFFFFFFFFFFFFFDFFFFFFFFFDFFFFFFFFFDFFFFFFFFFFFFFFFFFFFFFFFFFFFFFFFFFFFFFF
310
FFFFFFFDFFFFFDFFFDFFFFFDFDFFFFFFFFFFFFFFFFFFFFFFFFFFFFFFFFFFFFFFFFFFFFFFFDFFFDFDFDFFFDFFFFFFFFFFFFFFFFFFFFFFFFFFFFFFFFFFFFFFFFFFFFFFFFFFFDFFFFFFFFFFFDFFFFFFFFFFFFFFFFFFFFFFFFFFFFFFFFFFFFFFFFFFFFFFFFFFFF0000000000FFFFFFFFFFFFFFFFFFFFFFFFFFFFFFFFFFFFFFFFFF
310
FFFFFFFFFFFFFFFFFFFFFFFFFFFFFFFFFFFFFFFFFFFFFFFFFFFFFFFFFFFFFFFFFFFFFFFFFFFFFFFFFFFFFFFFFFFFFFFFFFFFFFFFFFFFFFFF
102
{BLKREFS
331
0
102
}
 70
     0
280
     1
281
     0
  0
BLOCK_RECORD
  5
DDB
330
2F5
100
AcDbSymbolTableRecord
100
AcDbBlockTableRecord
  2
porte-ressort
340
0
310
2800000020000000200000000100080000000000000400000000000000000000000000000000000000000000000080000080000000808000800000008000800080800000C0C0C000C0DCC000F0CAA6000020400000206000002080000020A0000020C0000020E00000400000004020000040400000406000004080000040A0
310
000040C0000040E00000600000006020000060400000606000006080000060A0000060C0000060E00000800000008020000080400000806000008080000080A0000080C0000080E00000A0000000A0200000A0400000A0600000A0800000A0A00000A0C00000A0E00000C0000000C0200000C0400000C0600000C0800000C0
310
A00000C0C00000C0E00000E0000000E0200000E0400000E0600000E0800000E0A00000E0C00000E0E00040000000400020004000400040006000400080004000A0004000C0004000E00040200000402020004020400040206000402080004020A0004020C0004020E000404000004040200040404000404060004040800040
310
40A0004040C0004040E00040600000406020004060400040606000406080004060A0004060C0004060E00040800000408020004080400040806000408080004080A0004080C0004080E00040A0000040A0200040A0400040A0600040A0800040A0A00040A0C00040A0E00040C0000040C0200040C0400040C0600040C08000
310
40C0A00040C0C00040C0E00040E0000040E0200040E0400040E0600040E0800040E0A00040E0C00040E0E00080000000800020008000400080006000800080008000A0008000C0008000E00080200000802020008020400080206000802080008020A0008020C0008020E00080400000804020008040400080406000804080
310
008040A0008040C0008040E00080600000806020008060400080606000806080008060A0008060C0008060E00080800000808020008080400080806000808080008080A0008080C0008080E00080A0000080A0200080A0400080A0600080A0800080A0A00080A0C00080A0E00080C0000080C0200080C0400080C0600080C0
310
800080C0A00080C0C00080C0E00080E0000080E0200080E0400080E0600080E0800080E0A00080E0C00080E0E000C0000000C0002000C0004000C0006000C0008000C000A000C000C000C000E000C0200000C0202000C0204000C0206000C0208000C020A000C020C000C020E000C0400000C0402000C0404000C0406000C0
310
408000C040A000C040C000C040E000C0600000C0602000C0604000C0606000C0608000C060A000C060C000C060E000C0800000C0802000C0804000C0806000C0808000C080A000C080C000C080E000C0A00000C0A02000C0A04000C0A06000C0A08000C0A0A000C0A0C000C0A0E000C0C00000C0C02000C0C04000C0C06000
310
C0C08000C0C0A000F0FBFF00A4A0A000808080000000FF0000FF000000FFFF00FF000000FF00FF00FFFF0000FFFFFF00FFFFFFFFFFFF00FFFFFFFFFFFFFFFFFFFFFFFFFFFFFFFFFFFFFFFFFFFFFFFFFFFFFFFFFF000000000000FFFFFFFFFFFFFFFFFFFFFFFFFFFFFFFFFFFFFFFFFFFFFFFFFF0000FFFFFFFFFF0000FFFFFF
310
FFFFFFFFFFFFFFFFFFFFFFFFFFFFFFFFFFFFFF0000FFFDFDFDFFFFFFFF0000FFFFFFFFFFFFFFFFFFFFFFFFFFFFFFFFFFFFFFFFFFFFFFFDFFFFFDFFFFFFFFFF0000FFFFFFFFFFFFFFFFFFFFFFFFFFFFFFFFFFFFFDFFFFFDFFFDFFFFFFFFFFFFFFFF000000FFFFFFFFFFFFFFFFFFFFFFFFFFFFFFFDFFFFFFFDFFFFFFFFFFFFFF
310
FFFFFFFFFF0000FFFFFFFFFFFFFFFFFFFFFFFFFFFDFFFFFFFFFFFFFFFFFFFFFFFFFFFFFFFFFFFF0000FFFFFFFFFFFFFFFFFFFFFFFDFFFFFFFFFFFFFFFFFFFFFFFFFFFFFFFFFFFFFFFF000000FFFFFFFFFFFFFFFFFDFFFFFFFFFFFFFFFFFFFFFFFFFFFFFFFFFFFFFFFFFFFFFF0000FFFFFFFFFFFFFDFFFFFFFFFFFFFFFFFFFF
310
FFFFFFFFFFFFFFFFFFFFFFFFFFFFFF00FFFFFFFFFFFDFFFFFFFFFFFFFFFFFFFFFFFFFFFFFFFFFFFFFFFFFFFFFFFFFFFF00FFFFFFFFFDFFFFFFFFFFFFFFFFFFFFFFFFFFFFFFFFFFFFFFFFFFFFFFFFFFFF00FFFFFFFFFDFFFFFFFFFFFFFFFFFFFFFFFFFFFFFFFFFFFFFFFFFFFFFFFFFFFF0000FFFFFFFDFFFFFFFFFFFFFFFFFF
310
FFFFFFFFFFFFFFFFFFFFFFFFFFFFFFFFFFFF00FFFFFFFDFFFFFFFFFFFFFFFFFFFFFFFFFFFDFDFFFFFFFFFFFFFDFDFDFFFFFF00FFFFFFFDFFFFFFFFFFFFFFFFFFFFFFFFFDFFFFFDFFFFFFFFFFFDFFFDFFFFFF00FFFFFFFDFFFFFFFFFFFFFFFFFFFFFFFFFFFDFDFFFFFFFFFFFFFDFDFDFFFFFF00FFFFFFFDFFFFFFFFFFFFFFFF
310
FFFFFFFFFFFFFFFFFFFFFFFFFFFFFFFFFFFF00FFFFFFFFFDFFFFFFFFFFFFFFFFFFFFFFFFFFFFFFFFFFFFFFFFFFFFFFFFFFFF00FFFFFFFFFDFFFFFFFFFFFFFFFFFFFFFFFFFFFFFFFFFFFFFFFFFFFFFFFFFF00FFFFFFFFFFFDFFFFFFFFFFFFFFFFFFFFFFFFFFFFFFFFFF0000000000000000FFFFFFFFFFFFFDFFFFFFFFFFFFFF
310
FFFFFFFFFFFFFFFF000000FFFFFFFFFFFFFFFFFFFFFFFFFFFDFFFFFFFFFFFFFFFFFFFFFFFFFF0000FFFFFFFFFFFFFFFFFFFFFFFFFFFFFFFFFDFFFFFFFDFFFFFFFFFFFFFFFF00FFFFFFFFFFFFFFFFFFFFFFFFFFFFFFFFFFFFFDFFFFFDFFFDFFFFFFFFFFFF00FFFFFFFFFFFFFFFFFFFFFFFFFFFFFFFFFFFFFFFDFFFFFDFFFFFD
310
FFFFFF0000FFFFFFFFFFFFFFFFFFFFFFFFFFFFFFFFFFFFFFFFFF00FFFDFDFDFFFFFF00FFFFFFFFFFFFFFFFFFFFFFFFFFFFFFFFFFFFFFFFFFFFFF00FFFFFFFFFF0000FFFFFFFFFFFFFFFFFFFFFFFFFFFFFFFFFFFFFFFFFFFFFFFFFF0000FF00FFFFFFFFFFFFFFFFFFFFFFFFFFFFFFFFFFFFFFFFFFFFFFFFFFFFFFFFFFFF00FF
310
FFFFFFFFFFFFFFFFFFFFFFFFFFFFFFFFFFFFFFFFFFFFFFFFFFFFFFFFFFFFFFFFFFFFFFFFFFFFFFFFFFFFFFFFFFFFFFFFFFFFFFFFFFFFFFFF
102
{BLKREFS
331
0
331
0
331
0
331
0
331
0
102
}
 70
     0
280
     1
281
     0
  0
ENDTAB
  0
ENDSEC
  0
SECTION
  2
BLOCKS
  0
BLOCK
  5
323
330
310
100
AcDbEntity
  8
0
100
AcDbBlockBegin
  2
*MODEL_SPACE
 70
     0
 10
0.0
 20
0.0
 30
0.0
  3
*MODEL_SPACE
  1
*MODEL_SPACE
  0
ENDBLK
  5
2BF
330
310
100
AcDbEntity
  8
0
100
AcDbBlockEnd
  0
BLOCK
  5
324
330
30E
100
AcDbEntity
 67
     1
  8
0
100
AcDbBlockBegin
  2
*PAPER_SPACE
 70
     0
 10
0.0
 20
0.0
 30
0.0
  3
*PAPER_SPACE
  1
*PAPER_SPACE
  0
ENDBLK
  5
2C1
330
30E
100
AcDbEntity
 67
     1
  8
0
100
AcDbBlockEnd
  0
BLOCK
  5
503
330
502
100
AcDbEntity
  8
0
100
AcDbBlockBegin
  2
*D0
 70
     1
 10
0.0
 20
0.0
 30
0.0
  3
*D0
  1
*D0
  0
LINE
  5
505
330
502
100
AcDbEntity
  8
DIMENSION
 62
     0
100
AcDbLine
 10
100.408275
 20
24.643398
 30
0.0
 11
100.588275
 21
24.643398
 31
0.0
  0
LINE
  5
506
330
502
100
AcDbEntity
  8
DIMENSION
 62
     0
100
AcDbLine
 10
100.842833
 20
24.388839
 30
0.0
 11
100.588275
 21
24.643398
 31
0.0
  0
MTEXT
  5
507
330
502
100
AcDbEntity
  8
DIMENSION
  6
ByBlock
 62
     0
100
AcDbMText
 10
99.838275
 20
24.643398
 30
0.0
 40
0.18
 41
0.0
 46
0.0
 71
     5
 72
     1
  1
\A1;R5.0000
 73
     1
 44
1.0
  0
SOLID
  5
508
330
502
100
AcDbEntity
  8
DIMENSION
 62
     0
100
AcDbTrace
 10
100.694341
 20
24.494905
 30
0.0
 11
100.736767
 21
24.537332
 31
0.0
 12
100.842833
 22
24.388839
 32
0.0
 13
100.842833
 23
24.388839
 33
0.0
  0
LINE
  5
509
330
502
100
AcDbEntity
  8
DIMENSION
 62
     0
100
AcDbLine
 10
104.288367
 20
20.853305
 30
0.0
 11
104.468367
 21
20.853305
 31
0.0
  0
LINE
  5
50A
330
502
100
AcDbEntity
  8
DIMENSION
 62
     0
100
AcDbLine
 10
104.378367
 20
20.763305
 30
0.0
 11
104.378367
 21
20.943305
 31
0.0
  0
POINT
  5
50B
330
502
100
AcDbEntity
  8
DEFPOINTS
 62
     0
100
AcDbPoint
 10
100.842833
 20
24.388839
 30
0.0
  0
POINT
  5
50C
330
502
100
AcDbEntity
  8
DEFPOINTS
 62
     0
100
AcDbPoint
 10
104.378367
 20
20.853305
 30
0.0
  0
ENDBLK
  5
504
330
502
100
AcDbEntity
  8
0
100
AcDbBlockEnd
  0
BLOCK
  5
50E
330
50D
100
AcDbEntity
  8
0
100
AcDbBlockBegin
  2
_NONE
 70
     0
 10
0.0
 20
0.0
 30
0.0
  3
_NONE
  1
_NONE
  0
ENDBLK
  5
50F
330
50D
100
AcDbEntity
  8
0
100
AcDbBlockEnd
  0
BLOCK
  5
518
330
517
100
AcDbEntity
  8
0
100
AcDbBlockBegin
  2
*D2
 70
     1
 10
0.0
 20
0.0
 30
0.0
  3
*D2
  1
*D2
  0
LINE
  5
51A
330
517
100
AcDbEntity
  8
DIMENSION
 62
     0
100
AcDbLine
 10
84.124383
 20
44.610724
 30
0.0
 11
83.944383
 21
44.610724
 31
0.0
  0
LINE
  5
51B
330
517
100
AcDbEntity
  8
DIMENSION
 62
     0
100
AcDbLine
 10
83.689825
 20
44.865283
 30
0.0
 11
83.944383
 21
44.610724
 31
0.0
  0
MTEXT
  5
51C
330
517
100
AcDbEntity
  8
DIMENSION
  6
ByBlock
 62
     0
100
AcDbMText
 10
84.694383
 20
44.610724
 30
0.0
 40
0.18
 41
0.0
 46
0.0
 71
     5
 72
     1
  1
\A1;R5.0000
 73
     1
 44
1.0
  0
SOLID
  5
51D
330
517
100
AcDbEntity
  8
DIMENSION
 62
     0
100
AcDbTrace
 10
83.838317
 20
44.759217
 30
0.0
 11
83.795891
 21
44.71679
 31
0.0
 12
83.689825
 22
44.865283
 32
0.0
 13
83.689825
 23
44.865283
 33
0.0
  0
LINE
  5
51E
330
517
100
AcDbEntity
  8
DIMENSION
 62
     0
100
AcDbLine
 10
80.064291
 20
48.400817
 30
0.0
 11
80.244291
 21
48.400817
 31
0.0
  0
LINE
  5
51F
330
517
100
AcDbEntity
  8
DIMENSION
 62
     0
100
AcDbLine
 10
80.154291
 20
48.310817
 30
0.0
 11
80.154291
 21
48.490817
 31
0.0
  0
POINT
  5
520
330
517
100
AcDbEntity
  8
DEFPOINTS
 62
     0
100
AcDbPoint
 10
83.689825
 20
44.865283
 30
0.0
  0
POINT
  5
521
330
517
100
AcDbEntity
  8
DEFPOINTS
 62
     0
100
AcDbPoint
 10
80.154291
 20
48.400817
 30
0.0
  0
ENDBLK
  5
519
330
517
100
AcDbEntity
  8
0
100
AcDbBlockEnd
  0
BLOCK
  5
627
330
626
100
AcDbEntity
  8
0
100
AcDbBlockBegin
  2
*D3
 70
     1
 10
0.0
 20
0.0
 30
0.0
  3
*D3
  1
*D3
  0
LINE
  5
629
330
626
100
AcDbEntity
  8
DIMENSION
 62
     0
100
AcDbLine
 10
35.772476
 20
44.335761
 30
0.0
 11
35.952476
 21
44.335761
 31
0.0
  0
LINE
  5
62A
330
626
100
AcDbEntity
  8
DIMENSION
 62
     0
100
AcDbLine
 10
36.207071
 20
44.08124
 30
0.0
 11
35.952476
 21
44.335761
 31
0.0
  0
MTEXT
  5
62B
330
626
100
AcDbEntity
  8
DIMENSION
  6
ByBlock
 62
     0
100
AcDbMText
 10
35.217476
 20
44.335761
 30
0.0
 40
0.18
 41
0.0
 46
0.0
 71
     5
 72
     1
  1
\A1;R1.6000
 73
     1
 44
1.0
  0
SOLID
  5
62C
330
626
100
AcDbEntity
  8
DIMENSION
 62
     0
100
AcDbTrace
 10
36.058563
 20
44.187284
 30
0.0
 11
36.100984
 21
44.229717
 31
0.0
 12
36.207071
 22
44.08124
 32
0.0
 13
36.207071
 23
44.08124
 33
0.0
  0
LINE
  5
62D
330
626
100
AcDbEntity
  8
DIMENSION
 62
     0
100
AcDbLine
 10
37.248606
 20
42.950033
 30
0.0
 11
37.428606
 21
42.950033
 31
0.0
  0
LINE
  5
62E
330
626
100
AcDbEntity
  8
DIMENSION
 62
     0
100
AcDbLine
 10
37.338606
 20
42.860033
 30
0.0
 11
37.338606
 21
43.040033
 31
0.0
  0
POINT
  5
62F
330
626
100
AcDbEntity
  8
DEFPOINTS
 62
     0
100
AcDbPoint
 10
36.207071
 20
44.08124
 30
0.0
  0
POINT
  5
630
330
626
100
AcDbEntity
  8
DEFPOINTS
 62
     0
100
AcDbPoint
 10
37.338606
 20
42.950033
 30
0.0
  0
ENDBLK
  5
628
330
626
100
AcDbEntity
  8
0
100
AcDbBlockEnd
  0
BLOCK
  5
68C
330
68B
100
AcDbEntity
  8
0
100
AcDbBlockBegin
  2
*D4
 70
     1
 10
0.0
 20
0.0
 30
0.0
  3
*D4
  1
*D4
  0
LINE
  5
68E
330
68B
100
AcDbEntity
  8
DIMENSION
 62
     0
100
AcDbLine
 10
34.568346
 20
46.140988
 30
0.0
 11
34.748346
 21
46.140988
 31
0.0
  0
LINE
  5
68F
330
68B
100
AcDbEntity
  8
DIMENSION
 62
     0
100
AcDbLine
 10
35.002904
 20
45.886429
 30
0.0
 11
34.748346
 21
46.140988
 31
0.0
  0
MTEXT
  5
690
330
68B
100
AcDbEntity
  8
DIMENSION
  6
ByBlock
 62
     0
100
AcDbMText
 10
33.998346
 20
46.140988
 30
0.0
 40
0.18
 41
0.0
 46
0.0
 71
     5
 72
     1
  1
\A1;R0.9000
 73
     1
 44
1.0
  0
SOLID
  5
691
330
68B
100
AcDbEntity
  8
DIMENSION
 62
     0
100
AcDbTrace
 10
34.854412
 20
45.992495
 30
0.0
 11
34.896838
 21
46.034922
 31
0.0
 12
35.002904
 22
45.886429
 32
0.0
 13
35.002904
 23
45.886429
 33
0.0
  0
LINE
  5
692
330
68B
100
AcDbEntity
  8
DIMENSION
 62
     0
100
AcDbLine
 10
35.5493
 20
45.250033
 30
0.0
 11
35.7293
 21
45.250033
 31
0.0
  0
LINE
  5
693
330
68B
100
AcDbEntity
  8
DIMENSION
 62
     0
100
AcDbLine
 10
35.6393
 20
45.160033
 30
0.0
 11
35.6393
 21
45.340033
 31
0.0
  0
POINT
  5
694
330
68B
100
AcDbEntity
  8
DEFPOINTS
 62
     0
100
AcDbPoint
 10
35.002904
 20
45.886429
 30
0.0
  0
POINT
  5
695
330
68B
100
AcDbEntity
  8
DEFPOINTS
 62
     0
100
AcDbPoint
 10
35.6393
 20
45.250033
 30
0.0
  0
ENDBLK
  5
68D
330
68B
100
AcDbEntity
  8
0
100
AcDbBlockEnd
  0
BLOCK
  5
C8F
330
C8E
100
AcDbEntity
  8
0
100
AcDbBlockBegin
  2
ve-D
 70
     0
 10
0.0
 20
0.0
 30
0.0
  3
ve-D
  1
ve-D
  0
LINE
  5
C91
330
C8E
100
AcDbEntity
  8
LAYER0
100
AcDbLine
 10
32.39677
 20
173.095142
 30
0.0
 11
32.888469
 21
173.866134
 31
0.0
  0
LINE
  5
C92
330
C8E
100
AcDbEntity
  8
LAYER0
100
AcDbLine
 10
31.784213
 20
171.868421
 30
0.0
 11
32.39677
 21
173.095142
 31
0.0
  0
LINE
  5
C93
330
C8E
100
AcDbEntity
  8
LAYER0
100
AcDbLine
 10
30.691626
 20
169.286868
 30
0.0
 11
31.784213
 21
171.868421
 31
0.0
  0
LINE
  5
C94
330
C8E
100
AcDbEntity
  8
LAYER0
100
AcDbLine
 10
30.691626
 20
169.286868
 30
0.0
 11
30.37308
 21
168.342806
 31
0.0
  0
LINE
  5
C95
330
C8E
100
AcDbEntity
  8
LAYER0
100
AcDbLine
 10
30.37308
 20
168.342806
 30
0.0
 11
30.248047
 21
167.354327
 31
0.0
  0
LINE
  5
C96
330
C8E
100
AcDbEntity
  8
LAYER0
100
AcDbLine
 10
30.248047
 20
167.354327
 30
0.0
 11
30.321491
 21
166.360683
 31
0.0
  0
LINE
  5
C97
330
C8E
100
AcDbEntity
  8
LAYER0
100
AcDbLine
 10
30.321491
 20
166.360683
 30
0.0
 11
30.590496
 21
165.401329
 31
0.0
  0
LINE
  5
C98
330
C8E
100
AcDbEntity
  8
LAYER0
100
AcDbLine
 10
30.590496
 20
165.401329
 30
0.0
 11
31.04438
 21
164.514361
 31
0.0
  0
LINE
  5
C99
330
C8E
100
AcDbEntity
  8
LAYER0
100
AcDbLine
 10
31.04438
 20
164.514361
 30
0.0
 11
31.665121
 21
163.734999
 31
0.0
  0
LINE
  5
C9A
330
C8E
100
AcDbEntity
  8
LAYER0
100
AcDbLine
 10
31.665121
 20
163.734999
 30
0.0
 11
32.428068
 21
163.094191
 31
0.0
  0
LINE
  5
C9B
330
C8E
100
AcDbEntity
  8
LAYER0
100
AcDbLine
 10
32.428068
 20
163.094191
 30
0.0
 11
33.302927
 21
162.617382
 31
0.0
  0
LINE
  5
C9C
330
C8E
100
AcDbEntity
  8
LAYER0
100
AcDbLine
 10
33.302927
 20
162.617382
 30
0.0
 11
34.254957
 21
162.323507
 31
0.0
  0
LINE
  5
C9D
330
C8E
100
AcDbEntity
  8
LAYER0
100
AcDbLine
 10
63.646354
 20
162.224235
 30
0.0
 11
64.507915
 21
162.299023
 31
0.0
  0
LINE
  5
C9E
330
C8E
100
AcDbEntity
  8
LAYER0
100
AcDbLine
 10
35.246354
 20
162.224235
 30
0.0
 11
40.546354
 21
162.224235
 31
0.0
  0
LINE
  5
C9F
330
C8E
100
AcDbEntity
  8
LAYER0
100
AcDbLine
 10
34.254957
 20
162.323507
 30
0.0
 11
35.246354
 21
162.224235
 31
0.0
  0
LINE
  5
CA0
330
C8E
100
AcDbEntity
  8
LAYER0
100
AcDbLine
 10
65.343702
 20
162.52115
 30
0.0
 11
66.128713
 21
162.88397
 31
0.0
  0
LINE
  5
CA1
330
C8E
100
AcDbEntity
  8
LAYER0
100
AcDbLine
 10
66.128713
 20
162.88397
 30
0.0
 11
66.839463
 21
163.376631
 31
0.0
  0
LINE
  5
CA2
330
C8E
100
AcDbEntity
  8
LAYER0
100
AcDbLine
 10
64.507915
 20
162.299023
 30
0.0
 11
65.343702
 21
162.52115
 31
0.0
  0
LINE
  5
CA3
330
C8E
100
AcDbEntity
  8
LAYER0
100
AcDbLine
 10
66.839463
 20
163.376631
 30
0.0
 11
67.454691
 21
163.984393
 31
0.0
  0
LINE
  5
CA4
330
C8E
100
AcDbEntity
  8
LAYER0
100
AcDbLine
 10
67.454691
 20
163.984393
 30
0.0
 11
67.955991
 21
164.689076
 31
0.0
  0
LINE
  5
CA5
330
C8E
100
AcDbEntity
  8
LAYER0
100
AcDbLine
 10
67.955991
 20
164.689076
 30
0.0
 11
68.328368
 21
165.469599
 31
0.0
  0
LINE
  5
CA6
330
C8E
100
AcDbEntity
  8
LAYER0
100
AcDbLine
 10
68.328368
 20
165.469599
 30
0.0
 11
68.560682
 21
166.302612
 31
0.0
  0
LINE
  5
CA7
330
C8E
100
AcDbEntity
  8
LAYER0
100
AcDbLine
 10
68.560682
 20
166.302612
 30
0.0
 11
68.645982
 21
167.163195
 31
0.0
  0
LINE
  5
CA8
330
C8E
100
AcDbEntity
  8
LAYER0
100
AcDbLine
 10
68.645982
 20
167.163195
 30
0.0
 11
68.645982
 21
171.163195
 31
0.0
  0
LINE
  5
CA9
330
C8E
100
AcDbEntity
  8
LAYER0
100
AcDbLine
 10
68.645982
 20
171.163195
 30
0.0
 11
68.885933
 21
172.564057
 31
0.0
  0
LINE
  5
CAA
330
C8E
100
AcDbEntity
  8
LAYER0
100
AcDbLine
 10
68.885933
 20
172.564057
 30
0.0
 11
69.293551
 21
173.925614
 31
0.0
  0
LINE
  5
CAB
330
C8E
100
AcDbEntity
  8
LAYER0
100
AcDbLine
 10
69.293551
 20
173.925614
 30
0.0
 11
69.862852
 21
175.227875
 31
0.0
  0
LINE
  5
CAC
330
C8E
100
AcDbEntity
  8
LAYER0
100
AcDbLine
 10
60.046354
 20
162.224235
 30
0.0
 11
63.646354
 21
162.224235
 31
0.0
  0
LINE
  5
CAD
330
C8E
100
AcDbEntity
  8
LAYER0
100
AcDbLine
 10
32.888469
 20
173.866134
 30
0.0
 11
33.442884
 21
174.593336
 31
0.0
  0
LINE
  5
CAE
330
C8E
100
AcDbEntity
  8
LAYER0
100
AcDbLine
 10
33.442884
 20
174.593336
 30
0.0
 11
34.383498
 21
175.590992
 31
0.0
  0
LINE
  5
CAF
330
C8E
100
AcDbEntity
  8
LAYER0
100
AcDbLine
 10
34.383498
 20
175.590992
 30
0.0
 11
35.076836
 21
176.187212
 31
0.0
  0
LINE
  5
CB0
330
C8E
100
AcDbEntity
  8
LAYER0
100
AcDbLine
 10
67.246354
 20
196.324235
 30
0.0
 11
57.246354
 21
191.324235
 31
0.0
  0
LINE
  5
CB1
330
C8E
100
AcDbEntity
  8
LAYER0
100
AcDbLine
 10
67.246354
 20
196.324235
 30
0.0
 11
54.246354
 21
202.824235
 31
0.0
  0
LINE
  5
CB2
330
C8E
100
AcDbEntity
  8
LAYER0
100
AcDbLine
 10
54.246354
 20
205.324235
 30
0.0
 11
54.280574
 21
205.84634
 31
0.0
  0
LINE
  5
CB3
330
C8E
100
AcDbEntity
  8
LAYER0
100
AcDbLine
 10
54.280574
 20
205.84634
 30
0.0
 11
54.382651
 21
206.359511
 31
0.0
  0
LINE
  5
CB4
330
C8E
100
AcDbEntity
  8
LAYER0
100
AcDbLine
 10
54.382651
 20
206.359511
 30
0.0
 11
54.550836
 21
206.854969
 31
0.0
  0
LINE
  5
CB5
330
C8E
100
AcDbEntity
  8
LAYER0
100
AcDbLine
 10
54.550836
 20
206.854969
 30
0.0
 11
54.782252
 21
207.324235
 31
0.0
  0
LINE
  5
CB6
330
C8E
100
AcDbEntity
  8
LAYER0
100
AcDbLine
 10
54.782252
 20
207.324235
 30
0.0
 11
55.07294
 21
207.759281
 31
0.0
  0
LINE
  5
CB7
330
C8E
100
AcDbEntity
  8
LAYER0
100
AcDbLine
 10
55.07294
 20
207.759281
 30
0.0
 11
55.417927
 21
208.152662
 31
0.0
  0
LINE
  5
CB8
330
C8E
100
AcDbEntity
  8
LAYER0
100
AcDbLine
 10
55.417927
 20
208.152662
 30
0.0
 11
55.811308
 21
208.497648
 31
0.0
  0
LINE
  5
CB9
330
C8E
100
AcDbEntity
  8
LAYER0
100
AcDbLine
 10
55.811308
 20
208.497648
 30
0.0
 11
56.246354
 21
208.788337
 31
0.0
  0
LINE
  5
CBA
330
C8E
100
AcDbEntity
  8
LAYER0
100
AcDbLine
 10
56.246354
 20
208.788337
 30
0.0
 11
56.71562
 21
209.019753
 31
0.0
  0
LINE
  5
CBB
330
C8E
100
AcDbEntity
  8
LAYER0
100
AcDbLine
 10
56.71562
 20
209.019753
 30
0.0
 11
57.211078
 21
209.187938
 31
0.0
  0
LINE
  5
CBC
330
C8E
100
AcDbEntity
  8
LAYER0
100
AcDbLine
 10
57.211078
 20
209.187938
 30
0.0
 11
57.724249
 21
209.290014
 31
0.0
  0
LINE
  5
CBD
330
C8E
100
AcDbEntity
  8
LAYER0
100
AcDbLine
 10
57.724249
 20
209.290014
 30
0.0
 11
58.246354
 21
209.324235
 31
0.0
  0
LINE
  5
CBE
330
C8E
100
AcDbEntity
  8
LAYER0
100
AcDbLine
 10
69.645982
 20
209.324235
 30
0.0
 11
70.638029
 21
209.259213
 31
0.0
  0
LINE
  5
CBF
330
C8E
100
AcDbEntity
  8
LAYER0
100
AcDbLine
 10
70.638029
 20
209.259213
 30
0.0
 11
71.613103
 21
209.065259
 31
0.0
  0
LINE
  5
CC0
330
C8E
100
AcDbEntity
  8
LAYER0
100
AcDbLine
 10
71.613103
 20
209.065259
 30
0.0
 11
72.554518
 21
208.745691
 31
0.0
  0
LINE
  5
CC1
330
C8E
100
AcDbEntity
  8
LAYER0
100
AcDbLine
 10
72.554518
 20
208.745691
 30
0.0
 11
73.446168
 21
208.305978
 31
0.0
  0
LINE
  5
CC2
330
C8E
100
AcDbEntity
  8
LAYER0
100
AcDbLine
 10
73.446168
 20
208.305978
 30
0.0
 11
74.272795
 21
207.753643
 31
0.0
  0
LINE
  5
CC3
330
C8E
100
AcDbEntity
  8
LAYER0
100
AcDbLine
 10
74.272795
 20
207.753643
 30
0.0
 11
75.020256
 21
207.098138
 31
0.0
  0
LINE
  5
CC4
330
C8E
100
AcDbEntity
  8
LAYER0
100
AcDbLine
 10
75.020256
 20
207.098138
 30
0.0
 11
75.675762
 21
206.350676
 31
0.0
  0
LINE
  5
CC5
330
C8E
100
AcDbEntity
  8
LAYER0
100
AcDbLine
 10
75.675762
 20
206.350676
 30
0.0
 11
76.228097
 21
205.524049
 31
0.0
  0
LINE
  5
CC6
330
C8E
100
AcDbEntity
  8
LAYER0
100
AcDbLine
 10
76.228097
 20
205.524049
 30
0.0
 11
76.66781
 21
204.632399
 31
0.0
  0
LINE
  5
CC7
330
C8E
100
AcDbEntity
  8
LAYER0
100
AcDbLine
 10
76.66781
 20
204.632399
 30
0.0
 11
76.987377
 21
203.690984
 31
0.0
  0
LINE
  5
CC8
330
C8E
100
AcDbEntity
  8
LAYER0
100
AcDbLine
 10
76.987377
 20
203.690984
 30
0.0
 11
77.181332
 21
202.715911
 31
0.0
  0
LINE
  5
CC9
330
C8E
100
AcDbEntity
  8
LAYER0
100
AcDbLine
 10
77.181332
 20
202.715911
 30
0.0
 11
77.246354
 21
201.723863
 31
0.0
  0
LINE
  5
CCA
330
C8E
100
AcDbEntity
  8
LAYER0
100
AcDbLine
 10
77.246354
 20
201.723863
 30
0.0
 11
77.246354
 21
187.157216
 31
0.0
  0
LINE
  5
CCB
330
C8E
100
AcDbEntity
  8
LAYER0
100
AcDbLine
 10
77.218385
 20
186.35396
 30
0.0
 11
77.246354
 21
187.157216
 31
0.0
  0
LINE
  5
CCC
330
C8E
100
AcDbEntity
  8
LAYER0
100
AcDbLine
 10
77.134616
 20
185.554595
 30
0.0
 11
77.218385
 21
186.35396
 31
0.0
  0
LINE
  5
CCD
330
C8E
100
AcDbEntity
  8
LAYER0
100
AcDbLine
 10
76.99545
 20
184.762993
 30
0.0
 11
77.134616
 21
185.554595
 31
0.0
  0
LINE
  5
CCE
330
C8E
100
AcDbEntity
  8
LAYER0
100
AcDbLine
 10
76.801563
 20
183.982986
 30
0.0
 11
76.99545
 21
184.762993
 31
0.0
  0
LINE
  5
CCF
330
C8E
100
AcDbEntity
  8
LAYER0
100
AcDbLine
 10
76.553894
 20
183.218355
 30
0.0
 11
76.801563
 21
183.982986
 31
0.0
  0
LINE
  5
CD0
330
C8E
100
AcDbEntity
  8
LAYER0
100
AcDbLine
 10
76.253641
 20
182.472801
 30
0.0
 11
76.553894
 21
183.218355
 31
0.0
  0
LINE
  5
CD1
330
C8E
100
AcDbEntity
  8
LAYER0
100
AcDbLine
 10
75.90226
 20
181.749937
 30
0.0
 11
76.253641
 21
182.472801
 31
0.0
  0
LINE
  5
CD2
330
C8E
100
AcDbEntity
  8
LAYER0
100
AcDbLine
 10
75.501453
 20
181.053262
 30
0.0
 11
75.90226
 21
181.749937
 31
0.0
  0
LINE
  5
CD3
330
C8E
100
AcDbEntity
  8
LAYER0
100
AcDbLine
 10
75.05316
 20
180.386153
 30
0.0
 11
75.501453
 21
181.053262
 31
0.0
  0
LINE
  5
CD4
330
C8E
100
AcDbEntity
  8
LAYER0
100
AcDbLine
 10
74.559553
 20
179.751839
 30
0.0
 11
75.05316
 21
180.386153
 31
0.0
  0
LINE
  5
CD5
330
C8E
100
AcDbEntity
  8
LAYER0
100
AcDbLine
 10
74.023023
 20
179.153394
 30
0.0
 11
74.559553
 21
179.751839
 31
0.0
  0
LINE
  5
CD6
330
C8E
100
AcDbEntity
  8
LAYER0
100
AcDbLine
 10
73.446168
 20
178.593715
 30
0.0
 11
74.023023
 21
179.153394
 31
0.0
  0
LINE
  5
CD7
330
C8E
100
AcDbEntity
  8
Detourage
  6
ByBlock
100
AcDbLine
 10
35.076836
 20
176.187212
 30
0.0
 11
57.246354
 21
191.324235
 31
0.0
  0
LINE
  5
CD8
330
C8E
100
AcDbEntity
  8
Detourage
  6
ByBlock
100
AcDbLine
 10
54.246354
 20
202.824235
 30
0.0
 11
54.246354
 21
205.324235
 31
0.0
  0
LINE
  5
CD9
330
C8E
100
AcDbEntity
  8
Detourage
  6
ByBlock
100
AcDbLine
 10
69.862852
 20
175.227875
 30
0.0
 11
73.446168
 21
178.593715
 31
0.0
  0
LINE
  5
CDA
330
C8E
100
AcDbEntity
  8
Detourage
  6
ByBlock
100
AcDbLine
 10
58.246354
 20
209.324235
 30
0.0
 11
69.645982
 21
209.324235
 31
0.0
  0
CIRCLE
  5
CDB
330
C8E
100
AcDbEntity
  8
Detourage
  6
ByBlock
100
AcDbCircle
 10
35.246354
 20
167.224235
 30
0.0
 40
2.05
  0
CIRCLE
  5
CDC
330
C8E
100
AcDbEntity
  8
Detourage
  6
ByBlock
100
AcDbCircle
 10
63.646354
 20
167.224235
 30
0.0
 40
2.05
  0
LINE
  5
CDD
330
C8E
100
AcDbEntity
  8
Detourage
  6
ByBlock
100
AcDbLine
 10
40.546354
 20
162.224235
 30
0.0
 11
60.046354
 21
162.224235
 31
0.0
  0
LINE
  5
CDE
330
C8E
100
AcDbEntity
  8
Detourage
  6
ByBlock
100
AcDbLine
 10
46.207821
 20
183.755723
 30
0.0
 11
76.702954
 21
183.755723
 31
0.0
  0
ENDBLK
  5
C90
330
C8E
100
AcDbEntity
  8
0
100
AcDbBlockEnd
  0
BLOCK
  5
CE1
330
CE0
100
AcDbEntity
  8
0
100
AcDbBlockBegin
  2
ve-g
 70
     0
 10
0.0
 20
0.0
 30
0.0
  3
ve-g
  1
ve-g
  0
LINE
  5
CE3
330
CE0
100
AcDbEntity
  8
LAYER0
100
AcDbLine
 10
-2.378551
 20
170.383979
 30
0.0
 11
-2.672426
 21
171.336009
 31
0.0
  0
LINE
  5
CE4
330
CE0
100
AcDbEntity
  8
LAYER0
100
AcDbLine
 10
-1.901743
 20
169.509121
 30
0.0
 11
-2.378551
 21
170.383979
 31
0.0
  0
LINE
  5
CE5
330
CE0
100
AcDbEntity
  8
LAYER0
100
AcDbLine
 10
-1.260935
 20
168.746173
 30
0.0
 11
-1.901743
 21
169.509121
 31
0.0
  0
LINE
  5
CE6
330
CE0
100
AcDbEntity
  8
LAYER0
100
AcDbLine
 10
-0.481573
 20
168.125433
 30
0.0
 11
-1.260935
 21
168.746173
 31
0.0
  0
LINE
  5
CE7
330
CE0
100
AcDbEntity
  8
LAYER0
100
AcDbLine
 10
0.405395
 20
167.671549
 30
0.0
 11
-0.481573
 21
168.125433
 31
0.0
  0
LINE
  5
CE8
330
CE0
100
AcDbEntity
  8
LAYER0
100
AcDbLine
 10
1.364749
 20
167.402543
 30
0.0
 11
0.405395
 21
167.671549
 31
0.0
  0
LINE
  5
CE9
330
CE0
100
AcDbEntity
  8
LAYER0
100
AcDbLine
 10
2.358394
 20
167.329099
 30
0.0
 11
1.364749
 21
167.402543
 31
0.0
  0
LINE
  5
CEA
330
CE0
100
AcDbEntity
  8
LAYER0
100
AcDbLine
 10
3.346873
 20
167.454133
 30
0.0
 11
2.358394
 21
167.329099
 31
0.0
  0
LINE
  5
CEB
330
CE0
100
AcDbEntity
  8
LAYER0
100
AcDbLine
 10
4.290934
 20
167.772679
 30
0.0
 11
3.346873
 21
167.454133
 31
0.0
  0
LINE
  5
CEC
330
CE0
100
AcDbEntity
  8
LAYER0
100
AcDbLine
 10
4.290934
 20
167.772679
 30
0.0
 11
6.872487
 21
168.865265
 31
0.0
  0
LINE
  5
CED
330
CE0
100
AcDbEntity
  8
LAYER0
100
AcDbLine
 10
6.872487
 20
168.865265
 30
0.0
 11
8.099209
 21
169.477822
 31
0.0
  0
LINE
  5
CEE
330
CE0
100
AcDbEntity
  8
LAYER0
100
AcDbLine
 10
8.099209
 20
169.477822
 30
0.0
 11
9.239601
 21
170.239122
 31
0.0
  0
LINE
  5
CEF
330
CE0
100
AcDbEntity
  8
LAYER0
100
AcDbLine
 10
9.239601
 20
170.239122
 30
0.0
 11
10.275725
 21
171.137187
 31
0.0
  0
LINE
  5
CF0
330
CE0
100
AcDbEntity
  8
LAYER0
100
AcDbLine
 10
10.275725
 20
171.137187
 30
0.0
 11
11.191278
 21
172.157889
 31
0.0
  0
LINE
  5
CF1
330
CE0
100
AcDbEntity
  8
LAYER0
100
AcDbLine
 10
31.328302
 20
204.327406
 30
0.0
 11
26.328302
 21
194.327406
 31
0.0
  0
LINE
  5
CF2
330
CE0
100
AcDbEntity
  8
LAYER0
100
AcDbLine
 10
31.328302
 20
204.327406
 30
0.0
 11
37.828302
 21
191.327406
 31
0.0
  0
LINE
  5
CF3
330
CE0
100
AcDbEntity
  8
LAYER0
100
AcDbLine
 10
40.328302
 20
191.327406
 30
0.0
 11
40.850406
 21
191.361627
 31
0.0
  0
LINE
  5
CF4
330
CE0
100
AcDbEntity
  8
LAYER0
100
AcDbLine
 10
40.850406
 20
191.361627
 30
0.0
 11
41.363578
 21
191.463703
 31
0.0
  0
LINE
  5
CF5
330
CE0
100
AcDbEntity
  8
LAYER0
100
AcDbLine
 10
41.363578
 20
191.463703
 30
0.0
 11
41.859035
 21
191.631888
 31
0.0
  0
LINE
  5
CF6
330
CE0
100
AcDbEntity
  8
LAYER0
100
AcDbLine
 10
41.859035
 20
191.631888
 30
0.0
 11
42.328302
 21
191.863305
 31
0.0
  0
LINE
  5
CF7
330
CE0
100
AcDbEntity
  8
LAYER0
100
AcDbLine
 10
42.328302
 20
191.863305
 30
0.0
 11
42.763347
 21
192.153993
 31
0.0
  0
LINE
  5
CF8
330
CE0
100
AcDbEntity
  8
LAYER0
100
AcDbLine
 10
42.763347
 20
192.153993
 30
0.0
 11
43.156729
 21
192.498979
 31
0.0
  0
LINE
  5
CF9
330
CE0
100
AcDbEntity
  8
LAYER0
100
AcDbLine
 10
43.156729
 20
192.498979
 30
0.0
 11
43.501715
 21
192.892361
 31
0.0
  0
LINE
  5
CFA
330
CE0
100
AcDbEntity
  8
LAYER0
100
AcDbLine
 10
43.501715
 20
192.892361
 30
0.0
 11
43.792403
 21
193.327406
 31
0.0
  0
LINE
  5
CFB
330
CE0
100
AcDbEntity
  8
LAYER0
100
AcDbLine
 10
43.792403
 20
193.327406
 30
0.0
 11
44.02382
 21
193.796673
 31
0.0
  0
LINE
  5
CFC
330
CE0
100
AcDbEntity
  8
LAYER0
100
AcDbLine
 10
44.02382
 20
193.796673
 30
0.0
 11
44.192005
 21
194.29213
 31
0.0
  0
LINE
  5
CFD
330
CE0
100
AcDbEntity
  8
LAYER0
100
AcDbLine
 10
44.192005
 20
194.29213
 30
0.0
 11
44.294081
 21
194.805302
 31
0.0
  0
LINE
  5
CFE
330
CE0
100
AcDbEntity
  8
LAYER0
100
AcDbLine
 10
44.294081
 20
194.805302
 30
0.0
 11
44.328302
 21
195.327406
 31
0.0
  0
LINE
  5
CFF
330
CE0
100
AcDbEntity
  8
LAYER0
100
AcDbLine
 10
44.328302
 20
206.727034
 30
0.0
 11
44.263279
 21
207.719082
 31
0.0
  0
LINE
  5
D00
330
CE0
100
AcDbEntity
  8
LAYER0
100
AcDbLine
 10
44.263279
 20
207.719082
 30
0.0
 11
44.069325
 21
208.694155
 31
0.0
  0
LINE
  5
D01
330
CE0
100
AcDbEntity
  8
LAYER0
100
AcDbLine
 10
44.069325
 20
208.694155
 30
0.0
 11
43.749758
 21
209.635571
 31
0.0
  0
LINE
  5
D02
330
CE0
100
AcDbEntity
  8
LAYER0
100
AcDbLine
 10
43.749758
 20
209.635571
 30
0.0
 11
43.310045
 21
210.52722
 31
0.0
  0
LINE
  5
D03
330
CE0
100
AcDbEntity
  8
LAYER0
100
AcDbLine
 10
43.310045
 20
210.52722
 30
0.0
 11
42.75771
 21
211.353848
 31
0.0
  0
LINE
  5
D04
330
CE0
100
AcDbEntity
  8
LAYER0
100
AcDbLine
 10
42.75771
 20
211.353848
 30
0.0
 11
42.102204
 21
212.101309
 31
0.0
  0
LINE
  5
D05
330
CE0
100
AcDbEntity
  8
LAYER0
100
AcDbLine
 10
42.102204
 20
212.101309
 30
0.0
 11
41.354743
 21
212.756815
 31
0.0
  0
LINE
  5
D06
330
CE0
100
AcDbEntity
  8
LAYER0
100
AcDbLine
 10
41.354743
 20
212.756815
 30
0.0
 11
40.528116
 21
213.30915
 31
0.0
  0
LINE
  5
D07
330
CE0
100
AcDbEntity
  8
LAYER0
100
AcDbLine
 10
40.528116
 20
213.30915
 30
0.0
 11
39.636466
 21
213.748863
 31
0.0
  0
LINE
  5
D08
330
CE0
100
AcDbEntity
  8
LAYER0
100
AcDbLine
 10
39.636466
 20
213.748863
 30
0.0
 11
38.695051
 21
214.06843
 31
0.0
  0
LINE
  5
D09
330
CE0
100
AcDbEntity
  8
LAYER0
100
AcDbLine
 10
38.695051
 20
214.06843
 30
0.0
 11
37.719977
 21
214.262384
 31
0.0
  0
LINE
  5
D0A
330
CE0
100
AcDbEntity
  8
LAYER0
100
AcDbLine
 10
37.719977
 20
214.262384
 30
0.0
 11
36.72793
 21
214.327406
 31
0.0
  0
LINE
  5
D0B
330
CE0
100
AcDbEntity
  8
LAYER0
100
AcDbLine
 10
13.597782
 20
210.52722
 30
0.0
 11
14.15746
 21
211.104075
 31
0.0
  0
LINE
  5
D0C
330
CE0
100
AcDbEntity
  8
LAYER0
100
AcDbLine
 10
14.15746
 20
211.104075
 30
0.0
 11
14.755906
 21
211.640605
 31
0.0
  0
LINE
  5
D0D
330
CE0
100
AcDbEntity
  8
LAYER0
100
AcDbLine
 10
14.755906
 20
211.640605
 30
0.0
 11
15.39022
 21
212.134212
 31
0.0
  0
LINE
  5
D0E
330
CE0
100
AcDbEntity
  8
LAYER0
100
AcDbLine
 10
15.39022
 20
212.134212
 30
0.0
 11
16.057329
 21
212.582505
 31
0.0
  0
LINE
  5
D0F
330
CE0
100
AcDbEntity
  8
LAYER0
100
AcDbLine
 10
16.057329
 20
212.582505
 30
0.0
 11
16.754003
 21
212.983313
 31
0.0
  0
LINE
  5
D10
330
CE0
100
AcDbEntity
  8
LAYER0
100
AcDbLine
 10
16.754003
 20
212.983313
 30
0.0
 11
17.476868
 21
213.334694
 31
0.0
  0
LINE
  5
D11
330
CE0
100
AcDbEntity
  8
LAYER0
100
AcDbLine
 10
17.476868
 20
213.334694
 30
0.0
 11
18.222421
 21
213.634946
 31
0.0
  0
LINE
  5
D12
330
CE0
100
AcDbEntity
  8
LAYER0
100
AcDbLine
 10
18.222421
 20
213.634946
 30
0.0
 11
18.987053
 21
213.882616
 31
0.0
  0
LINE
  5
D13
330
CE0
100
AcDbEntity
  8
LAYER0
100
AcDbLine
 10
18.987053
 20
213.882616
 30
0.0
 11
19.767059
 21
214.076503
 31
0.0
  0
LINE
  5
D14
330
CE0
100
AcDbEntity
  8
LAYER0
100
AcDbLine
 10
19.767059
 20
214.076503
 30
0.0
 11
20.558662
 21
214.215668
 31
0.0
  0
LINE
  5
D15
330
CE0
100
AcDbEntity
  8
LAYER0
100
AcDbLine
 10
20.558662
 20
214.215668
 30
0.0
 11
21.358027
 21
214.299438
 31
0.0
  0
LINE
  5
D16
330
CE0
100
AcDbEntity
  8
LAYER0
100
AcDbLine
 10
21.358027
 20
214.299438
 30
0.0
 11
22.161282
 21
214.327406
 31
0.0
  0
LINE
  5
D17
330
CE0
100
AcDbEntity
  8
LAYER0
100
AcDbLine
 10
36.72793
 20
214.327406
 30
0.0
 11
22.161282
 21
214.327406
 31
0.0
  0
LINE
  5
D18
330
CE0
100
AcDbEntity
  8
LAYER0
100
AcDbLine
 10
-2.672426
 20
171.336009
 30
0.0
 11
-2.771699
 21
172.327407
 31
0.0
  0
LINE
  5
D19
330
CE0
100
AcDbEntity
  8
LAYER0
100
AcDbLine
 10
-2.771699
 20
172.327407
 30
0.0
 11
-2.771698
 21
177.627406
 31
0.0
  0
LINE
  5
D1A
330
CE0
100
AcDbEntity
  8
LAYER0
100
AcDbLine
 10
-2.771699
 20
197.127406
 30
0.0
 11
-2.771699
 21
200.727407
 31
0.0
  0
LINE
  5
D1B
330
CE0
100
AcDbEntity
  8
LAYER0
100
AcDbLine
 10
-2.771699
 20
200.727407
 30
0.0
 11
-2.696911
 21
201.588968
 31
0.0
  0
LINE
  5
D1C
330
CE0
100
AcDbEntity
  8
LAYER0
100
AcDbLine
 10
-2.696911
 20
201.588968
 30
0.0
 11
-2.474784
 21
202.424755
 31
0.0
  0
LINE
  5
D1D
330
CE0
100
AcDbEntity
  8
LAYER0
100
AcDbLine
 10
-2.474784
 20
202.424755
 30
0.0
 11
-2.111963
 21
203.209765
 31
0.0
  0
LINE
  5
D1E
330
CE0
100
AcDbEntity
  8
LAYER0
100
AcDbLine
 10
-2.111963
 20
203.209765
 30
0.0
 11
-1.619303
 21
203.920516
 31
0.0
  0
LINE
  5
D1F
330
CE0
100
AcDbEntity
  8
LAYER0
100
AcDbLine
 10
-1.619303
 20
203.920516
 30
0.0
 11
-1.01154
 21
204.535743
 31
0.0
  0
LINE
  5
D20
330
CE0
100
AcDbEntity
  8
LAYER0
100
AcDbLine
 10
-1.01154
 20
204.535743
 30
0.0
 11
-0.306857
 21
205.037044
 31
0.0
  0
LINE
  5
D21
330
CE0
100
AcDbEntity
  8
LAYER0
100
AcDbLine
 10
-0.306857
 20
205.037044
 30
0.0
 11
0.473665
 21
205.409421
 31
0.0
  0
LINE
  5
D22
330
CE0
100
AcDbEntity
  8
LAYER0
100
AcDbLine
 10
0.473665
 20
205.409421
 30
0.0
 11
1.306678
 21
205.641734
 31
0.0
  0
LINE
  5
D23
330
CE0
100
AcDbEntity
  8
LAYER0
100
AcDbLine
 10
1.306678
 20
205.641734
 30
0.0
 11
2.167262
 21
205.727034
 31
0.0
  0
LINE
  5
D24
330
CE0
100
AcDbEntity
  8
LAYER0
100
AcDbLine
 10
2.167262
 20
205.727034
 30
0.0
 11
6.167262
 21
205.727034
 31
0.0
  0
LINE
  5
D25
330
CE0
100
AcDbEntity
  8
LAYER0
100
AcDbLine
 10
6.167262
 20
205.727034
 30
0.0
 11
7.568123
 21
205.966985
 31
0.0
  0
LINE
  5
D26
330
CE0
100
AcDbEntity
  8
LAYER0
100
AcDbLine
 10
7.568123
 20
205.966985
 30
0.0
 11
8.92968
 21
206.374603
 31
0.0
  0
LINE
  5
D27
330
CE0
100
AcDbEntity
  8
LAYER0
100
AcDbLine
 10
8.92968
 20
206.374603
 30
0.0
 11
10.231942
 21
206.943904
 31
0.0
  0
LINE
  5
D28
330
CE0
100
AcDbEntity
  8
Detourage
  6
ByBlock
100
AcDbLine
 10
11.191278
 20
172.157889
 30
0.0
 11
26.328302
 21
194.327406
 31
0.0
  0
LINE
  5
D29
330
CE0
100
AcDbEntity
  8
Detourage
  6
ByBlock
100
AcDbLine
 10
37.828302
 20
191.327406
 30
0.0
 11
40.328302
 21
191.327406
 31
0.0
  0
LINE
  5
D2A
330
CE0
100
AcDbEntity
  8
Detourage
  6
ByBlock
100
AcDbLine
 10
10.231942
 20
206.943904
 30
0.0
 11
13.597782
 21
210.52722
 31
0.0
  0
LINE
  5
D2B
330
CE0
100
AcDbEntity
  8
Detourage
  6
ByBlock
100
AcDbLine
 10
44.328302
 20
195.327406
 30
0.0
 11
44.328302
 21
206.727034
 31
0.0
  0
CIRCLE
  5
D2C
330
CE0
100
AcDbEntity
  8
Detourage
  6
ByBlock
100
AcDbCircle
 10
2.228302
 20
200.727406
 30
0.0
 40
2.05
  0
CIRCLE
  5
D2D
330
CE0
100
AcDbEntity
  8
Detourage
  6
ByBlock
100
AcDbCircle
 10
2.228302
 20
172.327406
 30
0.0
 40
2.05
  0
LINE
  5
D2E
330
CE0
100
AcDbEntity
  8
Detourage
  6
ByBlock
100
AcDbLine
 10
-2.771698
 20
177.627406
 30
0.0
 11
-2.771699
 21
197.127406
 31
0.0
  0
LINE
  5
D2F
330
CE0
100
AcDbEntity
  8
Detourage
  6
ByBlock
100
AcDbLine
 10
18.75979
 20
183.246981
 30
0.0
 11
18.75979
 21
213.732469
 31
0.0
  0
ENDBLK
  5
CE2
330
CE0
100
AcDbEntity
  8
0
100
AcDbBlockEnd
  0
BLOCK
  5
D32
330
D31
100
AcDbEntity
  8
0
100
AcDbBlockBegin
  2
passe-fil
 70
     0
 10
0.0
 20
0.0
 30
0.0
  3
passe-fil
  1
passe-fil
  0
CIRCLE
  5
D34
330
D31
100
AcDbEntity
  8
Detourage
100
AcDbCircle
 10
58.599384
 20
143.333814
 30
0.000003
 40
1.55
  0
CIRCLE
  5
D35
330
D31
100
AcDbEntity
  8
Detourage
100
AcDbCircle
 10
58.599384
 20
131.933814
 30
0.000003
 40
1.55
  0
LINE
  5
D36
330
D31
100
AcDbEntity
  8
0
100
AcDbLine
 10
74.756717
 20
134.557609
 30
0.000003
 11
65.88896
 21
128.234375
 31
0.000003
  0
LINE
  5
D37
330
D31
100
AcDbEntity
  8
0
100
AcDbLine
 10
74.756717
 20
140.710018
 30
0.000003
 11
65.888959
 21
147.033253
 31
0.000003
  0
ARC
  5
D38
330
D31
100
AcDbEntity
  8
0
100
AcDbCircle
 10
72.199968
 20
137.633814
 30
0.000003
 40
4.0
100
AcDbArc
 50
309.731242
 51
0.0
  0
ARC
  5
D39
330
D31
100
AcDbEntity
  8
0
100
AcDbCircle
 10
72.199968
 20
137.633814
 30
0.000003
 40
4.0
100
AcDbArc
 50
0.0
 51
50.268758
  0
LINE
  5
D3A
330
D31
100
AcDbEntity
  8
0
100
AcDbLine
 10
61.824924
 20
126.933814
 30
0.000003
 11
55.599384
 21
126.933814
 31
0.000003
  0
LINE
  5
D3B
330
D31
100
AcDbEntity
  8
0
100
AcDbLine
 10
61.824922
 20
148.333814
 30
0.000003
 11
55.599384
 21
148.333814
 31
0.000003
  0
LINE
  5
D3C
330
D31
100
AcDbEntity
  8
0
100
AcDbLine
 10
50.599384
 20
143.333814
 30
0.000003
 11
50.599384
 21
131.933814
 31
0.000003
  0
ARC
  5
D3D
330
D31
100
AcDbEntity
  8
0
100
AcDbCircle
 10
61.824924
 20
133.933814
 30
0.000003
 40
7.000000000008413
100
AcDbArc
 50
270.0
 51
305.491113
1001
MCSXDATA5
1071
      167
1004
06000000000000008B0000001C000000E404000000000000000000001F050A025C020509020FEE020C4D43535F46494C4C45545F3109020FEE020C4D43535F46494C4C45545F3209020FEE020C4D43535F46494C4C45545F3309020FEE020C4D43535F46494C4C45545F3409020FEE020C4D43535F46494C4C45545F351202
1004
2602050201030201030202020103020326020702010302012202010302010302010201030201221A
  0
ARC
  5
D3E
330
D31
100
AcDbEntity
  8
0
100
AcDbCircle
 10
61.824922
 20
141.333814
 30
0.000003
 40
7.000000000004061
100
AcDbArc
 50
54.508887
 51
90.0
1001
MCSXDATA5
1071
      167
1004
06000000000000008B0000001C000000E404000000000000000000001F050A025C020509020FEE020C4D43535F46494C4C45545F3109020FEE020C4D43535F46494C4C45545F3209020FEE020C4D43535F46494C4C45545F3309020FEE020C4D43535F46494C4C45545F3409020FEE020C4D43535F46494C4C45545F351202
1004
2602050201030201030202020103020326020702010302012202010302010302010201030201221A
  0
ARC
  5
D3F
330
D31
100
AcDbEntity
  8
0
100
AcDbCircle
 10
55.599384
 20
131.933814
 30
0.000003
 40
4.999999999999957
100
AcDbArc
 50
180.0
 51
270.0
1001
MCSXDATA5
1071
      167
1004
06000000000000008B0000001C000000E404000000000000000000001F050A025C020509020FEE020C4D43535F46494C4C45545F3109020FEE020C4D43535F46494C4C45545F3209020FEE020C4D43535F46494C4C45545F3309020FEE020C4D43535F46494C4C45545F3409020FEE020C4D43535F46494C4C45545F351202
1004
2602050201030201030202020103020326020502010302012202010302010302010201030201221A
  0
ARC
  5
D40
330
D31
100
AcDbEntity
  8
0
100
AcDbCircle
 10
55.599384
 20
143.333814
 30
0.000003
 40
4.999999999999858
100
AcDbArc
 50
90.0
 51
180.0
1001
MCSXDATA5
1071
      167
1004
06000000000000008B0000001C000000E404000000000000000000001F050A025C020509020FEE020C4D43535F46494C4C45545F3109020FEE020C4D43535F46494C4C45545F3209020FEE020C4D43535F46494C4C45545F3309020FEE020C4D43535F46494C4C45545F3409020FEE020C4D43535F46494C4C45545F351202
1004
2602050201030201030202020103020326020502010302012202010302010302010201030201221A
  0
LINE
  5
D41
330
D31
100
AcDbEntity
  8
Detourage
  6
ByBlock
100
AcDbLine
 10
70.309981
 20
143.620784
 30
0.0
 11
67.910159
 21
139.905675
 31
0.0
  0
LINE
  5
D42
330
D31
100
AcDbEntity
  8
Detourage
  6
ByBlock
100
AcDbLine
 10
67.910159
 20
139.905675
 30
0.0
 11
67.379429
 21
138.175035
 31
0.0
  0
LINE
  5
D43
330
D31
100
AcDbEntity
  8
Detourage
  6
ByBlock
100
AcDbLine
 10
67.379429
 20
138.175035
 30
0.0
 11
67.402505
 21
137.205876
 31
0.0
  0
LINE
  5
D44
330
D31
100
AcDbEntity
  8
Detourage
  6
ByBlock
100
AcDbLine
 10
67.402505
 20
137.205876
 30
0.0
 11
67.771708
 21
135.821364
 31
0.0
  0
LINE
  5
D45
330
D31
100
AcDbEntity
  8
Detourage
  6
ByBlock
100
AcDbLine
 10
67.771708
 20
135.821364
 30
0.0
 11
70.448432
 21
131.644752
 31
0.0
  0
ENDBLK
  5
D33
330
D31
100
AcDbEntity
  8
0
100
AcDbBlockEnd
  0
BLOCK
  5
D48
330
D47
100
AcDbEntity
  8
0
100
AcDbBlockBegin
  2
porte-rotule
 70
     0
 10
0.0
 20
0.0
 30
0.0
  3
porte-rotule
  1
porte-rotule
  0
LINE
  5
D4A
330
D47
100
AcDbEntity
  8
LAYER0
100
AcDbLine
 10
66.786656
 20
109.92456
 30
0.000003
 11
68.546505
 21
107.015448
 31
0.000003
  0
LINE
  5
D4B
330
D47
100
AcDbEntity
  8
LAYER0
100
AcDbLine
 10
57.423429
 20
100.286615
 30
0.000003
 11
68.546505
 21
107.015448
 31
0.000003
  0
LINE
  5
D4C
330
D47
100
AcDbEntity
  8
LAYER0
100
AcDbLine
 10
55.66358
 20
103.195727
 30
0.000003
 11
57.423429
 21
100.286615
 31
0.000003
  0
LINE
  5
D4D
330
D47
100
AcDbEntity
  8
LAYER0
100
AcDbLine
 10
55.66358
 20
103.195727
 30
0.000003
 11
66.786656
 21
109.92456
 31
0.000003
  0
LINE
  5
D4E
330
D47
100
AcDbEntity
  8
LAYER0
100
AcDbLine
 10
48.921521
 20
102.159705
 30
-0.000002
 11
51.795646
 21
97.611827
 31
0.0
  0
LINE
  5
D4F
330
D47
100
AcDbEntity
  8
LAYER0
100
AcDbLine
 10
57.485034
 20
95.501707
 30
0.0
 11
76.006539
 21
101.167824
 31
0.0
  0
LINE
  5
D50
330
D47
100
AcDbEntity
  8
LAYER0
100
AcDbLine
 10
76.686935
 20
92.165057
 30
0.000003
 11
76.644159
 21
91.512426
 31
0.000003
  0
LINE
  5
D51
330
D47
100
AcDbEntity
  8
LAYER0
100
AcDbLine
 10
76.286935
 20
106.906158
 30
0.000003
 11
76.290467
 21
107.094042
 31
0.000003
  0
LINE
  5
D52
330
D47
100
AcDbEntity
  8
LAYER0
100
AcDbLine
 10
76.290467
 20
107.094042
 30
0.000003
 11
76.301055
 21
107.28166
 31
0.000003
  0
LINE
  5
D53
330
D47
100
AcDbEntity
  8
LAYER0
100
AcDbLine
 10
76.301055
 20
107.28166
 30
0.000003
 11
76.318687
 21
107.468748
 31
0.000003
  0
LINE
  5
D54
330
D47
100
AcDbEntity
  8
LAYER0
100
AcDbLine
 10
76.318687
 20
107.468748
 30
0.000003
 11
76.343336
 21
107.655041
 31
0.000003
  0
LINE
  5
D55
330
D47
100
AcDbEntity
  8
LAYER0
100
AcDbLine
 10
76.343336
 20
107.655041
 30
0.000003
 11
76.374968
 21
107.840277
 31
0.000003
  0
LINE
  5
D56
330
D47
100
AcDbEntity
  8
LAYER0
100
AcDbLine
 10
76.374968
 20
107.840277
 30
0.000003
 11
76.413538
 21
108.024192
 31
0.000003
  0
LINE
  5
D57
330
D47
100
AcDbEntity
  8
LAYER0
100
AcDbLine
 10
76.413538
 20
108.024192
 30
0.000003
 11
76.458992
 21
108.206529
 31
0.000003
  0
LINE
  5
D58
330
D47
100
AcDbEntity
  8
LAYER0
100
AcDbLine
 10
76.458992
 20
108.206529
 30
0.000003
 11
76.511266
 21
108.387029
 31
0.000003
  0
LINE
  5
D59
330
D47
100
AcDbEntity
  8
LAYER0
100
AcDbLine
 10
76.511266
 20
108.387029
 30
0.000003
 11
76.570285
 21
108.565437
 31
0.000003
  0
LINE
  5
D5A
330
D47
100
AcDbEntity
  8
LAYER0
100
AcDbLine
 10
76.570285
 20
108.565437
 30
0.000003
 11
76.635966
 21
108.741502
 31
0.000003
  0
LINE
  5
D5B
330
D47
100
AcDbEntity
  8
LAYER0
100
AcDbLine
 10
76.635966
 20
108.741502
 30
0.000003
 11
76.708217
 21
108.914973
 31
0.000003
  0
LINE
  5
D5C
330
D47
100
AcDbEntity
  8
LAYER0
100
AcDbLine
 10
76.708217
 20
108.914973
 30
0.000003
 11
76.786936
 21
109.085607
 31
0.000003
  0
LINE
  5
D5D
330
D47
100
AcDbEntity
  8
LAYER0
100
AcDbLine
 10
77.175455
 20
110.215117
 30
0.000003
 11
76.786936
 21
109.085607
 31
0.000003
  0
LINE
  5
D5E
330
D47
100
AcDbEntity
  8
LAYER0
100
AcDbLine
 10
77.28499
 20
111.404546
 30
0.000003
 11
77.175455
 21
110.215117
 31
0.000003
  0
LINE
  5
D5F
330
D47
100
AcDbEntity
  8
LAYER0
100
AcDbLine
 10
77.210415
 20
111.906002
 30
0.000003
 11
77.28499
 21
111.404546
 31
0.000003
  0
LINE
  5
D60
330
D47
100
AcDbEntity
  8
LAYER0
100
AcDbLine
 10
77.113034
 20
112.560814
 30
0.000003
 11
77.210415
 21
111.906002
 31
0.000003
  0
LINE
  5
D61
330
D47
100
AcDbEntity
  8
LAYER0
100
AcDbLine
 10
77.109287
 20
112.586015
 30
0.000003
 11
77.113034
 21
112.560814
 31
0.000003
  0
LINE
  5
D62
330
D47
100
AcDbEntity
  8
LAYER0
100
AcDbLine
 10
76.658374
 20
113.692097
 30
0.000003
 11
77.109287
 21
112.586015
 31
0.000003
  0
LINE
  5
D63
330
D47
100
AcDbEntity
  8
LAYER0
100
AcDbLine
 10
75.957986
 20
114.659669
 30
0.000003
 11
76.658374
 21
113.692097
 31
0.000003
  0
LINE
  5
D64
330
D47
100
AcDbEntity
  8
LAYER0
100
AcDbLine
 10
75.721863
 20
114.860486
 30
0.000003
 11
75.957986
 21
114.659669
 31
0.000003
  0
LINE
  5
D65
330
D47
100
AcDbEntity
  8
LAYER0
100
AcDbLine
 10
75.158457
 20
115.339649
 30
0.000003
 11
75.721863
 21
114.860486
 31
0.000003
  0
LINE
  5
D66
330
D47
100
AcDbEntity
  8
LAYER0
100
AcDbLine
 10
75.048092
 20
115.433512
 30
0.000003
 11
75.158457
 21
115.339649
 31
0.000003
  0
LINE
  5
D67
330
D47
100
AcDbEntity
  8
LAYER0
100
AcDbLine
 10
73.98062
 20
115.969463
 30
0.000003
 11
75.048092
 21
115.433512
 31
0.000003
  0
LINE
  5
D68
330
D47
100
AcDbEntity
  8
LAYER0
100
AcDbLine
 10
72.81649
 20
116.236935
 30
0.000003
 11
73.98062
 21
115.969463
 31
0.000003
  0
LINE
  5
D69
330
D47
100
AcDbEntity
  8
LAYER0
100
AcDbLine
 10
71.622139
 20
116.220664
 30
0.000003
 11
72.81649
 21
116.236935
 31
0.000003
  0
LINE
  5
D6A
330
D47
100
AcDbEntity
  8
LAYER0
100
AcDbLine
 10
70.465727
 20
115.921579
 30
0.000003
 11
71.622139
 21
116.220664
 31
0.000003
  0
LINE
  5
D6B
330
D47
100
AcDbEntity
  8
LAYER0
100
AcDbLine
 10
69.413251
 20
115.356748
 30
0.000003
 11
70.465727
 21
115.921579
 31
0.000003
  0
LINE
  5
D6C
330
D47
100
AcDbEntity
  8
LAYER0
100
AcDbLine
 10
68.524775
 20
114.558406
 30
0.000003
 11
69.413251
 21
115.356748
 31
0.000003
  0
LINE
  5
D6D
330
D47
100
AcDbEntity
  8
LAYER0
100
AcDbLine
 10
68.524775
 20
114.558406
 30
0.000003
 11
68.393896
 21
114.414635
 31
0.000003
  0
LINE
  5
D6E
330
D47
100
AcDbEntity
  8
LAYER0
100
AcDbLine
 10
68.393896
 20
114.414635
 30
0.000003
 11
68.257526
 21
114.27606
 31
0.000003
  0
LINE
  5
D6F
330
D47
100
AcDbEntity
  8
LAYER0
100
AcDbLine
 10
68.257526
 20
114.27606
 30
0.000003
 11
68.115872
 21
114.142892
 31
0.000003
  0
LINE
  5
D70
330
D47
100
AcDbEntity
  8
LAYER0
100
AcDbLine
 10
68.115872
 20
114.142892
 30
0.000003
 11
67.969148
 21
114.015332
 31
0.000003
  0
LINE
  5
D71
330
D47
100
AcDbEntity
  8
LAYER0
100
AcDbLine
 10
67.969148
 20
114.015332
 30
0.000003
 11
67.817576
 21
113.893572
 31
0.000003
  0
LINE
  5
D72
330
D47
100
AcDbEntity
  8
LAYER0
100
AcDbLine
 10
67.817576
 20
113.893572
 30
0.000003
 11
67.661385
 21
113.777797
 31
0.000003
  0
LINE
  5
D73
330
D47
100
AcDbEntity
  8
LAYER0
100
AcDbLine
 10
67.661385
 20
113.777797
 30
0.000003
 11
67.500811
 21
113.668182
 31
0.000003
  0
LINE
  5
D74
330
D47
100
AcDbEntity
  8
LAYER0
100
AcDbLine
 10
67.500811
 20
113.668182
 30
0.000003
 11
67.336096
 21
113.564892
 31
0.000003
  0
LINE
  5
D75
330
D47
100
AcDbEntity
  8
LAYER0
100
AcDbLine
 10
67.336096
 20
113.564892
 30
0.000003
 11
67.167491
 21
113.468084
 31
0.000003
  0
LINE
  5
D76
330
D47
100
AcDbEntity
  8
LAYER0
100
AcDbLine
 10
67.167491
 20
113.468084
 30
0.000003
 11
66.995249
 21
113.377904
 31
0.000003
  0
LINE
  5
D77
330
D47
100
AcDbEntity
  8
LAYER0
100
AcDbLine
 10
66.995249
 20
113.377904
 30
0.000003
 11
66.819632
 21
113.294489
 31
0.000003
  0
LINE
  5
D78
330
D47
100
AcDbEntity
  8
LAYER0
100
AcDbLine
 10
66.819632
 20
113.294489
 30
0.000003
 11
66.640905
 21
113.217963
 31
0.000003
  0
LINE
  5
D79
330
D47
100
AcDbEntity
  8
LAYER0
100
AcDbLine
 10
58.033627
 20
108.729037
 30
0.0
 11
66.640905
 21
113.217963
 31
0.000003
  0
LINE
  5
D7A
330
D47
100
AcDbEntity
  8
LAYER0
100
AcDbLine
 10
72.339565
 20
87.207833
 30
0.000003
 11
71.686935
 21
87.165057
 31
0.000003
  0
LINE
  5
D7B
330
D47
100
AcDbEntity
  8
LAYER0
100
AcDbLine
 10
72.981029
 20
87.335428
 30
0.000003
 11
72.339565
 21
87.207833
 31
0.000003
  0
LINE
  5
D7C
330
D47
100
AcDbEntity
  8
LAYER0
100
AcDbLine
 10
73.600351
 20
87.54566
 30
0.000003
 11
72.981029
 21
87.335428
 31
0.000003
  0
LINE
  5
D7D
330
D47
100
AcDbEntity
  8
LAYER0
100
AcDbLine
 10
74.186934
 20
87.83493
 30
0.000003
 11
73.600351
 21
87.54566
 31
0.000003
  0
LINE
  5
D7E
330
D47
100
AcDbEntity
  8
LAYER0
100
AcDbLine
 10
74.730741
 20
88.198291
 30
0.000003
 11
74.186934
 21
87.83493
 31
0.000003
  0
LINE
  5
D7F
330
D47
100
AcDbEntity
  8
LAYER0
100
AcDbLine
 10
75.222468
 20
88.629523
 30
0.000003
 11
74.730741
 21
88.198291
 31
0.000003
  0
LINE
  5
D80
330
D47
100
AcDbEntity
  8
LAYER0
100
AcDbLine
 10
75.653701
 20
89.12125
 30
0.000003
 11
75.222468
 21
88.629523
 31
0.000003
  0
LINE
  5
D81
330
D47
100
AcDbEntity
  8
LAYER0
100
AcDbLine
 10
76.017061
 20
89.665057
 30
0.000003
 11
75.653701
 21
89.12125
 31
0.000003
  0
LINE
  5
D82
330
D47
100
AcDbEntity
  8
LAYER0
100
AcDbLine
 10
76.306332
 20
90.25164
 30
0.000003
 11
76.017061
 21
89.665057
 31
0.000003
  0
LINE
  5
D83
330
D47
100
AcDbEntity
  8
LAYER0
100
AcDbLine
 10
76.516563
 20
90.870962
 30
0.000003
 11
76.306332
 21
90.25164
 31
0.000003
  0
LINE
  5
D84
330
D47
100
AcDbEntity
  8
LAYER0
100
AcDbLine
 10
76.644159
 20
91.512426
 30
0.000003
 11
76.516563
 21
90.870962
 31
0.000003
  0
LINE
  5
D85
330
D47
100
AcDbEntity
  8
LAYER0
100
AcDbLine
 10
76.686935
 20
92.165057
 30
0.000003
 11
76.686935
 21
93.550119
 31
0.000003
  0
LINE
  5
D86
330
D47
100
AcDbEntity
  8
LAYER0
100
AcDbLine
 10
76.686935
 20
93.550119
 30
0.000003
 11
76.286935
 21
99.235395
 31
0.000003
  0
LINE
  5
D87
330
D47
100
AcDbEntity
  8
LAYER0
100
AcDbLine
 10
76.286935
 20
99.235395
 30
0.000003
 11
76.286935
 21
99.801756
 31
0.000003
  0
LINE
  5
D88
330
D47
100
AcDbEntity
  8
LAYER0
100
AcDbLine
 10
39.751401
 20
95.700591
 30
0.000003
 11
47.484963
 21
101.634762
 31
0.000002
  0
LINE
  5
D89
330
D47
100
AcDbEntity
  8
LAYER0
100
AcDbLine
 10
39.751401
 20
95.700591
 30
0.000003
 11
38.956807
 21
94.665057
 31
0.000003
  0
LINE
  5
D8A
330
D47
100
AcDbEntity
  8
LAYER0
100
AcDbLine
 10
38.956807
 20
94.665057
 30
0.000003
 11
38.457305
 21
93.459153
 31
0.000003
  0
LINE
  5
D8B
330
D47
100
AcDbEntity
  8
LAYER0
100
AcDbLine
 10
38.457305
 20
93.459153
 30
0.000003
 11
38.286934
 21
92.165058
 31
0.000003
  0
LINE
  5
D8C
330
D47
100
AcDbEntity
  8
LAYER0
100
AcDbLine
 10
38.286934
 20
92.165058
 30
0.000003
 11
38.457305
 21
90.870962
 31
0.000003
  0
LINE
  5
D8D
330
D47
100
AcDbEntity
  8
LAYER0
100
AcDbLine
 10
38.457305
 20
90.870962
 30
0.000003
 11
38.956807
 21
89.665058
 31
0.000003
  0
LINE
  5
D8E
330
D47
100
AcDbEntity
  8
LAYER0
100
AcDbLine
 10
38.956807
 20
89.665058
 30
0.000003
 11
39.7514
 21
88.629524
 31
0.000003
  0
LINE
  5
D8F
330
D47
100
AcDbEntity
  8
LAYER0
100
AcDbLine
 10
39.7514
 20
88.629524
 30
0.000003
 11
40.786934
 21
87.834931
 31
0.000003
  0
LINE
  5
D90
330
D47
100
AcDbEntity
  8
LAYER0
100
AcDbLine
 10
40.786934
 20
87.834931
 30
0.000003
 11
41.992839
 21
87.335429
 31
0.000003
  0
LINE
  5
D91
330
D47
100
AcDbEntity
  8
LAYER0
100
AcDbLine
 10
41.992839
 20
87.335429
 30
0.000003
 11
43.286934
 21
87.165058
 31
0.000003
  0
LINE
  5
D92
330
D47
100
AcDbEntity
  8
LAYER0
100
AcDbLine
 10
47.484963
 20
101.634762
 30
0.000002
 11
49.715562
 21
103.346361
 31
0.000001
  0
LINE
  5
D93
330
D47
100
AcDbEntity
  8
LAYER0
100
AcDbLine
 10
49.715562
 20
103.346361
 30
0.000001
 11
58.033627
 21
108.729037
 31
0.0
  0
LINE
  5
D94
330
D47
100
AcDbEntity
  8
LAYER0
100
AcDbLine
 10
76.286935
 20
99.801756
 30
0.000003
 11
76.286935
 21
102.729848
 31
0.000003
  0
LINE
  5
D95
330
D47
100
AcDbEntity
  8
LAYER0
100
AcDbLine
 10
76.286935
 20
102.729848
 30
0.000003
 11
76.286935
 21
106.906158
 31
0.000003
  0
CIRCLE
  5
D96
330
D47
100
AcDbEntity
  8
Detourage
  6
ByBlock
100
AcDbCircle
 10
71.686934
 20
92.165057
 30
0.000003
 40
2.05
  0
CIRCLE
  5
D97
330
D47
100
AcDbEntity
  8
Detourage
  6
ByBlock
100
AcDbCircle
 10
43.286934
 20
92.165057
 30
0.000005
 40
2.05
  0
CIRCLE
  5
D98
330
D47
100
AcDbEntity
  8
Detourage
  6
ByBlock
100
AcDbCircle
 10
72.286935
 20
111.265057
 30
0.000003
 40
2.949999734152551
  0
LINE
  5
D99
330
D47
100
AcDbEntity
  8
Detourage
  6
ByBlock
100
AcDbLine
 10
57.485034
 20
95.501707
 30
0.0
 11
54.184738
 21
95.501707
 31
0.0
  0
LINE
  5
D9A
330
D47
100
AcDbEntity
  8
Detourage
  6
ByBlock
100
AcDbLine
 10
54.184738
 20
95.501707
 30
0.0
 11
51.795646
 21
97.611827
 31
0.0
  0
LINE
  5
D9B
330
D47
100
AcDbEntity
  8
Detourage
  6
ByBlock
100
AcDbLine
 10
43.286934
 20
87.165058
 30
0.000003
 11
71.686935
 21
87.165057
 31
0.000003
  0
ENDBLK
  5
D49
330
D47
100
AcDbEntity
  8
0
100
AcDbBlockEnd
  0
BLOCK
  5
D9E
330
D9D
100
AcDbEntity
  8
0
100
AcDbBlockBegin
  2
taquet
 70
     0
 10
0.0
 20
0.0
 30
0.0
  3
taquet
  1
taquet
  0
CIRCLE
  5
DA0
330
D9D
100
AcDbEntity
  8
Detourage
100
AcDbCircle
 10
-73.541935
 20
145.770304
 30
0.000003
 40
1.6
  0
CIRCLE
  5
DA1
330
D9D
100
AcDbEntity
  8
Detourage
100
AcDbCircle
 10
-73.541935
 20
134.370304
 30
0.000003
 40
1.6
  0
ARC
  5
DA2
330
D9D
100
AcDbEntity
  8
0
100
AcDbCircle
 10
-75.541935
 20
146.770304
 30
0.000003
 40
4.999999999998806
100
AcDbArc
 50
90.0
 51
180.0
1001
MCSXDATA5
1071
      167
1004
06000000000000008B0000001C000000E404000000000000000000001F050A025C020509020FEE020C4D43535F46494C4C45545F3109020FEE020C4D43535F46494C4C45545F3209020FEE020C4D43535F46494C4C45545F3309020FEE020C4D43535F46494C4C45545F3409020FEE020C4D43535F46494C4C45545F351202
1004
2602050201030201030202020103020326020502010302012202010302010302010201030201221A
  0
ARC
  5
DA3
330
D9D
100
AcDbEntity
  8
0
100
AcDbCircle
 10
-75.541935
 20
133.370304
 30
0.000003
 40
4.999999999998806
100
AcDbArc
 50
180.0
 51
270.0
1001
MCSXDATA5
1071
      167
1004
06000000000000008B0000001C000000E404000000000000000000001F050A025C020509020FEE020C4D43535F46494C4C45545F3109020FEE020C4D43535F46494C4C45545F3209020FEE020C4D43535F46494C4C45545F3309020FEE020C4D43535F46494C4C45545F3409020FEE020C4D43535F46494C4C45545F351202
1004
2602050201030201030202020103020326020502010302012202010302010302010201030201221A
  0
ARC
  5
DA4
330
D9D
100
AcDbEntity
  8
0
100
AcDbCircle
 10
-71.541935
 20
146.770304
 30
0.000003
 40
4.999999999998806
100
AcDbArc
 50
0.0
 51
90.0
1001
MCSXDATA5
1071
      167
1004
06000000000000008B0000001C000000E404000000000000000000001F050A025C020509020FEE020C4D43535F46494C4C45545F3109020FEE020C4D43535F46494C4C45545F3209020FEE020C4D43535F46494C4C45545F3309020FEE020C4D43535F46494C4C45545F3409020FEE020C4D43535F46494C4C45545F351202
1004
2602050201030201030202020103020326020502010302012202010302010302010201030201221A
  0
ARC
  5
DA5
330
D9D
100
AcDbEntity
  8
0
100
AcDbCircle
 10
-71.541935
 20
133.370304
 30
0.000003
 40
4.999999999998806
100
AcDbArc
 50
270.0
 51
0.0
1001
MCSXDATA5
1071
      167
1004
06000000000000008B0000001C000000E404000000000000000000001F050A025C020509020FEE020C4D43535F46494C4C45545F3109020FEE020C4D43535F46494C4C45545F3209020FEE020C4D43535F46494C4C45545F3309020FEE020C4D43535F46494C4C45545F3409020FEE020C4D43535F46494C4C45545F351202
1004
2602050201030201030202020103020326020502010302012202010302010302010201030201221A
  0
LINE
  5
DA6
330
D9D
100
AcDbEntity
  8
Detourage
  6
ByBlock
100
AcDbLine
 10
-80.541935
 20
133.370304
 30
0.000003
 11
-80.541935
 21
146.770304
 31
0.000003
  0
LINE
  5
DA7
330
D9D
100
AcDbEntity
  8
Detourage
  6
ByBlock
100
AcDbLine
 10
-66.541935
 20
133.370304
 30
0.000003
 11
-66.541935
 21
146.770304
 31
0.000003
  0
LINE
  5
DA8
330
D9D
100
AcDbEntity
  8
Detourage
  6
ByBlock
100
AcDbLine
 10
-75.541935
 20
151.770304
 30
0.000003
 11
-71.541935
 21
151.770304
 31
0.000003
  0
LINE
  5
DA9
330
D9D
100
AcDbEntity
  8
Detourage
  6
ByBlock
100
AcDbLine
 10
-75.541935
 20
128.370304
 30
0.000003
 11
-71.541935
 21
128.370304
 31
0.000003
  0
ENDBLK
  5
D9F
330
D9D
100
AcDbEntity
  8
0
100
AcDbBlockEnd
  0
BLOCK
  5
DAC
330
DAB
100
AcDbEntity
  8
0
100
AcDbBlockBegin
  2
ressort
 70
     0
 10
0.0
 20
0.0
 30
0.0
  3
ressort
  1
ressort
  0
CIRCLE
  5
DAE
330
DAB
100
AcDbEntity
  8
Detourage
100
AcDbCircle
 10
-53.95457
 20
150.964841
 30
0.000003
 40
1.0
  0
LINE
  5
DAF
330
DAB
100
AcDbEntity
  8
Detourage
  6
ByBlock
100
AcDbLine
 10
-59.297427
 20
151.227286
 30
0.000003
 11
-56.811713
 21
153.764258
 31
0.000003
  0
ARC
  5
DB0
330
DAB
100
AcDbEntity
  8
0
100
AcDbCircle
 10
-53.95457
 20
150.964841
 30
0.000003
 40
4.0
100
AcDbArc
 50
44.415309
 51
135.584691
  0
LINE
  5
DB1
330
DAB
100
AcDbEntity
  8
Detourage
  6
ByBlock
100
AcDbLine
 10
-59.55457
 20
128.864839
 30
0.000003
 11
-59.55457
 21
139.064839
 31
0.000003
  0
LINE
  5
DB2
330
DAB
100
AcDbEntity
  8
Detourage
  6
ByBlock
100
AcDbLine
 10
-59.55457
 20
144.864839
 30
0.000003
 11
-59.55457
 21
150.597418
 31
0.000003
  0
LINE
  5
DB3
330
DAB
100
AcDbEntity
  8
Detourage
  6
ByBlock
100
AcDbLine
 10
-53.95457
 20
119.964839
 30
0.000003
 11
-58.65457
 21
119.964839
 31
0.000003
  0
LINE
  5
DB4
330
DAB
100
AcDbEntity
  8
Detourage
  6
ByBlock
100
AcDbLine
 10
-56.95457
 20
124.864839
 30
0.000003
 11
-56.95457
 21
127.064839
 31
0.000003
  0
LINE
  5
DB5
330
DAB
100
AcDbEntity
  8
Detourage
  6
ByBlock
100
AcDbLine
 10
-56.95457
 20
140.864839
 30
0.000003
 11
-56.95457
 21
143.064839
 31
0.000003
  0
LINE
  5
DB6
330
DAB
100
AcDbEntity
  8
Detourage
  6
ByBlock
100
AcDbLine
 10
-59.55457
 20
123.064839
 30
0.000003
 11
-59.55457
 21
120.864839
 31
0.000003
  0
LINE
  5
DB7
330
DAB
100
AcDbEntity
  8
Detourage
  6
ByBlock
100
AcDbLine
 10
-57.85457
 20
139.964839
 30
0.000003
 11
-58.65457
 21
139.964839
 31
0.000003
  0
LINE
  5
DB8
330
DAB
100
AcDbEntity
  8
Detourage
  6
ByBlock
100
AcDbLine
 10
-57.85457
 20
143.964839
 30
0.000003
 11
-58.65457
 21
143.964839
 31
0.000003
  0
LINE
  5
DB9
330
DAB
100
AcDbEntity
  8
Detourage
  6
ByBlock
100
AcDbLine
 10
-57.85457
 20
127.964839
 30
0.000003
 11
-58.65457
 21
127.964839
 31
0.000003
  0
LINE
  5
DBA
330
DAB
100
AcDbEntity
  8
Detourage
  6
ByBlock
100
AcDbLine
 10
-57.85457
 20
123.964839
 30
0.000003
 11
-58.65457
 21
123.964839
 31
0.000003
  0
ARC
  5
DBB
330
DAB
100
AcDbEntity
  8
Detourage
  6
ByBlock
100
AcDbCircle
 10
-58.65457
 20
120.864839
 30
0.000003
 40
0.8999999999991743
100
AcDbArc
 50
180.0
 51
270.0
1001
MCSXDATA5
1071
      173
1004
0600000000000000910000001C000000E404000000000000000000001F050A025C020509020FEE020C4D43535F46494C4C45545F3109020FEE020C4D43535F46494C4C45545F3209020FEE020C4D43535F46494C4C45545F3309020FEE020C4D43535F46494C4C45545F3409020FEE020C4D43535F46494C4C45545F351202
1004
2C02050201030201030202020103020306CDCCCCCCCCCCEC3F02010302012202010302010302010201030201221A
  0
ARC
  5
DBC
330
DAB
100
AcDbEntity
  8
Detourage
  6
ByBlock
100
AcDbCircle
 10
-58.65457
 20
123.064839
 30
0.000003
 40
0.8999999999997783
100
AcDbArc
 50
90.0
 51
180.0
1001
MCSXDATA5
1071
      173
1004
0600000000000000910000001C000000E404000000000000000000001F050A025C020509020FEE020C4D43535F46494C4C45545F3109020FEE020C4D43535F46494C4C45545F3209020FEE020C4D43535F46494C4C45545F3309020FEE020C4D43535F46494C4C45545F3409020FEE020C4D43535F46494C4C45545F351202
1004
2C02050201030201030202020103020306CDCCCCCCCCCCEC3F02010302012202010302010302010201030201221A
  0
ARC
  5
DBD
330
DAB
100
AcDbEntity
  8
Detourage
  6
ByBlock
100
AcDbCircle
 10
-57.85457
 20
124.864839
 30
0.000003
 40
0.8999999999998636
100
AcDbArc
 50
270.0
 51
0.0
1001
MCSXDATA5
1071
      173
1004
0600000000000000910000001C000000E404000000000000000000001F050A025C020509020FEE020C4D43535F46494C4C45545F3109020FEE020C4D43535F46494C4C45545F3209020FEE020C4D43535F46494C4C45545F3309020FEE020C4D43535F46494C4C45545F3409020FEE020C4D43535F46494C4C45545F351202
1004
2C02050201030201030202020103020306CDCCCCCCCCCCEC3F02010302012202010302010302010201030201221A
  0
ARC
  5
DBE
330
DAB
100
AcDbEntity
  8
Detourage
  6
ByBlock
100
AcDbCircle
 10
-57.85457
 20
127.064839
 30
0.000003
 40
0.8999999999998778
100
AcDbArc
 50
0.0
 51
90.0
1001
MCSXDATA5
1071
      173
1004
0600000000000000910000001C000000E404000000000000000000001F050A025C020509020FEE020C4D43535F46494C4C45545F3109020FEE020C4D43535F46494C4C45545F3209020FEE020C4D43535F46494C4C45545F3309020FEE020C4D43535F46494C4C45545F3409020FEE020C4D43535F46494C4C45545F351202
1004
2C02050201030201030202020103020306CDCCCCCCCCCCEC3F02010302012202010302010302010201030201221A
  0
ARC
  5
DBF
330
DAB
100
AcDbEntity
  8
Detourage
  6
ByBlock
100
AcDbCircle
 10
-58.65457
 20
128.864839
 30
0.000003
 40
0.899999999998947
100
AcDbArc
 50
180.0
 51
270.0
1001
MCSXDATA5
1071
      173
1004
0600000000000000910000001C000000E404000000000000000000001F050A025C020509020FEE020C4D43535F46494C4C45545F3109020FEE020C4D43535F46494C4C45545F3209020FEE020C4D43535F46494C4C45545F3309020FEE020C4D43535F46494C4C45545F3409020FEE020C4D43535F46494C4C45545F351202
1004
2C02050201030201030202020103020306CDCCCCCCCCCCEC3F02010302012202010302010302010201030201221A
  0
ARC
  5
DC0
330
DAB
100
AcDbEntity
  8
Detourage
  6
ByBlock
100
AcDbCircle
 10
-58.65457
 20
139.064839
 30
0.000003
 40
0.9000000000003752
100
AcDbArc
 50
90.0
 51
180.0
1001
MCSXDATA5
1071
      173
1004
0600000000000000910000001C000000E404000000000000000000001F050A025C020509020FEE020C4D43535F46494C4C45545F3109020FEE020C4D43535F46494C4C45545F3209020FEE020C4D43535F46494C4C45545F3309020FEE020C4D43535F46494C4C45545F3409020FEE020C4D43535F46494C4C45545F351202
1004
2C02050201030201030202020103020306CDCCCCCCCCCCEC3F02010302012202010302010302010201030201221A
  0
ARC
  5
DC1
330
DAB
100
AcDbEntity
  8
Detourage
  6
ByBlock
100
AcDbCircle
 10
-57.85457
 20
140.864839
 30
0.000003
 40
0.8999999999989541
100
AcDbArc
 50
270.0
 51
0.0
1001
MCSXDATA5
1071
      173
1004
0600000000000000910000001C000000E404000000000000000000001F050A025C020509020FEE020C4D43535F46494C4C45545F3109020FEE020C4D43535F46494C4C45545F3209020FEE020C4D43535F46494C4C45545F3309020FEE020C4D43535F46494C4C45545F3409020FEE020C4D43535F46494C4C45545F351202
1004
2C02050201030201030202020103020306CDCCCCCCCCCCEC3F02010302012202010302010302010201030201221A
  0
ARC
  5
DC2
330
DAB
100
AcDbEntity
  8
Detourage
  6
ByBlock
100
AcDbCircle
 10
-57.85457
 20
143.064839
 30
0.000003
 40
0.8999999999992667
100
AcDbArc
 50
0.0
 51
90.0
1001
MCSXDATA5
1071
      173
1004
0600000000000000910000001C000000E404000000000000000000001F050A025C020509020FEE020C4D43535F46494C4C45545F3109020FEE020C4D43535F46494C4C45545F3209020FEE020C4D43535F46494C4C45545F3309020FEE020C4D43535F46494C4C45545F3409020FEE020C4D43535F46494C4C45545F351202
1004
2C02050201030201030202020103020306CDCCCCCCCCCCEC3F02010302012202010302010302010201030201221A
  0
ARC
  5
DC3
330
DAB
100
AcDbEntity
  8
Detourage
  6
ByBlock
100
AcDbCircle
 10
-58.65457
 20
144.864839
 30
0.000003
 40
0.900000000000162
100
AcDbArc
 50
180.0
 51
270.0
1001
MCSXDATA5
1071
      173
1004
0600000000000000910000001C000000E404000000000000000000001F050A025C020509020FEE020C4D43535F46494C4C45545F3109020FEE020C4D43535F46494C4C45545F3209020FEE020C4D43535F46494C4C45545F3309020FEE020C4D43535F46494C4C45545F3409020FEE020C4D43535F46494C4C45545F351202
1004
2C02050201030201030202020103020306CDCCCCCCCCCCEC3F02010302012202010302010302010201030201221A
  0
ARC
  5
DC4
330
DAB
100
AcDbEntity
  8
Detourage
  6
ByBlock
100
AcDbCircle
 10
-58.65457
 20
150.597418
 30
0.000003
 40
0.9000000000125581
100
AcDbArc
 50
135.584691
 51
180.0
1001
MCSXDATA5
1071
      173
1004
0600000000000000910000001C000000E404000000000000000000001F050A025C020509020FEE020C4D43535F46494C4C45545F3109020FEE020C4D43535F46494C4C45545F3209020FEE020C4D43535F46494C4C45545F3309020FEE020C4D43535F46494C4C45545F3409020FEE020C4D43535F46494C4C45545F351202
1004
2C02050201030201030202020103020306CDCCCCCCCCCCEC3F02010302012202010302010302010201030201221A
  0
LINE
  5
DC5
330
DAB
100
AcDbEntity
  8
Detourage
  6
ByBlock
100
AcDbLine
 10
-48.611713
 20
151.227286
 30
0.000003
 11
-51.097427
 21
153.764258
 31
0.000003
  0
LINE
  5
DC6
330
DAB
100
AcDbEntity
  8
Detourage
  6
ByBlock
100
AcDbLine
 10
-48.35457
 20
128.864839
 30
0.000003
 11
-48.35457
 21
139.064839
 31
0.000003
  0
LINE
  5
DC7
330
DAB
100
AcDbEntity
  8
Detourage
  6
ByBlock
100
AcDbLine
 10
-48.35457
 20
144.864839
 30
0.000003
 11
-48.35457
 21
150.597418
 31
0.000003
  0
LINE
  5
DC8
330
DAB
100
AcDbEntity
  8
Detourage
  6
ByBlock
100
AcDbLine
 10
-53.95457
 20
119.964839
 30
0.000003
 11
-49.25457
 21
119.964839
 31
0.000003
  0
LINE
  5
DC9
330
DAB
100
AcDbEntity
  8
Detourage
  6
ByBlock
100
AcDbLine
 10
-50.95457
 20
124.864839
 30
0.000003
 11
-50.95457
 21
127.064839
 31
0.000003
  0
LINE
  5
DCA
330
DAB
100
AcDbEntity
  8
Detourage
  6
ByBlock
100
AcDbLine
 10
-50.95457
 20
140.864839
 30
0.000003
 11
-50.95457
 21
143.064839
 31
0.000003
  0
LINE
  5
DCB
330
DAB
100
AcDbEntity
  8
Detourage
  6
ByBlock
100
AcDbLine
 10
-48.35457
 20
123.064839
 30
0.000003
 11
-48.35457
 21
120.864839
 31
0.000003
  0
LINE
  5
DCC
330
DAB
100
AcDbEntity
  8
Detourage
  6
ByBlock
100
AcDbLine
 10
-50.05457
 20
139.964839
 30
0.000003
 11
-49.25457
 21
139.964839
 31
0.000003
  0
LINE
  5
DCD
330
DAB
100
AcDbEntity
  8
Detourage
  6
ByBlock
100
AcDbLine
 10
-50.05457
 20
143.964839
 30
0.000003
 11
-49.25457
 21
143.964839
 31
0.000003
  0
LINE
  5
DCE
330
DAB
100
AcDbEntity
  8
Detourage
  6
ByBlock
100
AcDbLine
 10
-50.05457
 20
127.964839
 30
0.000003
 11
-49.25457
 21
127.964839
 31
0.000003
  0
LINE
  5
DCF
330
DAB
100
AcDbEntity
  8
Detourage
  6
ByBlock
100
AcDbLine
 10
-50.05457
 20
123.964839
 30
0.000003
 11
-49.25457
 21
123.964839
 31
0.000003
  0
ARC
  5
DD0
330
DAB
100
AcDbEntity
  8
Detourage
  6
ByBlock
100
AcDbCircle
 10
-49.25457
 20
120.864839
 30
0.000003
 40
0.8999999999991743
100
AcDbArc
 50
270.0
 51
0.0
1001
MCSXDATA5
1071
      173
1004
0600000000000000910000001C000000E404000000000000000000001F050A025C020509020FEE020C4D43535F46494C4C45545F3109020FEE020C4D43535F46494C4C45545F3209020FEE020C4D43535F46494C4C45545F3309020FEE020C4D43535F46494C4C45545F3409020FEE020C4D43535F46494C4C45545F351202
1004
2C02050201030201030202020103020306CDCCCCCCCCCCEC3F02010302012202010302010302010201030201221A
  0
ARC
  5
DD1
330
DAB
100
AcDbEntity
  8
Detourage
  6
ByBlock
100
AcDbCircle
 10
-49.25457
 20
123.064839
 30
0.000003
 40
0.8999999999997783
100
AcDbArc
 50
0.0
 51
90.0
1001
MCSXDATA5
1071
      173
1004
0600000000000000910000001C000000E404000000000000000000001F050A025C020509020FEE020C4D43535F46494C4C45545F3109020FEE020C4D43535F46494C4C45545F3209020FEE020C4D43535F46494C4C45545F3309020FEE020C4D43535F46494C4C45545F3409020FEE020C4D43535F46494C4C45545F351202
1004
2C02050201030201030202020103020306CDCCCCCCCCCCEC3F02010302012202010302010302010201030201221A
  0
ARC
  5
DD2
330
DAB
100
AcDbEntity
  8
Detourage
  6
ByBlock
100
AcDbCircle
 10
-50.05457
 20
124.864839
 30
0.000003
 40
0.8999999999998636
100
AcDbArc
 50
180.0
 51
270.0
1001
MCSXDATA5
1071
      173
1004
0600000000000000910000001C000000E404000000000000000000001F050A025C020509020FEE020C4D43535F46494C4C45545F3109020FEE020C4D43535F46494C4C45545F3209020FEE020C4D43535F46494C4C45545F3309020FEE020C4D43535F46494C4C45545F3409020FEE020C4D43535F46494C4C45545F351202
1004
2C02050201030201030202020103020306CDCCCCCCCCCCEC3F02010302012202010302010302010201030201221A
  0
ARC
  5
DD3
330
DAB
100
AcDbEntity
  8
Detourage
  6
ByBlock
100
AcDbCircle
 10
-50.05457
 20
127.064839
 30
0.000003
 40
0.8999999999998778
100
AcDbArc
 50
90.0
 51
180.0
1001
MCSXDATA5
1071
      173
1004
0600000000000000910000001C000000E404000000000000000000001F050A025C020509020FEE020C4D43535F46494C4C45545F3109020FEE020C4D43535F46494C4C45545F3209020FEE020C4D43535F46494C4C45545F3309020FEE020C4D43535F46494C4C45545F3409020FEE020C4D43535F46494C4C45545F351202
1004
2C02050201030201030202020103020306CDCCCCCCCCCCEC3F02010302012202010302010302010201030201221A
  0
ARC
  5
DD4
330
DAB
100
AcDbEntity
  8
Detourage
  6
ByBlock
100
AcDbCircle
 10
-49.25457
 20
128.864839
 30
0.000003
 40
0.899999999998947
100
AcDbArc
 50
270.0
 51
0.0
1001
MCSXDATA5
1071
      173
1004
0600000000000000910000001C000000E404000000000000000000001F050A025C020509020FEE020C4D43535F46494C4C45545F3109020FEE020C4D43535F46494C4C45545F3209020FEE020C4D43535F46494C4C45545F3309020FEE020C4D43535F46494C4C45545F3409020FEE020C4D43535F46494C4C45545F351202
1004
2C02050201030201030202020103020306CDCCCCCCCCCCEC3F02010302012202010302010302010201030201221A
  0
ARC
  5
DD5
330
DAB
100
AcDbEntity
  8
Detourage
  6
ByBlock
100
AcDbCircle
 10
-49.25457
 20
139.064839
 30
0.000003
 40
0.9000000000003752
100
AcDbArc
 50
0.0
 51
90.0
1001
MCSXDATA5
1071
      173
1004
0600000000000000910000001C000000E404000000000000000000001F050A025C020509020FEE020C4D43535F46494C4C45545F3109020FEE020C4D43535F46494C4C45545F3209020FEE020C4D43535F46494C4C45545F3309020FEE020C4D43535F46494C4C45545F3409020FEE020C4D43535F46494C4C45545F351202
1004
2C02050201030201030202020103020306CDCCCCCCCCCCEC3F02010302012202010302010302010201030201221A
  0
ARC
  5
DD6
330
DAB
100
AcDbEntity
  8
Detourage
  6
ByBlock
100
AcDbCircle
 10
-50.05457
 20
140.864839
 30
0.000003
 40
0.8999999999989541
100
AcDbArc
 50
180.0
 51
270.0
1001
MCSXDATA5
1071
      173
1004
0600000000000000910000001C000000E404000000000000000000001F050A025C020509020FEE020C4D43535F46494C4C45545F3109020FEE020C4D43535F46494C4C45545F3209020FEE020C4D43535F46494C4C45545F3309020FEE020C4D43535F46494C4C45545F3409020FEE020C4D43535F46494C4C45545F351202
1004
2C02050201030201030202020103020306CDCCCCCCCCCCEC3F02010302012202010302010302010201030201221A
  0
ARC
  5
DD7
330
DAB
100
AcDbEntity
  8
Detourage
  6
ByBlock
100
AcDbCircle
 10
-50.05457
 20
143.064839
 30
0.000003
 40
0.8999999999992667
100
AcDbArc
 50
90.0
 51
180.0
1001
MCSXDATA5
1071
      173
1004
0600000000000000910000001C000000E404000000000000000000001F050A025C020509020FEE020C4D43535F46494C4C45545F3109020FEE020C4D43535F46494C4C45545F3209020FEE020C4D43535F46494C4C45545F3309020FEE020C4D43535F46494C4C45545F3409020FEE020C4D43535F46494C4C45545F351202
1004
2C02050201030201030202020103020306CDCCCCCCCCCCEC3F02010302012202010302010302010201030201221A
  0
ARC
  5
DD8
330
DAB
100
AcDbEntity
  8
Detourage
  6
ByBlock
100
AcDbCircle
 10
-49.25457
 20
144.864839
 30
0.000003
 40
0.900000000000162
100
AcDbArc
 50
270.0
 51
0.0
1001
MCSXDATA5
1071
      173
1004
0600000000000000910000001C000000E404000000000000000000001F050A025C020509020FEE020C4D43535F46494C4C45545F3109020FEE020C4D43535F46494C4C45545F3209020FEE020C4D43535F46494C4C45545F3309020FEE020C4D43535F46494C4C45545F3409020FEE020C4D43535F46494C4C45545F351202
1004
2C02050201030201030202020103020306CDCCCCCCCCCCEC3F02010302012202010302010302010201030201221A
  0
ARC
  5
DD9
330
DAB
100
AcDbEntity
  8
Detourage
  6
ByBlock
100
AcDbCircle
 10
-49.25457
 20
150.597418
 30
0.000003
 40
0.9000000000125581
100
AcDbArc
 50
0.0
 51
44.415309
1001
MCSXDATA5
1071
      173
1004
0600000000000000910000001C000000E404000000000000000000001F050A025C020509020FEE020C4D43535F46494C4C45545F3109020FEE020C4D43535F46494C4C45545F3209020FEE020C4D43535F46494C4C45545F3309020FEE020C4D43535F46494C4C45545F3409020FEE020C4D43535F46494C4C45545F351202
1004
2C02050201030201030202020103020306CDCCCCCCCCCCEC3F02010302012202010302010302010201030201221A
  0
ENDBLK
  5
DAD
330
DAB
100
AcDbEntity
  8
0
100
AcDbBlockEnd
  0
BLOCK
  5
DDC
330
DDB
100
AcDbEntity
  8
0
100
AcDbBlockBegin
  2
porte-ressort
 70
     0
 10
0.0
 20
0.0
 30
0.0
  3
porte-ressort
  1
porte-ressort
  0
LINE
  5
DDE
330
DDB
100
AcDbEntity
  8
LAYER0
100
AcDbLine
 10
-85.890389
 20
85.755593
 30
0.000003
 11
-64.358621
 21
94.868448
 31
0.000003
  0
LINE
  5
DDF
330
DDB
100
AcDbEntity
  8
LAYER0
100
AcDbLine
 10
-85.890389
 20
85.755593
 30
0.000003
 11
-86.834451
 21
85.437047
 31
0.000003
  0
LINE
  5
DE0
330
DDB
100
AcDbEntity
  8
LAYER0
100
AcDbLine
 10
-86.834451
 20
85.437047
 30
0.000003
 11
-87.822929
 21
85.312014
 31
0.000003
  0
LINE
  5
DE1
330
DDB
100
AcDbEntity
  8
LAYER0
100
AcDbLine
 10
-87.822929
 20
85.312014
 30
0.000003
 11
-88.816574
 21
85.385458
 31
0.000003
  0
LINE
  5
DE2
330
DDB
100
AcDbEntity
  8
LAYER0
100
AcDbLine
 10
-88.816574
 20
85.385458
 30
0.000003
 11
-89.775928
 21
85.654463
 31
0.000003
  0
LINE
  5
DE3
330
DDB
100
AcDbEntity
  8
LAYER0
100
AcDbLine
 10
-89.775928
 20
85.654463
 30
0.000003
 11
-90.662896
 21
86.108348
 31
0.000003
  0
LINE
  5
DE4
330
DDB
100
AcDbEntity
  8
LAYER0
100
AcDbLine
 10
-90.662896
 20
86.108348
 30
0.000003
 11
-91.442258
 21
86.729088
 31
0.000003
  0
LINE
  5
DE5
330
DDB
100
AcDbEntity
  8
LAYER0
100
AcDbLine
 10
-91.442258
 20
86.729088
 30
0.000003
 11
-92.083066
 21
87.492035
 31
0.000003
  0
LINE
  5
DE6
330
DDB
100
AcDbEntity
  8
LAYER0
100
AcDbLine
 10
-92.083066
 20
87.492035
 30
0.000003
 11
-92.559875
 21
88.366894
 31
0.000003
  0
LINE
  5
DE7
330
DDB
100
AcDbEntity
  8
LAYER0
100
AcDbLine
 10
-92.559875
 20
88.366894
 30
0.000003
 11
-92.85375
 21
89.318924
 31
0.000003
  0
LINE
  5
DE8
330
DDB
100
AcDbEntity
  8
LAYER0
100
AcDbLine
 10
-92.85375
 20
89.318924
 30
0.000003
 11
-92.953022
 21
90.310321
 31
0.000003
  0
LINE
  5
DE9
330
DDB
100
AcDbEntity
  8
LAYER0
100
AcDbLine
 10
-92.953022
 20
118.710321
 30
0.000003
 11
-92.878234
 21
119.571882
 31
0.000003
  0
LINE
  5
DEA
330
DDB
100
AcDbEntity
  8
LAYER0
100
AcDbLine
 10
-92.878234
 20
119.571882
 30
0.000003
 11
-92.656107
 21
120.407669
 31
0.000003
  0
LINE
  5
DEB
330
DDB
100
AcDbEntity
  8
LAYER0
100
AcDbLine
 10
-92.656107
 20
120.407669
 30
0.000003
 11
-92.293287
 21
121.19268
 31
0.000003
  0
LINE
  5
DEC
330
DDB
100
AcDbEntity
  8
LAYER0
100
AcDbLine
 10
-92.293287
 20
121.19268
 30
0.000003
 11
-91.800626
 21
121.90343
 31
0.000003
  0
LINE
  5
DED
330
DDB
100
AcDbEntity
  8
LAYER0
100
AcDbLine
 10
-91.800626
 20
121.90343
 30
0.000003
 11
-91.192864
 21
122.518658
 31
0.000003
  0
LINE
  5
DEE
330
DDB
100
AcDbEntity
  8
LAYER0
100
AcDbLine
 10
-91.192864
 20
122.518658
 30
0.000003
 11
-90.488181
 21
123.019958
 31
0.000003
  0
LINE
  5
DEF
330
DDB
100
AcDbEntity
  8
LAYER0
100
AcDbLine
 10
-90.488181
 20
123.019958
 30
0.000003
 11
-89.707658
 21
123.392335
 31
0.000003
  0
LINE
  5
DF0
330
DDB
100
AcDbEntity
  8
LAYER0
100
AcDbLine
 10
-89.707658
 20
123.392335
 30
0.000003
 11
-88.874645
 21
123.624649
 31
0.000003
  0
LINE
  5
DF1
330
DDB
100
AcDbEntity
  8
LAYER0
100
AcDbLine
 10
-88.874645
 20
123.624649
 30
0.000003
 11
-88.014062
 21
123.709949
 31
0.000003
  0
LINE
  5
DF2
330
DDB
100
AcDbEntity
  8
LAYER0
100
AcDbLine
 10
-88.014062
 20
123.709949
 30
0.000003
 11
-87.151652
 21
123.645684
 31
0.000003
  0
LINE
  5
DF3
330
DDB
100
AcDbEntity
  8
LAYER0
100
AcDbLine
 10
-87.151652
 20
123.645684
 30
0.000003
 11
-86.313216
 21
123.433777
 31
0.000003
  0
LINE
  5
DF4
330
DDB
100
AcDbEntity
  8
LAYER0
100
AcDbLine
 10
-86.313216
 20
123.433777
 30
0.000003
 11
-85.523834
 21
123.080567
 31
0.000003
  0
LINE
  5
DF5
330
DDB
100
AcDbEntity
  8
LAYER0
100
AcDbLine
 10
-71.751676
 20
113.969246
 30
0.000003
 11
-85.523834
 21
123.080567
 31
0.000003
  0
LINE
  5
DF6
330
DDB
100
AcDbEntity
  8
LAYER0
100
AcDbLine
 10
-71.377925
 20
113.771721
 30
0.000003
 11
-71.751676
 21
113.969246
 31
0.000003
  0
LINE
  5
DF7
330
DDB
100
AcDbEntity
  8
LAYER0
100
AcDbLine
 10
-70.99616
 20
113.590168
 30
0.000003
 11
-71.377925
 21
113.771721
 31
0.000003
  0
LINE
  5
DF8
330
DDB
100
AcDbEntity
  8
LAYER0
100
AcDbLine
 10
-70.607063
 20
113.424913
 30
0.000003
 11
-70.99616
 21
113.590168
 31
0.000003
  0
LINE
  5
DF9
330
DDB
100
AcDbEntity
  8
LAYER0
100
AcDbLine
 10
-70.21133
 20
113.27625
 30
0.000003
 11
-70.607063
 21
113.424913
 31
0.000003
  0
LINE
  5
DFA
330
DDB
100
AcDbEntity
  8
LAYER0
100
AcDbLine
 10
-69.809666
 20
113.144446
 30
0.000003
 11
-70.21133
 21
113.27625
 31
0.000003
  0
LINE
  5
DFB
330
DDB
100
AcDbEntity
  8
LAYER0
100
AcDbLine
 10
-69.402791
 20
113.029735
 30
0.000003
 11
-69.809666
 21
113.144446
 31
0.000003
  0
LINE
  5
DFC
330
DDB
100
AcDbEntity
  8
LAYER0
100
AcDbLine
 10
-68.991432
 20
112.932322
 30
0.000003
 11
-69.402791
 21
113.029735
 31
0.000003
  0
LINE
  5
DFD
330
DDB
100
AcDbEntity
  8
LAYER0
100
AcDbLine
 10
-68.576323
 20
112.852383
 30
0.000003
 11
-68.991432
 21
112.932322
 31
0.000003
  0
LINE
  5
DFE
330
DDB
100
AcDbEntity
  8
LAYER0
100
AcDbLine
 10
-68.158206
 20
112.790059
 30
0.000003
 11
-68.576323
 21
112.852383
 31
0.000003
  0
LINE
  5
DFF
330
DDB
100
AcDbEntity
  8
LAYER0
100
AcDbLine
 10
-67.737829
 20
112.745463
 30
0.000003
 11
-68.158206
 21
112.790059
 31
0.000003
  0
LINE
  5
E00
330
DDB
100
AcDbEntity
  8
LAYER0
100
AcDbLine
 10
-67.315942
 20
112.718673
 30
0.000003
 11
-67.737829
 21
112.745463
 31
0.000003
  0
LINE
  5
E01
330
DDB
100
AcDbEntity
  8
LAYER0
100
AcDbLine
 10
-66.8933
 20
112.709738
 30
0.000003
 11
-67.315942
 21
112.718673
 31
0.000003
  0
LINE
  5
E02
330
DDB
100
AcDbEntity
  8
LAYER0
100
AcDbLine
 10
-62.053021
 20
112.709738
 30
0.000003
 11
-66.8933
 21
112.709738
 31
0.000003
  0
LINE
  5
E03
330
DDB
100
AcDbEntity
  8
LAYER0
100
AcDbLine
 10
-57.053021
 20
107.709738
 30
0.000003
 11
-57.053021
 21
103.625033
 31
0.000003
  0
LINE
  5
E04
330
DDB
100
AcDbEntity
  8
LAYER0
100
AcDbLine
 10
-57.053021
 20
103.625033
 30
0.000003
 11
-57.072358
 21
103.003462
 31
0.000003
  0
LINE
  5
E05
330
DDB
100
AcDbEntity
  8
LAYER0
100
AcDbLine
 10
-57.072358
 20
103.003462
 30
0.000003
 11
-57.130291
 21
102.384295
 31
0.000003
  0
LINE
  5
E06
330
DDB
100
AcDbEntity
  8
LAYER0
100
AcDbLine
 10
-57.130291
 20
102.384295
 30
0.000003
 11
-57.226599
 21
101.769926
 31
0.000003
  0
LINE
  5
E07
330
DDB
100
AcDbEntity
  8
LAYER0
100
AcDbLine
 10
-57.226599
 20
101.769926
 30
0.000003
 11
-57.360907
 21
101.162732
 31
0.000003
  0
LINE
  5
E08
330
DDB
100
AcDbEntity
  8
LAYER0
100
AcDbLine
 10
-57.360907
 20
101.162732
 30
0.000003
 11
-57.532698
 21
100.565059
 31
0.000003
  0
LINE
  5
E09
330
DDB
100
AcDbEntity
  8
LAYER0
100
AcDbLine
 10
-58.417432
 20
99.350166
 30
0.000003
 11
-57.532698
 21
100.565059
 31
0.000003
  0
LINE
  5
E0A
330
DDB
100
AcDbEntity
  8
LAYER0
100
AcDbLine
 10
-59.417198
 20
98.228031
 30
0.000003
 11
-58.417432
 21
99.350166
 31
0.000003
  0
LINE
  5
E0B
330
DDB
100
AcDbEntity
  8
LAYER0
100
AcDbLine
 10
-60.52233
 20
97.209502
 30
0.000003
 11
-59.417198
 21
98.228031
 31
0.000003
  0
LINE
  5
E0C
330
DDB
100
AcDbEntity
  8
LAYER0
100
AcDbLine
 10
-61.722145
 20
96.304425
 30
0.000003
 11
-60.52233
 21
97.209502
 31
0.000003
  0
LINE
  5
E0D
330
DDB
100
AcDbEntity
  8
LAYER0
100
AcDbLine
 10
-63.005043
 20
95.521551
 30
0.000003
 11
-61.722145
 21
96.304425
 31
0.000003
  0
LINE
  5
E0E
330
DDB
100
AcDbEntity
  8
LAYER0
100
AcDbLine
 10
-64.358621
 20
94.868448
 30
0.000003
 11
-63.005043
 21
95.521551
 31
0.000003
  0
CIRCLE
  5
E0F
330
DDB
100
AcDbEntity
  8
Detourage
  6
ByBlock
100
AcDbCircle
 10
-74.553021
 20
105.709738
 30
0.000003
 40
1.550000145300939
  0
CIRCLE
  5
E10
330
DDB
100
AcDbEntity
  8
Detourage
  6
ByBlock
100
AcDbCircle
 10
-63.153021
 20
105.709738
 30
0.000003
 40
1.549999904120018
  0
CIRCLE
  5
E11
330
DDB
100
AcDbEntity
  8
Detourage
  6
ByBlock
100
AcDbCircle
 10
-87.953022
 20
118.710321
 30
0.000003
 40
2.05
  0
CIRCLE
  5
E12
330
DDB
100
AcDbEntity
  8
Detourage
  6
ByBlock
100
AcDbCircle
 10
-87.953021
 20
90.310321
 30
0.000003
 40
2.05
  0
ARC
  5
E13
330
DDB
100
AcDbEntity
  8
LAYER0
100
AcDbCircle
 10
-62.053021
 20
107.709738
 30
0.000003
 40
4.999999999999901
100
AcDbArc
 50
0.0
 51
90.0
1001
MCSXDATA5
1071
      167
1004
06000000000000008B0000001C000000E404000000000000000000001F050A025C020509020FEE020C4D43535F46494C4C45545F3109020FEE020C4D43535F46494C4C45545F3209020FEE020C4D43535F46494C4C45545F3309020FEE020C4D43535F46494C4C45545F3409020FEE020C4D43535F46494C4C45545F351202
1004
2602050201030201030202020103020326020502010302012202010302010302010201030201221A
  0
LINE
  5
E14
330
DDB
100
AcDbEntity
  8
Detourage
  6
ByBlock
100
AcDbLine
 10
-92.953022
 20
118.710321
 30
0.000003
 11
-92.953022
 21
90.310321
 31
0.000003
  0
ENDBLK
  5
DDD
330
DDB
100
AcDbEntity
  8
0
100
AcDbBlockEnd
  0
ENDSEC
  0
SECTION
  2
ENTITIES
  0
LWPOLYLINE
  5
1132
330
310
100
AcDbEntity
  8
LAYER0
  6
ByBlock
100
AcDbPolyline
 90
        4
 70
     1
 43
0.0
 10
-13.73055
 20
-101.583531
 10
86.26945
 20
-101.583531
 10
86.26945
 20
58.416469
 10
-13.73055
 20
58.416469
  0
LINE
  5
11F5
330
310
100
AcDbEntity
  8
Detourage
100
AcDbLine
 10
-4.395244
 20
1.914218
 30
0.0
 11
-4.689119
 21
2.866248
 31
0.0
  0
LINE
  5
11F6
330
310
100
AcDbEntity
  8
Detourage
100
AcDbLine
 10
-3.918436
 20
1.03936
 30
0.0
 11
-4.395244
 21
1.914218
 31
0.0
  0
LINE
  5
11F7
330
310
100
AcDbEntity
  8
Detourage
100
AcDbLine
 10
-3.277628
 20
0.276412
 30
0.0
 11
-3.918436
 21
1.03936
 31
0.0
  0
LINE
  5
11F8
330
310
100
AcDbEntity
  8
Detourage
100
AcDbLine
 10
-2.498266
 20
-0.344328
 30
0.0
 11
-3.277628
 21
0.276412
 31
0.0
  0
LINE
  5
11F9
330
310
100
AcDbEntity
  8
Detourage
100
AcDbLine
 10
-1.611298
 20
-0.798212
 30
0.0
 11
-2.498266
 21
-0.344328
 31
0.0
  0
LINE
  5
11FA
330
310
100
AcDbEntity
  8
Detourage
100
AcDbLine
 10
-0.651944
 20
-1.067218
 30
0.0
 11
-1.611298
 21
-0.798212
 31
0.0
  0
LINE
  5
11FB
330
310
100
AcDbEntity
  8
Detourage
100
AcDbLine
 10
0.341701
 20
-1.140662
 30
0.0
 11
-0.651944
 21
-1.067218
 31
0.0
  0
LINE
  5
11FC
330
310
100
AcDbEntity
  8
Detourage
100
AcDbLine
 10
1.33018
 20
-1.015628
 30
0.0
 11
0.341701
 21
-1.140662
 31
0.0
  0
LINE
  5
11FD
330
310
100
AcDbEntity
  8
Detourage
100
AcDbLine
 10
2.274241
 20
-0.697082
 30
0.0
 11
1.33018
 21
-1.015628
 31
0.0
  0
LINE
  5
11FE
330
310
100
AcDbEntity
  8
Detourage
100
AcDbLine
 10
2.274241
 20
-0.697082
 30
0.0
 11
4.855794
 21
0.395504
 31
0.0
  0
LINE
  5
11FF
330
310
100
AcDbEntity
  8
Detourage
100
AcDbLine
 10
4.855794
 20
0.395504
 30
0.0
 11
6.082516
 21
1.008061
 31
0.0
  0
LINE
  5
1200
330
310
100
AcDbEntity
  8
Detourage
100
AcDbLine
 10
6.082516
 20
1.008061
 30
0.0
 11
7.222908
 21
1.769361
 31
0.0
  0
LINE
  5
1201
330
310
100
AcDbEntity
  8
Detourage
100
AcDbLine
 10
7.222908
 20
1.769361
 30
0.0
 11
8.259032
 21
2.667426
 31
0.0
  0
LINE
  5
1202
330
310
100
AcDbEntity
  8
Detourage
100
AcDbLine
 10
8.259032
 20
2.667426
 30
0.0
 11
9.174585
 21
3.688128
 31
0.0
  0
LINE
  5
1203
330
310
100
AcDbEntity
  8
Detourage
100
AcDbLine
 10
29.311609
 20
35.857645
 30
0.0
 11
24.311609
 21
25.857645
 31
0.0
  0
LINE
  5
1204
330
310
100
AcDbEntity
  8
Detourage
100
AcDbLine
 10
29.311609
 20
35.857645
 30
0.0
 11
35.811609
 21
22.857645
 31
0.0
  0
LINE
  5
1205
330
310
100
AcDbEntity
  8
Detourage
100
AcDbLine
 10
38.311609
 20
22.857645
 30
0.0
 11
38.833713
 21
22.891866
 31
0.0
  0
LINE
  5
1206
330
310
100
AcDbEntity
  8
Detourage
100
AcDbLine
 10
38.833713
 20
22.891866
 30
0.0
 11
39.346885
 21
22.993942
 31
0.0
  0
LINE
  5
1207
330
310
100
AcDbEntity
  8
Detourage
100
AcDbLine
 10
39.346885
 20
22.993942
 30
0.0
 11
39.842342
 21
23.162127
 31
0.0
  0
LINE
  5
1208
330
310
100
AcDbEntity
  8
Detourage
100
AcDbLine
 10
39.842342
 20
23.162127
 30
0.0
 11
40.311609
 21
23.393544
 31
0.0
  0
LINE
  5
1209
330
310
100
AcDbEntity
  8
Detourage
100
AcDbLine
 10
40.311609
 20
23.393544
 30
0.0
 11
40.746654
 21
23.684232
 31
0.0
  0
LINE
  5
120A
330
310
100
AcDbEntity
  8
Detourage
100
AcDbLine
 10
40.746654
 20
23.684232
 30
0.0
 11
41.140036
 21
24.029218
 31
0.0
  0
LINE
  5
120B
330
310
100
AcDbEntity
  8
Detourage
100
AcDbLine
 10
41.140036
 20
24.029218
 30
0.0
 11
41.485022
 21
24.4226
 31
0.0
  0
LINE
  5
120C
330
310
100
AcDbEntity
  8
Detourage
100
AcDbLine
 10
41.485022
 20
24.4226
 30
0.0
 11
41.77571
 21
24.857645
 31
0.0
  0
LINE
  5
120D
330
310
100
AcDbEntity
  8
Detourage
100
AcDbLine
 10
41.77571
 20
24.857645
 30
0.0
 11
42.007127
 21
25.326912
 31
0.0
  0
LINE
  5
120E
330
310
100
AcDbEntity
  8
Detourage
100
AcDbLine
 10
42.007127
 20
25.326912
 30
0.0
 11
42.175312
 21
25.822369
 31
0.0
  0
LINE
  5
120F
330
310
100
AcDbEntity
  8
Detourage
100
AcDbLine
 10
42.175312
 20
25.822369
 30
0.0
 11
42.277388
 21
26.335541
 31
0.0
  0
LINE
  5
1210
330
310
100
AcDbEntity
  8
Detourage
100
AcDbLine
 10
42.277388
 20
26.335541
 30
0.0
 11
42.311609
 21
26.857645
 31
0.0
  0
LINE
  5
1211
330
310
100
AcDbEntity
  8
Detourage
100
AcDbLine
 10
42.311609
 20
38.257273
 30
0.0
 11
42.246586
 21
39.249321
 31
0.0
  0
LINE
  5
1212
330
310
100
AcDbEntity
  8
Detourage
100
AcDbLine
 10
42.246586
 20
39.249321
 30
0.0
 11
42.052632
 21
40.224394
 31
0.0
  0
LINE
  5
1213
330
310
100
AcDbEntity
  8
Detourage
100
AcDbLine
 10
42.052632
 20
40.224394
 30
0.0
 11
41.733065
 21
41.16581
 31
0.0
  0
LINE
  5
1214
330
310
100
AcDbEntity
  8
Detourage
100
AcDbLine
 10
41.733065
 20
41.16581
 30
0.0
 11
41.293352
 21
42.057459
 31
0.0
  0
LINE
  5
1215
330
310
100
AcDbEntity
  8
Detourage
100
AcDbLine
 10
41.293352
 20
42.057459
 30
0.0
 11
40.741017
 21
42.884087
 31
0.0
  0
LINE
  5
1216
330
310
100
AcDbEntity
  8
Detourage
100
AcDbLine
 10
40.741017
 20
42.884087
 30
0.0
 11
40.085511
 21
43.631548
 31
0.0
  0
LINE
  5
1217
330
310
100
AcDbEntity
  8
Detourage
100
AcDbLine
 10
40.085511
 20
43.631548
 30
0.0
 11
39.33805
 21
44.287054
 31
0.0
  0
LINE
  5
1218
330
310
100
AcDbEntity
  8
Detourage
100
AcDbLine
 10
39.33805
 20
44.287054
 30
0.0
 11
38.511423
 21
44.839389
 31
0.0
  0
LINE
  5
1219
330
310
100
AcDbEntity
  8
Detourage
100
AcDbLine
 10
38.511423
 20
44.839389
 30
0.0
 11
37.619773
 21
45.279102
 31
0.0
  0
LINE
  5
121A
330
310
100
AcDbEntity
  8
Detourage
100
AcDbLine
 10
37.619773
 20
45.279102
 30
0.0
 11
36.678358
 21
45.598669
 31
0.0
  0
LINE
  5
121B
330
310
100
AcDbEntity
  8
Detourage
100
AcDbLine
 10
36.678358
 20
45.598669
 30
0.0
 11
35.703284
 21
45.792623
 31
0.0
  0
LINE
  5
121C
330
310
100
AcDbEntity
  8
Detourage
100
AcDbLine
 10
35.703284
 20
45.792623
 30
0.0
 11
34.711237
 21
45.857645
 31
0.0
  0
LINE
  5
121D
330
310
100
AcDbEntity
  8
Detourage
100
AcDbLine
 10
11.581089
 20
42.057459
 30
0.0
 11
12.140767
 21
42.634314
 31
0.0
  0
LINE
  5
121E
330
310
100
AcDbEntity
  8
Detourage
100
AcDbLine
 10
12.140767
 20
42.634314
 30
0.0
 11
12.739213
 21
43.170844
 31
0.0
  0
LINE
  5
121F
330
310
100
AcDbEntity
  8
Detourage
100
AcDbLine
 10
12.739213
 20
43.170844
 30
0.0
 11
13.373527
 21
43.664451
 31
0.0
  0
LINE
  5
1220
330
310
100
AcDbEntity
  8
Detourage
100
AcDbLine
 10
13.373527
 20
43.664451
 30
0.0
 11
14.040636
 21
44.112744
 31
0.0
  0
LINE
  5
1221
330
310
100
AcDbEntity
  8
Detourage
100
AcDbLine
 10
14.040636
 20
44.112744
 30
0.0
 11
14.73731
 21
44.513552
 31
0.0
  0
LINE
  5
1222
330
310
100
AcDbEntity
  8
Detourage
100
AcDbLine
 10
14.73731
 20
44.513552
 30
0.0
 11
15.460175
 21
44.864933
 31
0.0
  0
LINE
  5
1223
330
310
100
AcDbEntity
  8
Detourage
100
AcDbLine
 10
15.460175
 20
44.864933
 30
0.0
 11
16.205728
 21
45.165185
 31
0.0
  0
LINE
  5
1224
330
310
100
AcDbEntity
  8
Detourage
100
AcDbLine
 10
16.205728
 20
45.165185
 30
0.0
 11
16.97036
 21
45.412855
 31
0.0
  0
LINE
  5
1225
330
310
100
AcDbEntity
  8
Detourage
100
AcDbLine
 10
16.97036
 20
45.412855
 30
0.0
 11
17.750366
 21
45.606742
 31
0.0
  0
LINE
  5
1226
330
310
100
AcDbEntity
  8
Detourage
100
AcDbLine
 10
17.750366
 20
45.606742
 30
0.0
 11
18.541969
 21
45.745907
 31
0.0
  0
LINE
  5
1227
330
310
100
AcDbEntity
  8
Detourage
100
AcDbLine
 10
18.541969
 20
45.745907
 30
0.0
 11
19.341334
 21
45.829677
 31
0.0
  0
LINE
  5
1228
330
310
100
AcDbEntity
  8
Detourage
100
AcDbLine
 10
19.341334
 20
45.829677
 30
0.0
 11
20.144589
 21
45.857645
 31
0.0
  0
LINE
  5
1229
330
310
100
AcDbEntity
  8
Detourage
100
AcDbLine
 10
34.711237
 20
45.857645
 30
0.0
 11
20.144589
 21
45.857645
 31
0.0
  0
LINE
  5
122A
330
310
100
AcDbEntity
  8
Detourage
100
AcDbLine
 10
-4.689119
 20
2.866248
 30
0.0
 11
-4.788392
 21
3.857646
 31
0.0
  0
LINE
  5
122B
330
310
100
AcDbEntity
  8
Detourage
100
AcDbLine
 10
-4.788392
 20
3.857646
 30
0.0
 11
-4.788391
 21
9.157645
 31
0.0
  0
LINE
  5
122C
330
310
100
AcDbEntity
  8
Detourage
100
AcDbLine
 10
-4.788392
 20
28.657645
 30
0.0
 11
-4.788392
 21
32.257646
 31
0.0
  0
LINE
  5
122D
330
310
100
AcDbEntity
  8
Detourage
100
AcDbLine
 10
-4.788392
 20
32.257646
 30
0.0
 11
-4.713604
 21
33.119207
 31
0.0
  0
LINE
  5
122E
330
310
100
AcDbEntity
  8
Detourage
100
AcDbLine
 10
-4.713604
 20
33.119207
 30
0.0
 11
-4.491477
 21
33.954994
 31
0.0
  0
LINE
  5
122F
330
310
100
AcDbEntity
  8
Detourage
100
AcDbLine
 10
-4.491477
 20
33.954994
 30
0.0
 11
-4.128656
 21
34.740004
 31
0.0
  0
LINE
  5
1230
330
310
100
AcDbEntity
  8
Detourage
100
AcDbLine
 10
-4.128656
 20
34.740004
 30
0.0
 11
-3.635996
 21
35.450755
 31
0.0
  0
LINE
  5
1231
330
310
100
AcDbEntity
  8
Detourage
100
AcDbLine
 10
-3.635996
 20
35.450755
 30
0.0
 11
-3.028233
 21
36.065982
 31
0.0
  0
LINE
  5
1232
330
310
100
AcDbEntity
  8
Detourage
100
AcDbLine
 10
-3.028233
 20
36.065982
 30
0.0
 11
-2.32355
 21
36.567283
 31
0.0
  0
LINE
  5
1233
330
310
100
AcDbEntity
  8
Detourage
100
AcDbLine
 10
-2.32355
 20
36.567283
 30
0.0
 11
-1.543028
 21
36.93966
 31
0.0
  0
LINE
  5
1234
330
310
100
AcDbEntity
  8
Detourage
100
AcDbLine
 10
-1.543028
 20
36.93966
 30
0.0
 11
-0.710015
 21
37.171973
 31
0.0
  0
LINE
  5
1235
330
310
100
AcDbEntity
  8
Detourage
100
AcDbLine
 10
-0.710015
 20
37.171973
 30
0.0
 11
0.150569
 21
37.257273
 31
0.0
  0
LINE
  5
1236
330
310
100
AcDbEntity
  8
Detourage
100
AcDbLine
 10
0.150569
 20
37.257273
 30
0.0
 11
4.150569
 21
37.257273
 31
0.0
  0
LINE
  5
1237
330
310
100
AcDbEntity
  8
Detourage
100
AcDbLine
 10
4.150569
 20
37.257273
 30
0.0
 11
5.55143
 21
37.497224
 31
0.0
  0
LINE
  5
1238
330
310
100
AcDbEntity
  8
Detourage
100
AcDbLine
 10
5.55143
 20
37.497224
 30
0.0
 11
6.912987
 21
37.904842
 31
0.0
  0
LINE
  5
1239
330
310
100
AcDbEntity
  8
Detourage
100
AcDbLine
 10
6.912987
 20
37.904842
 30
0.0
 11
8.215249
 21
38.474143
 31
0.0
  0
LINE
  5
123A
330
310
100
AcDbEntity
  8
Detourage
  6
ByBlock
100
AcDbLine
 10
9.174585
 20
3.688128
 30
0.0
 11
24.311609
 21
25.857645
 31
0.0
  0
LINE
  5
123B
330
310
100
AcDbEntity
  8
Detourage
  6
ByBlock
100
AcDbLine
 10
35.811609
 20
22.857645
 30
0.0
 11
38.311609
 21
22.857645
 31
0.0
  0
LINE
  5
123C
330
310
100
AcDbEntity
  8
Detourage
  6
ByBlock
100
AcDbLine
 10
8.215249
 20
38.474143
 30
0.0
 11
11.581089
 21
42.057459
 31
0.0
  0
LINE
  5
123D
330
310
100
AcDbEntity
  8
Detourage
  6
ByBlock
100
AcDbLine
 10
42.311609
 20
26.857645
 30
0.0
 11
42.311609
 21
38.257273
 31
0.0
  0
CIRCLE
  5
123E
330
310
100
AcDbEntity
  8
Detourage
  6
ByBlock
100
AcDbCircle
 10
0.211609
 20
32.257645
 30
0.0
 40
2.05
  0
CIRCLE
  5
123F
330
310
100
AcDbEntity
  8
Detourage
  6
ByBlock
100
AcDbCircle
 10
0.211609
 20
3.857645
 30
0.0
 40
2.05
  0
LINE
  5
1240
330
310
100
AcDbEntity
  8
Detourage
  6
ByBlock
100
AcDbLine
 10
-4.788391
 20
9.157645
 30
0.0
 11
-4.788392
 21
28.657645
 31
0.0
  0
LINE
  5
1241
330
310
100
AcDbEntity
  8
Gravure
  6
ByBlock
100
AcDbLine
 10
16.743097
 20
14.77722
 30
0.0
 11
16.743097
 21
45.262708
 31
0.0
  0
LINE
  5
1242
330
310
100
AcDbEntity
  8
Detourage
100
AcDbLine
 10
63.749152
 20
8.197423
 30
0.0
 11
42.217384
 21
-0.915432
 31
0.0
  0
LINE
  5
1243
330
310
100
AcDbEntity
  8
Detourage
100
AcDbLine
 10
63.749152
 20
8.197423
 30
0.0
 11
64.693214
 21
8.515969
 31
0.0
  0
LINE
  5
1244
330
310
100
AcDbEntity
  8
Detourage
100
AcDbLine
 10
64.693214
 20
8.515969
 30
0.0
 11
65.681692
 21
8.641002
 31
0.0
  0
LINE
  5
1245
330
310
100
AcDbEntity
  8
Detourage
100
AcDbLine
 10
65.681692
 20
8.641002
 30
0.0
 11
66.675337
 21
8.567558
 31
0.0
  0
LINE
  5
1246
330
310
100
AcDbEntity
  8
Detourage
100
AcDbLine
 10
66.675337
 20
8.567558
 30
0.0
 11
67.634691
 21
8.298553
 31
0.0
  0
LINE
  5
1247
330
310
100
AcDbEntity
  8
Detourage
100
AcDbLine
 10
67.634691
 20
8.298553
 30
0.0
 11
68.521659
 21
7.844668
 31
0.0
  0
LINE
  5
1248
330
310
100
AcDbEntity
  8
Detourage
100
AcDbLine
 10
68.521659
 20
7.844668
 30
0.0
 11
69.301021
 21
7.223928
 31
0.0
  0
LINE
  5
1249
330
310
100
AcDbEntity
  8
Detourage
100
AcDbLine
 10
69.301021
 20
7.223928
 30
0.0
 11
69.941829
 21
6.460981
 31
0.0
  0
LINE
  5
124A
330
310
100
AcDbEntity
  8
Detourage
100
AcDbLine
 10
69.941829
 20
6.460981
 30
0.0
 11
70.418638
 21
5.586122
 31
0.0
  0
LINE
  5
124B
330
310
100
AcDbEntity
  8
Detourage
100
AcDbLine
 10
70.418638
 20
5.586122
 30
0.0
 11
70.712513
 21
4.634092
 31
0.0
  0
LINE
  5
124C
330
310
100
AcDbEntity
  8
Detourage
100
AcDbLine
 10
70.712513
 20
4.634092
 30
0.0
 11
70.811785
 21
3.642695
 31
0.0
  0
LINE
  5
124D
330
310
100
AcDbEntity
  8
Detourage
100
AcDbLine
 10
70.811785
 20
-24.757305
 30
0.0
 11
70.736997
 21
-25.618866
 31
0.0
  0
LINE
  5
124E
330
310
100
AcDbEntity
  8
Detourage
100
AcDbLine
 10
70.736997
 20
-25.618866
 30
0.0
 11
70.51487
 21
-26.454653
 31
0.0
  0
LINE
  5
124F
330
310
100
AcDbEntity
  8
Detourage
100
AcDbLine
 10
70.51487
 20
-26.454653
 30
0.0
 11
70.15205
 21
-27.239664
 31
0.0
  0
LINE
  5
1250
330
310
100
AcDbEntity
  8
Detourage
100
AcDbLine
 10
70.15205
 20
-27.239664
 30
0.0
 11
69.659389
 21
-27.950414
 31
0.0
  0
LINE
  5
1251
330
310
100
AcDbEntity
  8
Detourage
100
AcDbLine
 10
69.659389
 20
-27.950414
 30
0.0
 11
69.051627
 21
-28.565642
 31
0.0
  0
LINE
  5
1252
330
310
100
AcDbEntity
  8
Detourage
100
AcDbLine
 10
69.051627
 20
-28.565642
 30
0.0
 11
68.346944
 21
-29.066942
 31
0.0
  0
LINE
  5
1253
330
310
100
AcDbEntity
  8
Detourage
100
AcDbLine
 10
68.346944
 20
-29.066942
 30
0.0
 11
67.566421
 21
-29.439319
 31
0.0
  0
LINE
  5
1254
330
310
100
AcDbEntity
  8
Detourage
100
AcDbLine
 10
67.566421
 20
-29.439319
 30
0.0
 11
66.733408
 21
-29.671633
 31
0.0
  0
LINE
  5
1255
330
310
100
AcDbEntity
  8
Detourage
100
AcDbLine
 10
66.733408
 20
-29.671633
 30
0.0
 11
65.872825
 21
-29.756933
 31
0.0
  0
LINE
  5
1256
330
310
100
AcDbEntity
  8
Detourage
100
AcDbLine
 10
65.872825
 20
-29.756933
 30
0.0
 11
65.010415
 21
-29.692668
 31
0.0
  0
LINE
  5
1257
330
310
100
AcDbEntity
  8
Detourage
100
AcDbLine
 10
65.010415
 20
-29.692668
 30
0.0
 11
64.171979
 21
-29.480761
 31
0.0
  0
LINE
  5
1258
330
310
100
AcDbEntity
  8
Detourage
100
AcDbLine
 10
64.171979
 20
-29.480761
 30
0.0
 11
63.382597
 21
-29.127551
 31
0.0
  0
LINE
  5
1259
330
310
100
AcDbEntity
  8
Detourage
100
AcDbLine
 10
49.610439
 20
-20.01623
 30
0.0
 11
63.382597
 21
-29.127551
 31
0.0
  0
LINE
  5
125A
330
310
100
AcDbEntity
  8
Detourage
100
AcDbLine
 10
49.236688
 20
-19.818705
 30
0.0
 11
49.610439
 21
-20.01623
 31
0.0
  0
LINE
  5
125B
330
310
100
AcDbEntity
  8
Detourage
100
AcDbLine
 10
48.854923
 20
-19.637152
 30
0.0
 11
49.236688
 21
-19.818705
 31
0.0
  0
LINE
  5
125C
330
310
100
AcDbEntity
  8
Detourage
100
AcDbLine
 10
48.465826
 20
-19.471897
 30
0.0
 11
48.854923
 21
-19.637152
 31
0.0
  0
LINE
  5
125D
330
310
100
AcDbEntity
  8
Detourage
100
AcDbLine
 10
48.070093
 20
-19.323234
 30
0.0
 11
48.465826
 21
-19.471897
 31
0.0
  0
LINE
  5
125E
330
310
100
AcDbEntity
  8
Detourage
100
AcDbLine
 10
47.668429
 20
-19.19143
 30
0.0
 11
48.070093
 21
-19.323234
 31
0.0
  0
LINE
  5
125F
330
310
100
AcDbEntity
  8
Detourage
100
AcDbLine
 10
47.261554
 20
-19.076719
 30
0.0
 11
47.668429
 21
-19.19143
 31
0.0
  0
LINE
  5
1260
330
310
100
AcDbEntity
  8
Detourage
100
AcDbLine
 10
46.850195
 20
-18.979306
 30
0.0
 11
47.261554
 21
-19.076719
 31
0.0
  0
LINE
  5
1261
330
310
100
AcDbEntity
  8
Detourage
100
AcDbLine
 10
46.435086
 20
-18.899367
 30
0.0
 11
46.850195
 21
-18.979306
 31
0.0
  0
LINE
  5
1262
330
310
100
AcDbEntity
  8
Detourage
100
AcDbLine
 10
46.016969
 20
-18.837043
 30
0.0
 11
46.435086
 21
-18.899367
 31
0.0
  0
LINE
  5
1263
330
310
100
AcDbEntity
  8
Detourage
100
AcDbLine
 10
45.596592
 20
-18.792447
 30
0.0
 11
46.016969
 21
-18.837043
 31
0.0
  0
LINE
  5
1264
330
310
100
AcDbEntity
  8
Detourage
100
AcDbLine
 10
45.174705
 20
-18.765657
 30
0.0
 11
45.596592
 21
-18.792447
 31
0.0
  0
LINE
  5
1265
330
310
100
AcDbEntity
  8
Detourage
100
AcDbLine
 10
44.752063
 20
-18.756722
 30
0.0
 11
45.174705
 21
-18.765657
 31
0.0
  0
LINE
  5
1266
330
310
100
AcDbEntity
  8
Detourage
100
AcDbLine
 10
39.911784
 20
-18.756722
 30
0.0
 11
44.752063
 21
-18.756722
 31
0.0
  0
LINE
  5
1267
330
310
100
AcDbEntity
  8
Detourage
100
AcDbLine
 10
34.911784
 20
-13.756722
 30
0.0
 11
34.911784
 21
-9.672017
 31
0.0
  0
LINE
  5
1268
330
310
100
AcDbEntity
  8
Detourage
100
AcDbLine
 10
34.911784
 20
-9.672017
 30
0.0
 11
34.931121
 21
-9.050446
 31
0.0
  0
LINE
  5
1269
330
310
100
AcDbEntity
  8
Detourage
100
AcDbLine
 10
34.931121
 20
-9.050446
 30
0.0
 11
34.989054
 21
-8.431279
 31
0.0
  0
LINE
  5
126A
330
310
100
AcDbEntity
  8
Detourage
100
AcDbLine
 10
34.989054
 20
-8.431279
 30
0.0
 11
35.085362
 21
-7.81691
 31
0.0
  0
LINE
  5
126B
330
310
100
AcDbEntity
  8
Detourage
100
AcDbLine
 10
35.085362
 20
-7.81691
 30
0.0
 11
35.21967
 21
-7.209716
 31
0.0
  0
LINE
  5
126C
330
310
100
AcDbEntity
  8
Detourage
100
AcDbLine
 10
35.21967
 20
-7.209716
 30
0.0
 11
35.391461
 21
-6.612043
 31
0.0
  0
LINE
  5
126D
330
310
100
AcDbEntity
  8
Detourage
100
AcDbLine
 10
36.276195
 20
-5.39715
 30
0.0
 11
35.391461
 21
-6.612043
 31
0.0
  0
LINE
  5
126E
330
310
100
AcDbEntity
  8
Detourage
100
AcDbLine
 10
37.275961
 20
-4.275015
 30
0.0
 11
36.276195
 21
-5.39715
 31
0.0
  0
LINE
  5
126F
330
310
100
AcDbEntity
  8
Detourage
100
AcDbLine
 10
38.381093
 20
-3.256486
 30
0.0
 11
37.275961
 21
-4.275015
 31
0.0
  0
LINE
  5
1270
330
310
100
AcDbEntity
  8
Detourage
100
AcDbLine
 10
39.580908
 20
-2.351409
 30
0.0
 11
38.381093
 21
-3.256486
 31
0.0
  0
LINE
  5
1271
330
310
100
AcDbEntity
  8
Detourage
100
AcDbLine
 10
40.863806
 20
-1.568535
 30
0.0
 11
39.580908
 21
-2.351409
 31
0.0
  0
LINE
  5
1272
330
310
100
AcDbEntity
  8
Detourage
100
AcDbLine
 10
42.217384
 20
-0.915432
 30
0.0
 11
40.863806
 21
-1.568535
 31
0.0
  0
CIRCLE
  5
1273
330
310
100
AcDbEntity
  8
Detourage
  6
ByBlock
100
AcDbCircle
 10
52.411784
 20
-11.756722
 30
0.0
 40
1.550000145300939
  0
CIRCLE
  5
1274
330
310
100
AcDbEntity
  8
Detourage
  6
ByBlock
100
AcDbCircle
 10
41.011784
 20
-11.756722
 30
0.0
 40
1.549999904120018
  0
CIRCLE
  5
1275
330
310
100
AcDbEntity
  8
Detourage
  6
ByBlock
100
AcDbCircle
 10
65.811785
 20
-24.757305
 30
0.0
 40
2.05
  0
CIRCLE
  5
1276
330
310
100
AcDbEntity
  8
Detourage
  6
ByBlock
100
AcDbCircle
 10
65.811784
 20
3.642695
 30
0.0
 40
2.05
  0
ARC
  5
1277
330
310
100
AcDbEntity
  8
Detourage
100
AcDbCircle
 10
39.911784
 20
-13.756722
 30
0.0
 40
4.999999999999901
100
AcDbArc
 50
180.0
 51
270.0
1001
MCSXDATA5
1071
      167
1004
06000000000000008B0000001C000000E404000000000000000000001F050A025C020509020FEE020C4D43535F46494C4C45545F3109020FEE020C4D43535F46494C4C45545F3209020FEE020C4D43535F46494C4C45545F3309020FEE020C4D43535F46494C4C45545F3409020FEE020C4D43535F46494C4C45545F351202
1004
2602050201030201030202020103020326020502010302012202010302010302010201030201221A
  0
LINE
  5
1278
330
310
100
AcDbEntity
  8
Detourage
  6
ByBlock
100
AcDbLine
 10
70.811785
 20
-24.757305
 30
0.0
 11
70.811785
 21
3.642695
 31
0.0
  0
LINE
  5
1279
330
310
100
AcDbEntity
  8
Detourage
100
AcDbLine
 10
35.945853
 20
-54.323398
 30
0.000006
 11
35.99495
 21
-50.923752
 31
0.000006
  0
LINE
  5
127A
330
310
100
AcDbEntity
  8
Detourage
100
AcDbLine
 10
48.993595
 20
-51.111477
 30
0.000006
 11
35.99495
 21
-50.923752
 31
0.000006
  0
LINE
  5
127B
330
310
100
AcDbEntity
  8
Detourage
100
AcDbLine
 10
48.944498
 20
-54.511123
 30
0.000006
 11
48.993595
 21
-51.111477
 31
0.000006
  0
LINE
  5
127C
330
310
100
AcDbEntity
  8
Detourage
100
AcDbLine
 10
48.944498
 20
-54.511123
 30
0.000006
 11
35.945853
 21
-54.323398
 31
0.000006
  0
LINE
  5
127D
330
310
100
AcDbEntity
  8
Gravure
100
AcDbLine
 10
55.211144
 20
-57.205161
 30
0.000001
 11
55.18366
 21
-51.825288
 31
0.000003
  0
LINE
  5
127E
330
310
100
AcDbEntity
  8
Gravure
100
AcDbLine
 10
51.476892
 20
-47.020955
 30
0.000003
 11
32.767091
 21
-42.011528
 31
0.000003
  0
LINE
  5
127F
330
310
100
AcDbEntity
  8
Detourage
100
AcDbLine
 10
36.960679
 20
-34.016118
 30
0.000006
 11
37.342787
 21
-33.485317
 31
0.000006
  0
LINE
  5
1280
330
310
100
AcDbEntity
  8
Detourage
100
AcDbLine
 10
29.488532
 20
-46.729383
 30
0.000006
 11
29.385977
 21
-46.886847
 31
0.000006
  0
LINE
  5
1281
330
310
100
AcDbEntity
  8
Detourage
100
AcDbLine
 10
29.385977
 20
-46.886847
 30
0.000006
 11
29.277578
 21
-47.040348
 31
0.000006
  0
LINE
  5
1282
330
310
100
AcDbEntity
  8
Detourage
100
AcDbLine
 10
29.277578
 20
-47.040348
 30
0.000006
 11
29.163486
 21
-47.189666
 31
0.000006
  0
LINE
  5
1283
330
310
100
AcDbEntity
  8
Detourage
100
AcDbLine
 10
29.163486
 20
-47.189666
 30
0.000006
 11
29.043865
 21
-47.334591
 31
0.000006
  0
LINE
  5
1284
330
310
100
AcDbEntity
  8
Detourage
100
AcDbLine
 10
29.043865
 20
-47.334591
 30
0.000006
 11
28.918882
 21
-47.47492
 31
0.000006
  0
LINE
  5
1285
330
310
100
AcDbEntity
  8
Detourage
100
AcDbLine
 10
28.918882
 20
-47.47492
 30
0.000006
 11
28.788715
 21
-47.610452
 31
0.000006
  0
LINE
  5
1286
330
310
100
AcDbEntity
  8
Detourage
100
AcDbLine
 10
28.788715
 20
-47.610452
 30
0.000006
 11
28.653546
 21
-47.740998
 31
0.000006
  0
LINE
  5
1287
330
310
100
AcDbEntity
  8
Detourage
100
AcDbLine
 10
28.653546
 20
-47.740998
 30
0.000006
 11
28.513567
 21
-47.866373
 31
0.000006
  0
LINE
  5
1288
330
310
100
AcDbEntity
  8
Detourage
100
AcDbLine
 10
28.513567
 20
-47.866373
 30
0.000006
 11
28.368977
 21
-47.986398
 31
0.000006
  0
LINE
  5
1289
330
310
100
AcDbEntity
  8
Detourage
100
AcDbLine
 10
28.368977
 20
-47.986398
 30
0.000006
 11
28.219978
 21
-48.100907
 31
0.000006
  0
LINE
  5
128A
330
310
100
AcDbEntity
  8
Detourage
100
AcDbLine
 10
28.219978
 20
-48.100907
 30
0.000006
 11
28.066782
 21
-48.209734
 31
0.000006
  0
LINE
  5
128B
330
310
100
AcDbEntity
  8
Detourage
100
AcDbLine
 10
28.066782
 20
-48.209734
 30
0.000006
 11
27.909604
 21
-48.312728
 31
0.000006
  0
LINE
  5
128C
330
310
100
AcDbEntity
  8
Detourage
100
AcDbLine
 10
26.981585
 20
-49.06474
 30
0.000006
 11
27.909604
 21
-48.312728
 31
0.000006
  0
LINE
  5
128D
330
310
100
AcDbEntity
  8
Detourage
100
AcDbLine
 10
26.25841
 20
-50.015401
 30
0.000006
 11
26.981585
 21
-49.06474
 31
0.000006
  0
LINE
  5
128E
330
310
100
AcDbEntity
  8
Detourage
100
AcDbLine
 10
26.05593
 20
-50.480182
 30
0.000006
 11
26.25841
 21
-50.015401
 31
0.000006
  0
LINE
  5
128F
330
310
100
AcDbEntity
  8
Detourage
100
AcDbLine
 10
25.791528
 20
-51.087103
 30
0.000006
 11
26.05593
 21
-50.480182
 31
0.000006
  0
LINE
  5
1290
330
310
100
AcDbEntity
  8
Detourage
100
AcDbLine
 10
25.781351
 20
-51.110461
 30
0.000006
 11
25.791528
 21
-51.087103
 31
0.000006
  0
LINE
  5
1291
330
310
100
AcDbEntity
  8
Detourage
100
AcDbLine
 10
25.577634
 20
-52.287423
 30
0.000006
 11
25.781351
 21
-51.110461
 31
0.000006
  0
LINE
  5
1292
330
310
100
AcDbEntity
  8
Detourage
100
AcDbLine
 10
25.658883
 20
-53.479118
 30
0.000006
 11
25.577634
 21
-52.287423
 31
0.000006
  0
LINE
  5
1293
330
310
100
AcDbEntity
  8
Detourage
100
AcDbLine
 10
25.752715
 20
-53.774545
 30
0.000006
 11
25.658883
 21
-53.479118
 31
0.000006
  0
LINE
  5
1294
330
310
100
AcDbEntity
  8
Detourage
100
AcDbLine
 10
25.976605
 20
-54.479454
 30
0.000006
 11
25.752715
 21
-53.774545
 31
0.000006
  0
LINE
  5
1295
330
310
100
AcDbEntity
  8
Detourage
100
AcDbLine
 10
26.020463
 20
-54.617538
 30
0.000006
 11
25.976605
 21
-54.479454
 31
0.000006
  0
LINE
  5
1296
330
310
100
AcDbEntity
  8
Detourage
100
AcDbLine
 10
26.641738
 20
-55.637713
 30
0.000006
 11
26.020463
 21
-54.617538
 31
0.000006
  0
LINE
  5
1297
330
310
100
AcDbEntity
  8
Detourage
100
AcDbLine
 10
27.487253
 20
-56.481422
 30
0.000006
 11
26.641738
 21
-55.637713
 31
0.000006
  0
LINE
  5
1298
330
310
100
AcDbEntity
  8
Detourage
100
AcDbLine
 10
28.508753
 20
-57.100514
 30
0.000006
 11
27.487253
 21
-56.481422
 31
0.000006
  0
LINE
  5
1299
330
310
100
AcDbEntity
  8
Detourage
100
AcDbLine
 10
29.647944
 20
-57.459661
 30
0.000006
 11
28.508753
 21
-57.100514
 31
0.000006
  0
LINE
  5
129A
330
310
100
AcDbEntity
  8
Detourage
100
AcDbLine
 10
30.83981
 20
-57.538363
 30
0.000006
 11
29.647944
 21
-57.459661
 31
0.000006
  0
LINE
  5
129B
330
310
100
AcDbEntity
  8
Detourage
100
AcDbLine
 10
32.016334
 20
-57.33213
 30
0.000006
 11
30.83981
 21
-57.538363
 31
0.000006
  0
LINE
  5
129C
330
310
100
AcDbEntity
  8
Detourage
100
AcDbLine
 10
32.016334
 20
-57.33213
 30
0.000006
 11
32.203511
 21
-57.279557
 31
0.000006
  0
LINE
  5
129D
330
310
100
AcDbEntity
  8
Detourage
100
AcDbLine
 10
32.203511
 20
-57.279557
 30
0.000006
 11
32.392593
 21
-57.2343
 31
0.000006
  0
LINE
  5
129E
330
310
100
AcDbEntity
  8
Detourage
100
AcDbLine
 10
32.392593
 20
-57.2343
 30
0.000006
 11
32.58329
 21
-57.196429
 31
0.000006
  0
LINE
  5
129F
330
310
100
AcDbEntity
  8
Detourage
100
AcDbLine
 10
32.58329
 20
-57.196429
 30
0.000006
 11
32.775315
 21
-57.166001
 31
0.000006
  0
LINE
  5
12A0
330
310
100
AcDbEntity
  8
Detourage
100
AcDbLine
 10
32.775315
 20
-57.166001
 30
0.000006
 11
32.968377
 21
-57.14306
 31
0.000006
  0
LINE
  5
12A1
330
310
100
AcDbEntity
  8
Detourage
100
AcDbLine
 10
32.968377
 20
-57.14306
 30
0.000006
 11
33.162186
 21
-57.127642
 31
0.000006
  0
LINE
  5
12A2
330
310
100
AcDbEntity
  8
Detourage
100
AcDbLine
 10
33.162186
 20
-57.127642
 30
0.000006
 11
33.356447
 21
-57.119771
 31
0.000006
  0
LINE
  5
12A3
330
310
100
AcDbEntity
  8
Detourage
100
AcDbLine
 10
33.356447
 20
-57.119771
 30
0.000006
 11
33.550869
 21
-57.119458
 31
0.000006
  0
LINE
  5
12A4
330
310
100
AcDbEntity
  8
Detourage
100
AcDbLine
 10
33.550869
 20
-57.119458
 30
0.000006
 11
33.745155
 21
-57.126704
 31
0.000006
  0
LINE
  5
12A5
330
310
100
AcDbEntity
  8
Detourage
100
AcDbLine
 10
33.745155
 20
-57.126704
 30
0.000006
 11
33.939013
 21
-57.141498
 31
0.000006
  0
LINE
  5
12A6
330
310
100
AcDbEntity
  8
Detourage
100
AcDbLine
 10
33.939013
 20
-57.141498
 30
0.000006
 11
34.132148
 21
-57.163818
 31
0.000006
  0
LINE
  5
12A7
330
310
100
AcDbEntity
  8
Detourage
100
AcDbLine
 10
34.132148
 20
-57.163818
 30
0.000006
 11
34.32427
 21
-57.193627
 31
0.000006
  0
LINE
  5
12A8
330
310
100
AcDbEntity
  8
Detourage
100
AcDbLine
 10
44.002438
 20
-57.947791
 30
0.000003
 11
34.32427
 21
-57.193627
 31
0.000006
  0
LINE
  5
12A9
330
310
100
AcDbEntity
  8
Detourage
100
AcDbLine
 10
43.274352
 20
-32.115796
 30
0.000006
 11
43.850487
 21
-32.425351
 31
0.000006
  0
LINE
  5
12AA
330
310
100
AcDbEntity
  8
Detourage
100
AcDbLine
 10
42.662741
 20
-31.884089
 30
0.000006
 11
43.274352
 21
-32.115796
 31
0.000006
  0
LINE
  5
12AB
330
310
100
AcDbEntity
  8
Detourage
100
AcDbLine
 10
42.026117
 20
-31.734197
 30
0.000006
 11
42.662741
 21
-31.884089
 31
0.000006
  0
LINE
  5
12AC
330
310
100
AcDbEntity
  8
Detourage
100
AcDbLine
 10
41.375375
 20
-31.668682
 30
0.000006
 11
42.026117
 21
-31.734197
 31
0.000006
  0
LINE
  5
12AD
330
310
100
AcDbEntity
  8
Detourage
100
AcDbLine
 10
40.721649
 20
-31.688667
 30
0.000006
 11
41.375375
 21
-31.668682
 31
0.000006
  0
LINE
  5
12AE
330
310
100
AcDbEntity
  8
Detourage
100
AcDbLine
 10
40.076125
 20
-31.793809
 30
0.000006
 11
40.721649
 21
-31.688667
 31
0.000006
  0
LINE
  5
12AF
330
310
100
AcDbEntity
  8
Detourage
100
AcDbLine
 10
39.449846
 20
-31.98231
 30
0.000006
 11
40.076125
 21
-31.793809
 31
0.000006
  0
LINE
  5
12B0
330
310
100
AcDbEntity
  8
Detourage
100
AcDbLine
 10
38.853531
 20
-32.250943
 30
0.000006
 11
39.449846
 21
-31.98231
 31
0.000006
  0
LINE
  5
12B1
330
310
100
AcDbEntity
  8
Detourage
100
AcDbLine
 10
38.297379
 20
-32.595114
 30
0.000006
 11
38.853531
 21
-32.250943
 31
0.000006
  0
LINE
  5
12B2
330
310
100
AcDbEntity
  8
Detourage
100
AcDbLine
 10
37.79091
 20
-33.008932
 30
0.000006
 11
38.297379
 21
-32.595114
 31
0.000006
  0
LINE
  5
12B3
330
310
100
AcDbEntity
  8
Detourage
100
AcDbLine
 10
37.342787
 20
-33.485317
 30
0.000006
 11
37.79091
 21
-33.008932
 31
0.000006
  0
LINE
  5
12B4
330
310
100
AcDbEntity
  8
Detourage
100
AcDbLine
 10
36.960679
 20
-34.016118
 30
0.000006
 11
36.226729
 21
-35.190731
 31
0.000006
  0
LINE
  5
12B5
330
310
100
AcDbEntity
  8
Detourage
100
AcDbLine
 10
36.226729
 20
-35.190731
 30
0.000006
 11
33.553301
 21
-40.224134
 31
0.000006
  0
LINE
  5
12B6
330
310
100
AcDbEntity
  8
Detourage
100
AcDbLine
 10
33.553301
 20
-40.224134
 30
0.000006
 11
33.253184
 21
-40.70444
 31
0.000006
  0
LINE
  5
12B7
330
310
100
AcDbEntity
  8
Detourage
100
AcDbLine
 10
66.410645
 20
-56.586745
 30
0.000006
 11
56.707598
 21
-57.521217
 31
0.000005
  0
LINE
  5
12B8
330
310
100
AcDbEntity
  8
Detourage
100
AcDbLine
 10
66.410645
 20
-56.586745
 30
0.000006
 11
67.63324
 21
-56.129611
 31
0.000006
  0
LINE
  5
12B9
330
310
100
AcDbEntity
  8
Detourage
100
AcDbLine
 10
67.63324
 20
-56.129611
 30
0.000006
 11
68.69586
 21
-55.371623
 31
0.000006
  0
LINE
  5
12BA
330
310
100
AcDbEntity
  8
Detourage
100
AcDbLine
 10
68.69586
 20
-55.371623
 30
0.000006
 11
69.526091
 21
-54.364436
 31
0.000006
  0
LINE
  5
12BB
330
310
100
AcDbEntity
  8
Detourage
100
AcDbLine
 10
69.526091
 20
-54.364436
 30
0.000006
 11
70.067353
 21
-53.176688
 31
0.000006
  0
LINE
  5
12BC
330
310
100
AcDbEntity
  8
Detourage
100
AcDbLine
 10
70.067353
 20
-53.176688
 30
0.000006
 11
70.28276
 21
-51.889324
 31
0.000006
  0
LINE
  5
12BD
330
310
100
AcDbEntity
  8
Detourage
100
AcDbLine
 10
70.28276
 20
-51.889324
 30
0.000006
 11
70.157633
 21
-50.590073
 31
0.000006
  0
LINE
  5
12BE
330
310
100
AcDbEntity
  8
Detourage
100
AcDbLine
 10
70.157633
 20
-50.590073
 30
0.000006
 11
69.700498
 21
-49.367479
 31
0.000006
  0
LINE
  5
12BF
330
310
100
AcDbEntity
  8
Detourage
100
AcDbLine
 10
69.700498
 20
-49.367479
 30
0.000006
 11
68.94251
 21
-48.304858
 31
0.000006
  0
LINE
  5
12C0
330
310
100
AcDbEntity
  8
Detourage
100
AcDbLine
 10
68.94251
 20
-48.304858
 30
0.000006
 11
67.935323
 21
-47.474628
 31
0.000006
  0
LINE
  5
12C1
330
310
100
AcDbEntity
  8
Detourage
100
AcDbLine
 10
56.707598
 20
-57.521217
 30
0.000005
 11
53.908938
 21
-57.790748
 31
0.000004
  0
LINE
  5
12C2
330
310
100
AcDbEntity
  8
Detourage
100
AcDbLine
 10
53.908938
 20
-57.790748
 30
0.000004
 11
44.002438
 21
-57.947791
 31
0.000003
  0
LINE
  5
12C3
330
310
100
AcDbEntity
  8
Detourage
100
AcDbLine
 10
33.253184
 20
-40.70444
 30
0.000006
 11
31.701576
 21
-43.187631
 31
0.000006
  0
LINE
  5
12C4
330
310
100
AcDbEntity
  8
Detourage
100
AcDbLine
 10
31.701576
 20
-43.187631
 30
0.000006
 11
29.488532
 21
-46.729383
 31
0.000006
  0
CIRCLE
  5
12C5
330
310
100
AcDbEntity
  8
Detourage
  6
ByBlock
100
AcDbCircle
 10
41.200968
 20
-36.665639
 30
0.000006
 40
2.05
  0
CIRCLE
  5
12C6
330
310
100
AcDbEntity
  8
Detourage
  6
ByBlock
100
AcDbCircle
 10
65.285803
 20
-51.714915
 30
0.000008
 40
2.05
  0
CIRCLE
  5
12C7
330
310
100
AcDbEntity
  8
Detourage
  6
ByBlock
100
AcDbCircle
 10
30.570964
 20
-52.545596
 30
0.000006
 40
2.949999734152551
  0
LINE
  5
12C8
330
310
100
AcDbEntity
  8
Gravure
  6
ByBlock
100
AcDbLine
 10
51.476892
 20
-47.020955
 30
0.000003
 11
54.275733
 21
-48.769795
 31
0.000003
  0
LINE
  5
12C9
330
310
100
AcDbEntity
  8
Gravure
  6
ByBlock
100
AcDbLine
 10
54.275733
 20
-48.769795
 30
0.000003
 11
55.18366
 21
-51.825288
 31
0.000003
  0
LINE
  5
12CA
330
310
100
AcDbEntity
  8
Detourage
  6
ByBlock
100
AcDbLine
 10
67.935323
 20
-47.474628
 30
0.000006
 11
43.850487
 21
-32.425351
 31
0.000006
  0
LINE
  5
12CB
330
310
100
AcDbEntity
  8
Detourage
100
AcDbLine
 10
5.727963
 20
-48.224575
 30
0.0
 11
6.498955
 21
-48.716274
 31
0.0
  0
LINE
  5
12CC
330
310
100
AcDbEntity
  8
Detourage
100
AcDbLine
 10
4.501242
 20
-47.612018
 30
0.0
 11
5.727963
 21
-48.224575
 31
0.0
  0
LINE
  5
12CD
330
310
100
AcDbEntity
  8
Detourage
100
AcDbLine
 10
1.919689
 20
-46.519431
 30
0.0
 11
4.501242
 21
-47.612018
 31
0.0
  0
LINE
  5
12CE
330
310
100
AcDbEntity
  8
Detourage
100
AcDbLine
 10
1.919689
 20
-46.519431
 30
0.0
 11
0.975627
 21
-46.200885
 31
0.0
  0
LINE
  5
12CF
330
310
100
AcDbEntity
  8
Detourage
100
AcDbLine
 10
0.975627
 20
-46.200885
 30
0.0
 11
-0.012852
 21
-46.075852
 31
0.0
  0
LINE
  5
12D0
330
310
100
AcDbEntity
  8
Detourage
100
AcDbLine
 10
-0.012852
 20
-46.075852
 30
0.0
 11
-1.006496
 21
-46.149296
 31
0.0
  0
LINE
  5
12D1
330
310
100
AcDbEntity
  8
Detourage
100
AcDbLine
 10
-1.006496
 20
-46.149296
 30
0.0
 11
-1.96585
 21
-46.418301
 31
0.0
  0
LINE
  5
12D2
330
310
100
AcDbEntity
  8
Detourage
100
AcDbLine
 10
-1.96585
 20
-46.418301
 30
0.0
 11
-2.852818
 21
-46.872185
 31
0.0
  0
LINE
  5
12D3
330
310
100
AcDbEntity
  8
Detourage
100
AcDbLine
 10
-2.852818
 20
-46.872185
 30
0.0
 11
-3.63218
 21
-47.492926
 31
0.0
  0
LINE
  5
12D4
330
310
100
AcDbEntity
  8
Detourage
100
AcDbLine
 10
-3.63218
 20
-47.492926
 30
0.0
 11
-4.272988
 21
-48.255873
 31
0.0
  0
LINE
  5
12D5
330
310
100
AcDbEntity
  8
Detourage
100
AcDbLine
 10
-4.272988
 20
-48.255873
 30
0.0
 11
-4.749797
 21
-49.130732
 31
0.0
  0
LINE
  5
12D6
330
310
100
AcDbEntity
  8
Detourage
100
AcDbLine
 10
-4.749797
 20
-49.130732
 30
0.0
 11
-5.043672
 21
-50.082762
 31
0.0
  0
LINE
  5
12D7
330
310
100
AcDbEntity
  8
Detourage
100
AcDbLine
 10
-5.142944
 20
-79.474159
 30
0.0
 11
-5.068156
 21
-80.33572
 31
0.0
  0
LINE
  5
12D8
330
310
100
AcDbEntity
  8
Detourage
100
AcDbLine
 10
-5.142944
 20
-51.074159
 30
0.0
 11
-5.142944
 21
-56.374159
 31
0.0
  0
LINE
  5
12D9
330
310
100
AcDbEntity
  8
Detourage
100
AcDbLine
 10
-5.043672
 20
-50.082762
 30
0.0
 11
-5.142944
 21
-51.074159
 31
0.0
  0
LINE
  5
12DA
330
310
100
AcDbEntity
  8
Detourage
100
AcDbLine
 10
-4.846029
 20
-81.171507
 30
0.0
 11
-4.483209
 21
-81.956518
 31
0.0
  0
LINE
  5
12DB
330
310
100
AcDbEntity
  8
Detourage
100
AcDbLine
 10
-4.483209
 20
-81.956518
 30
0.0
 11
-3.990548
 21
-82.667268
 31
0.0
  0
LINE
  5
12DC
330
310
100
AcDbEntity
  8
Detourage
100
AcDbLine
 10
-5.068156
 20
-80.33572
 30
0.0
 11
-4.846029
 21
-81.171507
 31
0.0
  0
LINE
  5
12DD
330
310
100
AcDbEntity
  8
Detourage
100
AcDbLine
 10
-3.990548
 20
-82.667268
 30
0.0
 11
-3.382786
 21
-83.282496
 31
0.0
  0
LINE
  5
12DE
330
310
100
AcDbEntity
  8
Detourage
100
AcDbLine
 10
-3.382786
 20
-83.282496
 30
0.0
 11
-2.678103
 21
-83.783796
 31
0.0
  0
LINE
  5
12DF
330
310
100
AcDbEntity
  8
Detourage
100
AcDbLine
 10
-2.678103
 20
-83.783796
 30
0.0
 11
-1.89758
 21
-84.156173
 31
0.0
  0
LINE
  5
12E0
330
310
100
AcDbEntity
  8
Detourage
100
AcDbLine
 10
-1.89758
 20
-84.156173
 30
0.0
 11
-1.064567
 21
-84.388487
 31
0.0
  0
LINE
  5
12E1
330
310
100
AcDbEntity
  8
Detourage
100
AcDbLine
 10
-1.064567
 20
-84.388487
 30
0.0
 11
-0.203984
 21
-84.473787
 31
0.0
  0
LINE
  5
12E2
330
310
100
AcDbEntity
  8
Detourage
100
AcDbLine
 10
-0.203984
 20
-84.473787
 30
0.0
 11
3.796016
 21
-84.473787
 31
0.0
  0
LINE
  5
12E3
330
310
100
AcDbEntity
  8
Detourage
100
AcDbLine
 10
3.796016
 20
-84.473787
 30
0.0
 11
5.196878
 21
-84.713738
 31
0.0
  0
LINE
  5
12E4
330
310
100
AcDbEntity
  8
Detourage
100
AcDbLine
 10
5.196878
 20
-84.713738
 30
0.0
 11
6.558435
 21
-85.121356
 31
0.0
  0
LINE
  5
12E5
330
310
100
AcDbEntity
  8
Detourage
100
AcDbLine
 10
6.558435
 20
-85.121356
 30
0.0
 11
7.860696
 21
-85.690657
 31
0.0
  0
LINE
  5
12E6
330
310
100
AcDbEntity
  8
Detourage
100
AcDbLine
 10
-5.142944
 20
-75.874159
 30
0.0
 11
-5.142944
 21
-79.474159
 31
0.0
  0
LINE
  5
12E7
330
310
100
AcDbEntity
  8
Detourage
100
AcDbLine
 10
6.498955
 20
-48.716274
 30
0.0
 11
7.226157
 21
-49.270689
 31
0.0
  0
LINE
  5
12E8
330
310
100
AcDbEntity
  8
Detourage
100
AcDbLine
 10
7.226157
 20
-49.270689
 30
0.0
 11
8.223813
 21
-50.211303
 31
0.0
  0
LINE
  5
12E9
330
310
100
AcDbEntity
  8
Detourage
100
AcDbLine
 10
8.223813
 20
-50.211303
 30
0.0
 11
8.820033
 21
-50.904641
 31
0.0
  0
LINE
  5
12EA
330
310
100
AcDbEntity
  8
Detourage
100
AcDbLine
 10
28.957056
 20
-83.074159
 30
0.0
 11
23.957056
 21
-73.074159
 31
0.0
  0
LINE
  5
12EB
330
310
100
AcDbEntity
  8
Detourage
100
AcDbLine
 10
28.957056
 20
-83.074159
 30
0.0
 11
35.457056
 21
-70.074159
 31
0.0
  0
LINE
  5
12EC
330
310
100
AcDbEntity
  8
Detourage
100
AcDbLine
 10
37.957056
 20
-70.074159
 30
0.0
 11
38.479161
 21
-70.108379
 31
0.0
  0
LINE
  5
12ED
330
310
100
AcDbEntity
  8
Detourage
100
AcDbLine
 10
38.479161
 20
-70.108379
 30
0.0
 11
38.992332
 21
-70.210456
 31
0.0
  0
LINE
  5
12EE
330
310
100
AcDbEntity
  8
Detourage
100
AcDbLine
 10
38.992332
 20
-70.210456
 30
0.0
 11
39.48779
 21
-70.378641
 31
0.0
  0
LINE
  5
12EF
330
310
100
AcDbEntity
  8
Detourage
100
AcDbLine
 10
39.48779
 20
-70.378641
 30
0.0
 11
39.957056
 21
-70.610057
 31
0.0
  0
LINE
  5
12F0
330
310
100
AcDbEntity
  8
Detourage
100
AcDbLine
 10
39.957056
 20
-70.610057
 30
0.0
 11
40.392102
 21
-70.900745
 31
0.0
  0
LINE
  5
12F1
330
310
100
AcDbEntity
  8
Detourage
100
AcDbLine
 10
40.392102
 20
-70.900745
 30
0.0
 11
40.785483
 21
-71.245732
 31
0.0
  0
LINE
  5
12F2
330
310
100
AcDbEntity
  8
Detourage
100
AcDbLine
 10
40.785483
 20
-71.245732
 30
0.0
 11
41.130469
 21
-71.639113
 31
0.0
  0
LINE
  5
12F3
330
310
100
AcDbEntity
  8
Detourage
100
AcDbLine
 10
41.130469
 20
-71.639113
 30
0.0
 11
41.421158
 21
-72.074159
 31
0.0
  0
LINE
  5
12F4
330
310
100
AcDbEntity
  8
Detourage
100
AcDbLine
 10
41.421158
 20
-72.074159
 30
0.0
 11
41.652574
 21
-72.543425
 31
0.0
  0
LINE
  5
12F5
330
310
100
AcDbEntity
  8
Detourage
100
AcDbLine
 10
41.652574
 20
-72.543425
 30
0.0
 11
41.820759
 21
-73.038883
 31
0.0
  0
LINE
  5
12F6
330
310
100
AcDbEntity
  8
Detourage
100
AcDbLine
 10
41.820759
 20
-73.038883
 30
0.0
 11
41.922835
 21
-73.552054
 31
0.0
  0
LINE
  5
12F7
330
310
100
AcDbEntity
  8
Detourage
100
AcDbLine
 10
41.922835
 20
-73.552054
 30
0.0
 11
41.957056
 21
-74.074159
 31
0.0
  0
LINE
  5
12F8
330
310
100
AcDbEntity
  8
Detourage
100
AcDbLine
 10
41.957056
 20
-85.473787
 30
0.0
 11
41.892034
 21
-86.465834
 31
0.0
  0
LINE
  5
12F9
330
310
100
AcDbEntity
  8
Detourage
100
AcDbLine
 10
41.892034
 20
-86.465834
 30
0.0
 11
41.69808
 21
-87.440908
 31
0.0
  0
LINE
  5
12FA
330
310
100
AcDbEntity
  8
Detourage
100
AcDbLine
 10
41.69808
 20
-87.440908
 30
0.0
 11
41.378512
 21
-88.382323
 31
0.0
  0
LINE
  5
12FB
330
310
100
AcDbEntity
  8
Detourage
100
AcDbLine
 10
41.378512
 20
-88.382323
 30
0.0
 11
40.938799
 21
-89.273973
 31
0.0
  0
LINE
  5
12FC
330
310
100
AcDbEntity
  8
Detourage
100
AcDbLine
 10
40.938799
 20
-89.273973
 30
0.0
 11
40.386464
 21
-90.1006
 31
0.0
  0
LINE
  5
12FD
330
310
100
AcDbEntity
  8
Detourage
100
AcDbLine
 10
40.386464
 20
-90.1006
 30
0.0
 11
39.730959
 21
-90.848061
 31
0.0
  0
LINE
  5
12FE
330
310
100
AcDbEntity
  8
Detourage
100
AcDbLine
 10
39.730959
 20
-90.848061
 30
0.0
 11
38.983497
 21
-91.503567
 31
0.0
  0
LINE
  5
12FF
330
310
100
AcDbEntity
  8
Detourage
100
AcDbLine
 10
38.983497
 20
-91.503567
 30
0.0
 11
38.15687
 21
-92.055902
 31
0.0
  0
LINE
  5
1300
330
310
100
AcDbEntity
  8
Detourage
100
AcDbLine
 10
38.15687
 20
-92.055902
 30
0.0
 11
37.26522
 21
-92.495615
 31
0.0
  0
LINE
  5
1301
330
310
100
AcDbEntity
  8
Detourage
100
AcDbLine
 10
37.26522
 20
-92.495615
 30
0.0
 11
36.323805
 21
-92.815182
 31
0.0
  0
LINE
  5
1302
330
310
100
AcDbEntity
  8
Detourage
100
AcDbLine
 10
36.323805
 20
-92.815182
 30
0.0
 11
35.348732
 21
-93.009137
 31
0.0
  0
LINE
  5
1303
330
310
100
AcDbEntity
  8
Detourage
100
AcDbLine
 10
35.348732
 20
-93.009137
 30
0.0
 11
34.356684
 21
-93.074159
 31
0.0
  0
LINE
  5
1304
330
310
100
AcDbEntity
  8
Detourage
100
AcDbLine
 10
34.356684
 20
-93.074159
 30
0.0
 11
19.790037
 21
-93.074159
 31
0.0
  0
LINE
  5
1305
330
310
100
AcDbEntity
  8
Detourage
100
AcDbLine
 10
18.986781
 20
-93.04619
 30
0.0
 11
19.790037
 21
-93.074159
 31
0.0
  0
LINE
  5
1306
330
310
100
AcDbEntity
  8
Detourage
100
AcDbLine
 10
18.187416
 20
-92.962421
 30
0.0
 11
18.986781
 21
-93.04619
 31
0.0
  0
LINE
  5
1307
330
310
100
AcDbEntity
  8
Detourage
100
AcDbLine
 10
17.395814
 20
-92.823255
 30
0.0
 11
18.187416
 21
-92.962421
 31
0.0
  0
LINE
  5
1308
330
310
100
AcDbEntity
  8
Detourage
100
AcDbLine
 10
16.615807
 20
-92.629368
 30
0.0
 11
17.395814
 21
-92.823255
 31
0.0
  0
LINE
  5
1309
330
310
100
AcDbEntity
  8
Detourage
100
AcDbLine
 10
15.851176
 20
-92.381699
 30
0.0
 11
16.615807
 21
-92.629368
 31
0.0
  0
LINE
  5
130A
330
310
100
AcDbEntity
  8
Detourage
100
AcDbLine
 10
15.105622
 20
-92.081446
 30
0.0
 11
15.851176
 21
-92.381699
 31
0.0
  0
LINE
  5
130B
330
310
100
AcDbEntity
  8
Detourage
100
AcDbLine
 10
14.382758
 20
-91.730065
 30
0.0
 11
15.105622
 21
-92.081446
 31
0.0
  0
LINE
  5
130C
330
310
100
AcDbEntity
  8
Detourage
100
AcDbLine
 10
13.686083
 20
-91.329258
 30
0.0
 11
14.382758
 21
-91.730065
 31
0.0
  0
LINE
  5
130D
330
310
100
AcDbEntity
  8
Detourage
100
AcDbLine
 10
13.018974
 20
-90.880965
 30
0.0
 11
13.686083
 21
-91.329258
 31
0.0
  0
LINE
  5
130E
330
310
100
AcDbEntity
  8
Detourage
100
AcDbLine
 10
12.38466
 20
-90.387358
 30
0.0
 11
13.018974
 21
-90.880965
 31
0.0
  0
LINE
  5
130F
330
310
100
AcDbEntity
  8
Detourage
100
AcDbLine
 10
11.786215
 20
-89.850828
 30
0.0
 11
12.38466
 21
-90.387358
 31
0.0
  0
LINE
  5
1310
330
310
100
AcDbEntity
  8
Detourage
100
AcDbLine
 10
11.226536
 20
-89.273973
 30
0.0
 11
11.786215
 21
-89.850828
 31
0.0
  0
LINE
  5
1311
330
310
100
AcDbEntity
  8
Detourage
  6
ByBlock
100
AcDbLine
 10
8.820033
 20
-50.904641
 30
0.0
 11
23.957056
 21
-73.074159
 31
0.0
  0
LINE
  5
1312
330
310
100
AcDbEntity
  8
Detourage
  6
ByBlock
100
AcDbLine
 10
35.457056
 20
-70.074159
 30
0.0
 11
37.957056
 21
-70.074159
 31
0.0
  0
LINE
  5
1313
330
310
100
AcDbEntity
  8
Detourage
  6
ByBlock
100
AcDbLine
 10
7.860696
 20
-85.690657
 30
0.0
 11
11.226536
 21
-89.273973
 31
0.0
  0
LINE
  5
1314
330
310
100
AcDbEntity
  8
Detourage
  6
ByBlock
100
AcDbLine
 10
41.957056
 20
-74.074159
 30
0.0
 11
41.957056
 21
-85.473787
 31
0.0
  0
CIRCLE
  5
1315
330
310
100
AcDbEntity
  8
Detourage
  6
ByBlock
100
AcDbCircle
 10
-0.142944
 20
-51.074159
 30
0.0
 40
2.05
  0
CIRCLE
  5
1316
330
310
100
AcDbEntity
  8
Detourage
  6
ByBlock
100
AcDbCircle
 10
-0.142944
 20
-79.474159
 30
0.0
 40
2.05
  0
LINE
  5
1317
330
310
100
AcDbEntity
  8
Detourage
  6
ByBlock
100
AcDbLine
 10
-5.142944
 20
-56.374159
 30
0.0
 11
-5.142944
 21
-75.874159
 31
0.0
  0
LINE
  5
1318
330
310
100
AcDbEntity
  8
Gravure
  6
ByBlock
100
AcDbLine
 10
16.388544
 20
-62.035626
 30
0.0
 11
16.388544
 21
-92.530759
 31
0.0
  0
CIRCLE
  5
131A
330
310
100
AcDbEntity
  8
Detourage
100
AcDbCircle
 10
69.518859
 20
38.570225
 30
0.0
 40
1.55
  0
CIRCLE
  5
131B
330
310
100
AcDbEntity
  8
Detourage
100
AcDbCircle
 10
58.118859
 20
38.570225
 30
0.0
 40
1.55
  0
LINE
  5
131C
330
310
100
AcDbEntity
  8
Detourage
100
AcDbLine
 10
60.742654
 20
22.412892
 30
0.0
 11
54.41942
 21
31.280649
 31
0.0
  0
LINE
  5
131D
330
310
100
AcDbEntity
  8
Detourage
100
AcDbLine
 10
66.895063
 20
22.412892
 30
0.0
 11
73.218298
 21
31.28065
 31
0.0
  0
ARC
  5
131E
330
310
100
AcDbEntity
  8
Detourage
100
AcDbCircle
 10
63.818859
 20
24.969641
 30
0.0
 40
4.0
100
AcDbArc
 50
219.731242
 51
270.0
  0
ARC
  5
131F
330
310
100
AcDbEntity
  8
Detourage
100
AcDbCircle
 10
63.818859
 20
24.969641
 30
0.0
 40
4.0
100
AcDbArc
 50
270.0
 51
320.268758
  0
LINE
  5
1320
330
310
100
AcDbEntity
  8
Detourage
100
AcDbLine
 10
53.118859
 20
35.344685
 30
0.0
 11
53.118859
 21
41.570225
 31
0.0
  0
LINE
  5
1321
330
310
100
AcDbEntity
  8
Detourage
100
AcDbLine
 10
74.518859
 20
35.344687
 30
0.0
 11
74.518859
 21
41.570225
 31
0.0
  0
LINE
  5
1322
330
310
100
AcDbEntity
  8
Detourage
100
AcDbLine
 10
69.518859
 20
46.570225
 30
0.0
 11
58.118859
 21
46.570225
 31
0.0
  0
ARC
  5
1323
330
310
100
AcDbEntity
  8
Detourage
100
AcDbCircle
 10
60.118859
 20
35.344685
 30
0.0
 40
7.000000000008413
100
AcDbArc
 50
180.0
 51
215.491113
1001
MCSXDATA5
1071
      167
1004
06000000000000008B0000001C000000E404000000000000000000001F050A025C020509020FEE020C4D43535F46494C4C45545F3109020FEE020C4D43535F46494C4C45545F3209020FEE020C4D43535F46494C4C45545F3309020FEE020C4D43535F46494C4C45545F3409020FEE020C4D43535F46494C4C45545F351202
1004
2602050201030201030202020103020326020702010302012202010302010302010201030201221A
  0
ARC
  5
1324
330
310
100
AcDbEntity
  8
Detourage
100
AcDbCircle
 10
67.518859
 20
35.344687
 30
0.0
 40
7.000000000004061
100
AcDbArc
 50
324.508887
 51
0.0
1001
MCSXDATA5
1071
      167
1004
06000000000000008B0000001C000000E404000000000000000000001F050A025C020509020FEE020C4D43535F46494C4C45545F3109020FEE020C4D43535F46494C4C45545F3209020FEE020C4D43535F46494C4C45545F3309020FEE020C4D43535F46494C4C45545F3409020FEE020C4D43535F46494C4C45545F351202
1004
2602050201030201030202020103020326020702010302012202010302010302010201030201221A
  0
ARC
  5
1325
330
310
100
AcDbEntity
  8
Detourage
100
AcDbCircle
 10
58.118859
 20
41.570225
 30
0.0
 40
4.999999999999957
100
AcDbArc
 50
90.0
 51
180.0
1001
MCSXDATA5
1071
      167
1004
06000000000000008B0000001C000000E404000000000000000000001F050A025C020509020FEE020C4D43535F46494C4C45545F3109020FEE020C4D43535F46494C4C45545F3209020FEE020C4D43535F46494C4C45545F3309020FEE020C4D43535F46494C4C45545F3409020FEE020C4D43535F46494C4C45545F351202
1004
2602050201030201030202020103020326020502010302012202010302010302010201030201221A
  0
ARC
  5
1326
330
310
100
AcDbEntity
  8
Detourage
100
AcDbCircle
 10
69.518859
 20
41.570225
 30
0.0
 40
4.999999999999858
100
AcDbArc
 50
0.0
 51
90.0
1001
MCSXDATA5
1071
      167
1004
06000000000000008B0000001C000000E404000000000000000000001F050A025C020509020FEE020C4D43535F46494C4C45545F3109020FEE020C4D43535F46494C4C45545F3209020FEE020C4D43535F46494C4C45545F3309020FEE020C4D43535F46494C4C45545F3409020FEE020C4D43535F46494C4C45545F351202
1004
2602050201030201030202020103020326020502010302012202010302010302010201030201221A
  0
LINE
  5
1327
330
310
100
AcDbEntity
  8
Gravure
  6
ByBlock
100
AcDbLine
 10
69.805829
 20
26.859628
 30
-0.000003
 11
66.09072
 21
29.25945
 31
-0.000003
  0
LINE
  5
1328
330
310
100
AcDbEntity
  8
Gravure
  6
ByBlock
100
AcDbLine
 10
66.09072
 20
29.25945
 30
-0.000003
 11
64.36008
 21
29.79018
 31
-0.000003
  0
LINE
  5
1329
330
310
100
AcDbEntity
  8
Gravure
  6
ByBlock
100
AcDbLine
 10
64.36008
 20
29.79018
 30
-0.000003
 11
63.390921
 21
29.767104
 31
-0.000003
  0
LINE
  5
132A
330
310
100
AcDbEntity
  8
Gravure
  6
ByBlock
100
AcDbLine
 10
63.390921
 20
29.767104
 30
-0.000003
 11
62.006409
 21
29.397901
 31
-0.000003
  0
LINE
  5
132B
330
310
100
AcDbEntity
  8
Gravure
  6
ByBlock
100
AcDbLine
 10
62.006409
 20
29.397901
 30
-0.000003
 11
57.829797
 21
26.721177
 31
-0.000003
  0
CIRCLE
  5
132C
330
310
100
AcDbEntity
  8
Detourage
100
AcDbCircle
 10
16.195154
 20
-8.040032
 30
0.0
 40
1.0
  0
LINE
  5
132D
330
310
100
AcDbEntity
  8
Detourage
  6
ByBlock
100
AcDbLine
 10
10.852297
 20
-7.777587
 30
0.0
 11
13.338011
 21
-5.240615
 31
0.0
  0
ARC
  5
132E
330
310
100
AcDbEntity
  8
Detourage
100
AcDbCircle
 10
16.195154
 20
-8.040032
 30
0.0
 40
4.0
100
AcDbArc
 50
44.415309
 51
135.584691
  0
LINE
  5
132F
330
310
100
AcDbEntity
  8
Detourage
  6
ByBlock
100
AcDbLine
 10
10.595154
 20
-30.140034
 30
0.0
 11
10.595154
 21
-19.940034
 31
0.0
  0
LINE
  5
1330
330
310
100
AcDbEntity
  8
Detourage
  6
ByBlock
100
AcDbLine
 10
10.595154
 20
-14.140034
 30
0.0
 11
10.595154
 21
-8.407455
 31
0.0
  0
LINE
  5
1331
330
310
100
AcDbEntity
  8
Detourage
  6
ByBlock
100
AcDbLine
 10
16.195154
 20
-39.040034
 30
0.0
 11
11.495154
 21
-39.040034
 31
0.0
  0
LINE
  5
1332
330
310
100
AcDbEntity
  8
Detourage
  6
ByBlock
100
AcDbLine
 10
13.195154
 20
-34.140034
 30
0.0
 11
13.195154
 21
-31.940034
 31
0.0
  0
LINE
  5
1333
330
310
100
AcDbEntity
  8
Detourage
  6
ByBlock
100
AcDbLine
 10
13.195154
 20
-18.140034
 30
0.0
 11
13.195154
 21
-15.940034
 31
0.0
  0
LINE
  5
1334
330
310
100
AcDbEntity
  8
Detourage
  6
ByBlock
100
AcDbLine
 10
10.595154
 20
-35.940034
 30
0.0
 11
10.595154
 21
-38.140034
 31
0.0
  0
LINE
  5
1335
330
310
100
AcDbEntity
  8
Detourage
  6
ByBlock
100
AcDbLine
 10
12.295154
 20
-19.040034
 30
0.0
 11
11.495154
 21
-19.040034
 31
0.0
  0
LINE
  5
1336
330
310
100
AcDbEntity
  8
Detourage
  6
ByBlock
100
AcDbLine
 10
12.295154
 20
-15.040034
 30
0.0
 11
11.495154
 21
-15.040034
 31
0.0
  0
LINE
  5
1337
330
310
100
AcDbEntity
  8
Detourage
  6
ByBlock
100
AcDbLine
 10
12.295154
 20
-31.040034
 30
0.0
 11
11.495154
 21
-31.040034
 31
0.0
  0
LINE
  5
1338
330
310
100
AcDbEntity
  8
Detourage
  6
ByBlock
100
AcDbLine
 10
12.295154
 20
-35.040034
 30
0.0
 11
11.495154
 21
-35.040034
 31
0.0
  0
ARC
  5
1339
330
310
100
AcDbEntity
  8
Detourage
  6
ByBlock
100
AcDbCircle
 10
11.495154
 20
-38.140034
 30
0.0
 40
0.8999999999991743
100
AcDbArc
 50
180.0
 51
270.0
1001
MCSXDATA5
1071
      173
1004
0600000000000000910000001C000000E404000000000000000000001F050A025C020509020FEE020C4D43535F46494C4C45545F3109020FEE020C4D43535F46494C4C45545F3209020FEE020C4D43535F46494C4C45545F3309020FEE020C4D43535F46494C4C45545F3409020FEE020C4D43535F46494C4C45545F351202
1004
2C02050201030201030202020103020306CDCCCCCCCCCCEC3F02010302012202010302010302010201030201221A
  0
ARC
  5
133A
330
310
100
AcDbEntity
  8
Detourage
  6
ByBlock
100
AcDbCircle
 10
11.495154
 20
-35.940034
 30
0.0
 40
0.8999999999997783
100
AcDbArc
 50
90.0
 51
180.0
1001
MCSXDATA5
1071
      173
1004
0600000000000000910000001C000000E404000000000000000000001F050A025C020509020FEE020C4D43535F46494C4C45545F3109020FEE020C4D43535F46494C4C45545F3209020FEE020C4D43535F46494C4C45545F3309020FEE020C4D43535F46494C4C45545F3409020FEE020C4D43535F46494C4C45545F351202
1004
2C02050201030201030202020103020306CDCCCCCCCCCCEC3F02010302012202010302010302010201030201221A
  0
ARC
  5
133B
330
310
100
AcDbEntity
  8
Detourage
  6
ByBlock
100
AcDbCircle
 10
12.295154
 20
-34.140034
 30
0.0
 40
0.8999999999998636
100
AcDbArc
 50
270.0
 51
0.0
1001
MCSXDATA5
1071
      173
1004
0600000000000000910000001C000000E404000000000000000000001F050A025C020509020FEE020C4D43535F46494C4C45545F3109020FEE020C4D43535F46494C4C45545F3209020FEE020C4D43535F46494C4C45545F3309020FEE020C4D43535F46494C4C45545F3409020FEE020C4D43535F46494C4C45545F351202
1004
2C02050201030201030202020103020306CDCCCCCCCCCCEC3F02010302012202010302010302010201030201221A
  0
ARC
  5
133C
330
310
100
AcDbEntity
  8
Detourage
  6
ByBlock
100
AcDbCircle
 10
12.295154
 20
-31.940034
 30
0.0
 40
0.8999999999998778
100
AcDbArc
 50
0.0
 51
90.0
1001
MCSXDATA5
1071
      173
1004
0600000000000000910000001C000000E404000000000000000000001F050A025C020509020FEE020C4D43535F46494C4C45545F3109020FEE020C4D43535F46494C4C45545F3209020FEE020C4D43535F46494C4C45545F3309020FEE020C4D43535F46494C4C45545F3409020FEE020C4D43535F46494C4C45545F351202
1004
2C02050201030201030202020103020306CDCCCCCCCCCCEC3F02010302012202010302010302010201030201221A
  0
ARC
  5
133D
330
310
100
AcDbEntity
  8
Detourage
  6
ByBlock
100
AcDbCircle
 10
11.495154
 20
-30.140034
 30
0.0
 40
0.899999999998947
100
AcDbArc
 50
180.0
 51
270.0
1001
MCSXDATA5
1071
      173
1004
0600000000000000910000001C000000E404000000000000000000001F050A025C020509020FEE020C4D43535F46494C4C45545F3109020FEE020C4D43535F46494C4C45545F3209020FEE020C4D43535F46494C4C45545F3309020FEE020C4D43535F46494C4C45545F3409020FEE020C4D43535F46494C4C45545F351202
1004
2C02050201030201030202020103020306CDCCCCCCCCCCEC3F02010302012202010302010302010201030201221A
  0
ARC
  5
133E
330
310
100
AcDbEntity
  8
Detourage
  6
ByBlock
100
AcDbCircle
 10
11.495154
 20
-19.940034
 30
0.0
 40
0.9000000000003752
100
AcDbArc
 50
90.0
 51
180.0
1001
MCSXDATA5
1071
      173
1004
0600000000000000910000001C000000E404000000000000000000001F050A025C020509020FEE020C4D43535F46494C4C45545F3109020FEE020C4D43535F46494C4C45545F3209020FEE020C4D43535F46494C4C45545F3309020FEE020C4D43535F46494C4C45545F3409020FEE020C4D43535F46494C4C45545F351202
1004
2C02050201030201030202020103020306CDCCCCCCCCCCEC3F02010302012202010302010302010201030201221A
  0
ARC
  5
133F
330
310
100
AcDbEntity
  8
Detourage
  6
ByBlock
100
AcDbCircle
 10
12.295154
 20
-18.140034
 30
0.0
 40
0.8999999999989541
100
AcDbArc
 50
270.0
 51
0.0
1001
MCSXDATA5
1071
      173
1004
0600000000000000910000001C000000E404000000000000000000001F050A025C020509020FEE020C4D43535F46494C4C45545F3109020FEE020C4D43535F46494C4C45545F3209020FEE020C4D43535F46494C4C45545F3309020FEE020C4D43535F46494C4C45545F3409020FEE020C4D43535F46494C4C45545F351202
1004
2C02050201030201030202020103020306CDCCCCCCCCCCEC3F02010302012202010302010302010201030201221A
  0
ARC
  5
1340
330
310
100
AcDbEntity
  8
Detourage
  6
ByBlock
100
AcDbCircle
 10
12.295154
 20
-15.940034
 30
0.0
 40
0.8999999999992667
100
AcDbArc
 50
0.0
 51
90.0
1001
MCSXDATA5
1071
      173
1004
0600000000000000910000001C000000E404000000000000000000001F050A025C020509020FEE020C4D43535F46494C4C45545F3109020FEE020C4D43535F46494C4C45545F3209020FEE020C4D43535F46494C4C45545F3309020FEE020C4D43535F46494C4C45545F3409020FEE020C4D43535F46494C4C45545F351202
1004
2C02050201030201030202020103020306CDCCCCCCCCCCEC3F02010302012202010302010302010201030201221A
  0
ARC
  5
1341
330
310
100
AcDbEntity
  8
Detourage
  6
ByBlock
100
AcDbCircle
 10
11.495154
 20
-14.140034
 30
0.0
 40
0.900000000000162
100
AcDbArc
 50
180.0
 51
270.0
1001
MCSXDATA5
1071
      173
1004
0600000000000000910000001C000000E404000000000000000000001F050A025C020509020FEE020C4D43535F46494C4C45545F3109020FEE020C4D43535F46494C4C45545F3209020FEE020C4D43535F46494C4C45545F3309020FEE020C4D43535F46494C4C45545F3409020FEE020C4D43535F46494C4C45545F351202
1004
2C02050201030201030202020103020306CDCCCCCCCCCCEC3F02010302012202010302010302010201030201221A
  0
ARC
  5
1342
330
310
100
AcDbEntity
  8
Detourage
  6
ByBlock
100
AcDbCircle
 10
11.495154
 20
-8.407455
 30
0.0
 40
0.9000000000125581
100
AcDbArc
 50
135.584691
 51
180.0
1001
MCSXDATA5
1071
      173
1004
0600000000000000910000001C000000E404000000000000000000001F050A025C020509020FEE020C4D43535F46494C4C45545F3109020FEE020C4D43535F46494C4C45545F3209020FEE020C4D43535F46494C4C45545F3309020FEE020C4D43535F46494C4C45545F3409020FEE020C4D43535F46494C4C45545F351202
1004
2C02050201030201030202020103020306CDCCCCCCCCCCEC3F02010302012202010302010302010201030201221A
  0
LINE
  5
1343
330
310
100
AcDbEntity
  8
Detourage
  6
ByBlock
100
AcDbLine
 10
21.538011
 20
-7.777587
 30
0.0
 11
19.052297
 21
-5.240615
 31
0.0
  0
LINE
  5
1344
330
310
100
AcDbEntity
  8
Detourage
  6
ByBlock
100
AcDbLine
 10
21.795154
 20
-30.140034
 30
0.0
 11
21.795154
 21
-19.940034
 31
0.0
  0
LINE
  5
1345
330
310
100
AcDbEntity
  8
Detourage
  6
ByBlock
100
AcDbLine
 10
21.795154
 20
-14.140034
 30
0.0
 11
21.795154
 21
-8.407455
 31
0.0
  0
LINE
  5
1346
330
310
100
AcDbEntity
  8
Detourage
  6
ByBlock
100
AcDbLine
 10
16.195154
 20
-39.040034
 30
0.0
 11
20.895154
 21
-39.040034
 31
0.0
  0
LINE
  5
1347
330
310
100
AcDbEntity
  8
Detourage
  6
ByBlock
100
AcDbLine
 10
19.195154
 20
-34.140034
 30
0.0
 11
19.195154
 21
-31.940034
 31
0.0
  0
LINE
  5
1348
330
310
100
AcDbEntity
  8
Detourage
  6
ByBlock
100
AcDbLine
 10
19.195154
 20
-18.140034
 30
0.0
 11
19.195154
 21
-15.940034
 31
0.0
  0
LINE
  5
1349
330
310
100
AcDbEntity
  8
Detourage
  6
ByBlock
100
AcDbLine
 10
21.795154
 20
-35.940034
 30
0.0
 11
21.795154
 21
-38.140034
 31
0.0
  0
LINE
  5
134A
330
310
100
AcDbEntity
  8
Detourage
  6
ByBlock
100
AcDbLine
 10
20.095154
 20
-19.040034
 30
0.0
 11
20.895154
 21
-19.040034
 31
0.0
  0
LINE
  5
134B
330
310
100
AcDbEntity
  8
Detourage
  6
ByBlock
100
AcDbLine
 10
20.095154
 20
-15.040034
 30
0.0
 11
20.895154
 21
-15.040034
 31
0.0
  0
LINE
  5
134C
330
310
100
AcDbEntity
  8
Detourage
  6
ByBlock
100
AcDbLine
 10
20.095154
 20
-31.040034
 30
0.0
 11
20.895154
 21
-31.040034
 31
0.0
  0
LINE
  5
134D
330
310
100
AcDbEntity
  8
Detourage
  6
ByBlock
100
AcDbLine
 10
20.095154
 20
-35.040034
 30
0.0
 11
20.895154
 21
-35.040034
 31
0.0
  0
ARC
  5
134E
330
310
100
AcDbEntity
  8
Detourage
  6
ByBlock
100
AcDbCircle
 10
20.895154
 20
-38.140034
 30
0.0
 40
0.8999999999991743
100
AcDbArc
 50
270.0
 51
0.0
1001
MCSXDATA5
1071
      173
1004
0600000000000000910000001C000000E404000000000000000000001F050A025C020509020FEE020C4D43535F46494C4C45545F3109020FEE020C4D43535F46494C4C45545F3209020FEE020C4D43535F46494C4C45545F3309020FEE020C4D43535F46494C4C45545F3409020FEE020C4D43535F46494C4C45545F351202
1004
2C02050201030201030202020103020306CDCCCCCCCCCCEC3F02010302012202010302010302010201030201221A
  0
ARC
  5
134F
330
310
100
AcDbEntity
  8
Detourage
  6
ByBlock
100
AcDbCircle
 10
20.895154
 20
-35.940034
 30
0.0
 40
0.8999999999997783
100
AcDbArc
 50
0.0
 51
90.0
1001
MCSXDATA5
1071
      173
1004
0600000000000000910000001C000000E404000000000000000000001F050A025C020509020FEE020C4D43535F46494C4C45545F3109020FEE020C4D43535F46494C4C45545F3209020FEE020C4D43535F46494C4C45545F3309020FEE020C4D43535F46494C4C45545F3409020FEE020C4D43535F46494C4C45545F351202
1004
2C02050201030201030202020103020306CDCCCCCCCCCCEC3F02010302012202010302010302010201030201221A
  0
ARC
  5
1350
330
310
100
AcDbEntity
  8
Detourage
  6
ByBlock
100
AcDbCircle
 10
20.095154
 20
-34.140034
 30
0.0
 40
0.8999999999998636
100
AcDbArc
 50
180.0
 51
270.0
1001
MCSXDATA5
1071
      173
1004
0600000000000000910000001C000000E404000000000000000000001F050A025C020509020FEE020C4D43535F46494C4C45545F3109020FEE020C4D43535F46494C4C45545F3209020FEE020C4D43535F46494C4C45545F3309020FEE020C4D43535F46494C4C45545F3409020FEE020C4D43535F46494C4C45545F351202
1004
2C02050201030201030202020103020306CDCCCCCCCCCCEC3F02010302012202010302010302010201030201221A
  0
ARC
  5
1351
330
310
100
AcDbEntity
  8
Detourage
  6
ByBlock
100
AcDbCircle
 10
20.095154
 20
-31.940034
 30
0.0
 40
0.8999999999998778
100
AcDbArc
 50
90.0
 51
180.0
1001
MCSXDATA5
1071
      173
1004
0600000000000000910000001C000000E404000000000000000000001F050A025C020509020FEE020C4D43535F46494C4C45545F3109020FEE020C4D43535F46494C4C45545F3209020FEE020C4D43535F46494C4C45545F3309020FEE020C4D43535F46494C4C45545F3409020FEE020C4D43535F46494C4C45545F351202
1004
2C02050201030201030202020103020306CDCCCCCCCCCCEC3F02010302012202010302010302010201030201221A
  0
ARC
  5
1352
330
310
100
AcDbEntity
  8
Detourage
  6
ByBlock
100
AcDbCircle
 10
20.895154
 20
-30.140034
 30
0.0
 40
0.899999999998947
100
AcDbArc
 50
270.0
 51
0.0
1001
MCSXDATA5
1071
      173
1004
0600000000000000910000001C000000E404000000000000000000001F050A025C020509020FEE020C4D43535F46494C4C45545F3109020FEE020C4D43535F46494C4C45545F3209020FEE020C4D43535F46494C4C45545F3309020FEE020C4D43535F46494C4C45545F3409020FEE020C4D43535F46494C4C45545F351202
1004
2C02050201030201030202020103020306CDCCCCCCCCCCEC3F02010302012202010302010302010201030201221A
  0
ARC
  5
1353
330
310
100
AcDbEntity
  8
Detourage
  6
ByBlock
100
AcDbCircle
 10
20.895154
 20
-19.940034
 30
0.0
 40
0.9000000000003752
100
AcDbArc
 50
0.0
 51
90.0
1001
MCSXDATA5
1071
      173
1004
0600000000000000910000001C000000E404000000000000000000001F050A025C020509020FEE020C4D43535F46494C4C45545F3109020FEE020C4D43535F46494C4C45545F3209020FEE020C4D43535F46494C4C45545F3309020FEE020C4D43535F46494C4C45545F3409020FEE020C4D43535F46494C4C45545F351202
1004
2C02050201030201030202020103020306CDCCCCCCCCCCEC3F02010302012202010302010302010201030201221A
  0
ARC
  5
1354
330
310
100
AcDbEntity
  8
Detourage
  6
ByBlock
100
AcDbCircle
 10
20.095154
 20
-18.140034
 30
0.0
 40
0.8999999999989541
100
AcDbArc
 50
180.0
 51
270.0
1001
MCSXDATA5
1071
      173
1004
0600000000000000910000001C000000E404000000000000000000001F050A025C020509020FEE020C4D43535F46494C4C45545F3109020FEE020C4D43535F46494C4C45545F3209020FEE020C4D43535F46494C4C45545F3309020FEE020C4D43535F46494C4C45545F3409020FEE020C4D43535F46494C4C45545F351202
1004
2C02050201030201030202020103020306CDCCCCCCCCCCEC3F02010302012202010302010302010201030201221A
  0
ARC
  5
1355
330
310
100
AcDbEntity
  8
Detourage
  6
ByBlock
100
AcDbCircle
 10
20.095154
 20
-15.940034
 30
0.0
 40
0.8999999999992667
100
AcDbArc
 50
90.0
 51
180.0
1001
MCSXDATA5
1071
      173
1004
0600000000000000910000001C000000E404000000000000000000001F050A025C020509020FEE020C4D43535F46494C4C45545F3109020FEE020C4D43535F46494C4C45545F3209020FEE020C4D43535F46494C4C45545F3309020FEE020C4D43535F46494C4C45545F3409020FEE020C4D43535F46494C4C45545F351202
1004
2C02050201030201030202020103020306CDCCCCCCCCCCEC3F02010302012202010302010302010201030201221A
  0
ARC
  5
1356
330
310
100
AcDbEntity
  8
Detourage
  6
ByBlock
100
AcDbCircle
 10
20.895154
 20
-14.140034
 30
0.0
 40
0.900000000000162
100
AcDbArc
 50
270.0
 51
0.0
1001
MCSXDATA5
1071
      173
1004
0600000000000000910000001C000000E404000000000000000000001F050A025C020509020FEE020C4D43535F46494C4C45545F3109020FEE020C4D43535F46494C4C45545F3209020FEE020C4D43535F46494C4C45545F3309020FEE020C4D43535F46494C4C45545F3409020FEE020C4D43535F46494C4C45545F351202
1004
2C02050201030201030202020103020306CDCCCCCCCCCCEC3F02010302012202010302010302010201030201221A
  0
ARC
  5
1357
330
310
100
AcDbEntity
  8
Detourage
  6
ByBlock
100
AcDbCircle
 10
20.895154
 20
-8.407455
 30
0.0
 40
0.9000000000125581
100
AcDbArc
 50
0.0
 51
44.415309
1001
MCSXDATA5
1071
      173
1004
0600000000000000910000001C000000E404000000000000000000001F050A025C020509020FEE020C4D43535F46494C4C45545F3109020FEE020C4D43535F46494C4C45545F3209020FEE020C4D43535F46494C4C45545F3309020FEE020C4D43535F46494C4C45545F3409020FEE020C4D43535F46494C4C45545F351202
1004
2C02050201030201030202020103020306CDCCCCCCCCCCEC3F02010302012202010302010302010201030201221A
  0
CIRCLE
  5
1358
330
310
100
AcDbEntity
  8
Detourage
100
AcDbCircle
 10
69.439184
 20
-85.775429
 30
0.0
 40
1.6
  0
CIRCLE
  5
1359
330
310
100
AcDbEntity
  8
Detourage
100
AcDbCircle
 10
58.039184
 20
-85.775429
 30
0.0
 40
1.6
  0
ARC
  5
135A
330
310
100
AcDbEntity
  8
Detourage
100
AcDbCircle
 10
70.439184
 20
-83.775429
 30
0.0
 40
4.999999999998806
100
AcDbArc
 50
0.0
 51
90.0
1001
MCSXDATA5
1071
      167
1004
06000000000000008B0000001C000000E404000000000000000000001F050A025C020509020FEE020C4D43535F46494C4C45545F3109020FEE020C4D43535F46494C4C45545F3209020FEE020C4D43535F46494C4C45545F3309020FEE020C4D43535F46494C4C45545F3409020FEE020C4D43535F46494C4C45545F351202
1004
2602050201030201030202020103020326020502010302012202010302010302010201030201221A
  0
ARC
  5
135B
330
310
100
AcDbEntity
  8
Detourage
100
AcDbCircle
 10
57.039184
 20
-83.775429
 30
0.0
 40
4.999999999998806
100
AcDbArc
 50
90.0
 51
180.0
1001
MCSXDATA5
1071
      167
1004
06000000000000008B0000001C000000E404000000000000000000001F050A025C020509020FEE020C4D43535F46494C4C45545F3109020FEE020C4D43535F46494C4C45545F3209020FEE020C4D43535F46494C4C45545F3309020FEE020C4D43535F46494C4C45545F3409020FEE020C4D43535F46494C4C45545F351202
1004
2602050201030201030202020103020326020502010302012202010302010302010201030201221A
  0
ARC
  5
135C
330
310
100
AcDbEntity
  8
Detourage
100
AcDbCircle
 10
70.439184
 20
-87.775429
 30
0.0
 40
4.999999999998806
100
AcDbArc
 50
270.0
 51
0.0
1001
MCSXDATA5
1071
      167
1004
06000000000000008B0000001C000000E404000000000000000000001F050A025C020509020FEE020C4D43535F46494C4C45545F3109020FEE020C4D43535F46494C4C45545F3209020FEE020C4D43535F46494C4C45545F3309020FEE020C4D43535F46494C4C45545F3409020FEE020C4D43535F46494C4C45545F351202
1004
2602050201030201030202020103020326020502010302012202010302010302010201030201221A
  0
ARC
  5
135D
330
310
100
AcDbEntity
  8
Detourage
100
AcDbCircle
 10
57.039184
 20
-87.775429
 30
0.0
 40
4.999999999998806
100
AcDbArc
 50
180.0
 51
270.0
1001
MCSXDATA5
1071
      167
1004
06000000000000008B0000001C000000E404000000000000000000001F050A025C020509020FEE020C4D43535F46494C4C45545F3109020FEE020C4D43535F46494C4C45545F3209020FEE020C4D43535F46494C4C45545F3309020FEE020C4D43535F46494C4C45545F3409020FEE020C4D43535F46494C4C45545F351202
1004
2602050201030201030202020103020326020502010302012202010302010302010201030201221A
  0
LINE
  5
135E
330
310
100
AcDbEntity
  8
Detourage
  6
ByBlock
100
AcDbLine
 10
57.039184
 20
-78.775429
 30
0.0
 11
70.439184
 21
-78.775429
 31
0.0
  0
LINE
  5
135F
330
310
100
AcDbEntity
  8
Detourage
  6
ByBlock
100
AcDbLine
 10
57.039184
 20
-92.775429
 30
0.0
 11
70.439184
 21
-92.775429
 31
0.0
  0
LINE
  5
1360
330
310
100
AcDbEntity
  8
Detourage
  6
ByBlock
100
AcDbLine
 10
75.439184
 20
-83.775429
 30
0.0
 11
75.439184
 21
-87.775429
 31
0.0
  0
LINE
  5
1361
330
310
100
AcDbEntity
  8
Detourage
  6
ByBlock
100
AcDbLine
 10
52.039184
 20
-83.775429
 30
0.0
 11
52.039184
 21
-87.775429
 31
0.0
  0
ENDSEC
  0
SECTION
  2
OBJECTS
  0
DICTIONARY
  5
300
330
0
100
AcDbDictionary
281
     1
  3
ACAD_DETAILVIEWSTYLE
350
7CB
  3
ACAD_GROUP
350
301
  3
ACAD_IMAGE_DICT
350
36A
  3
ACAD_LAYOUT
350
30D
  3
ACAD_MATERIAL
350
316
  3
ACAD_MLEADERSTYLE
350
38E
  3
ACAD_MLINESTYLE
350
30A
  3
ACAD_PLOTSETTINGS
350
30C
  3
ACAD_SCALELIST
350
325
  3
ACAD_SECTIONVIEWSTYLE
350
7CC
  3
ACAD_TABLESTYLE
350
7C5
  3
ACAD_VISUALSTYLE
350
347
  3
ACDB_RECOMPOSE_DATA
350
13D7
  3
ACDBVARIABLEDICTIONARY
350
38D
  3
HOST_DOC_SETTINGS
350
C4F
  3
MCS_STREAM_DICT
350
360
  0
SUN
  5
7C4
330
313
100
AcDbSun
 90
        1
290
     0
 63
     7
421
 16777215
 40
1.0
291
     1
 91
  2455826
 92
 54000000
292
     0
 70
     2
 71
   256
280
     1
  0
DICTIONARY
  5
4B5
330
310
100
AcDbDictionary
280
     1
281
     1
  3
ACAD_SORTENTS
360
4B6
  0
DICTIONARY
  5
7CB
102
{ACAD_REACTORS
330
300
102
}
330
300
100
AcDbDictionary
281
     1
  0
DICTIONARY
  5
301
102
{ACAD_REACTORS
330
300
102
}
330
300
100
AcDbDictionary
281
     1
  0
DICTIONARY
  5
36A
102
{ACAD_REACTORS
330
300
102
}
330
300
100
AcDbDictionary
281
     1
  0
DICTIONARY
  5
30D
102
{ACAD_REACTORS
330
300
102
}
330
300
100
AcDbDictionary
281
     1
  3
Layout1
350
7C3
  3
Model
350
7C2
  0
DICTIONARY
  5
316
102
{ACAD_REACTORS
330
300
102
}
330
300
100
AcDbDictionary
281
     1
  3
BYBLOCK
350
318
  3
BYLAYER
350
317
  3
GLOBAL
350
319
  0
DICTIONARY
  5
38E
102
{ACAD_REACTORS
330
300
102
}
330
300
100
AcDbDictionary
281
     1
  0
DICTIONARY
  5
30A
102
{ACAD_REACTORS
330
300
102
}
330
300
100
AcDbDictionary
281
     1
  3
STANDARD
350
30B
  0
DICTIONARY
  5
30C
102
{ACAD_REACTORS
330
300
102
}
330
300
100
AcDbDictionary
281
     1
  0
DICTIONARY
  5
325
102
{ACAD_REACTORS
330
300
102
}
330
300
100
AcDbDictionary
281
     1
  3
A0
350
326
  3
A1
350
327
  3
A2
350
328
  3
A3
350
329
  3
A4
350
32A
  3
A5
350
32B
  3
A6
350
32C
  3
A7
350
32D
  3
A8
350
32E
  3
A9
350
32F
  3
B0
350
330
  3
B1
350
331
  3
B2
350
332
  3
B3
350
333
  3
B4
350
334
  3
B5
350
335
  3
B6
350
336
  3
B7
350
337
  3
B8
350
338
  3
B9
350
339
  3
C0
350
33A
  3
C1
350
33B
  3
C2
350
33C
  3
C3
350
33D
  3
C4
350
33E
  3
C5
350
33F
  3
C6
350
340
  3
C7
350
341
  3
C8
350
342
  3
C9
350
343
  3
D0
350
344
  3
D1
350
345
  3
D2
350
346
  0
DICTIONARY
  5
7CC
102
{ACAD_REACTORS
330
300
102
}
330
300
100
AcDbDictionary
281
     1
  0
DICTIONARY
  5
7C5
102
{ACAD_REACTORS
330
300
102
}
330
300
100
AcDbDictionary
281
     1
  3
Standard
350
7C6
  0
DICTIONARY
  5
347
102
{ACAD_REACTORS
330
300
102
}
330
300
100
AcDbDictionary
281
     1
  3
2DWIREFRAME
350
34C
  3
BASIC
350
34F
  3
BRIGHTEN
350
353
  3
COLORCHANGE
350
357
  3
CONCEPTUAL
350
351
  3
DIM
350
352
  3
EDGECOLOROFF
350
35A
  3
FACEPATTERN
350
356
  3
FLAT
350
348
  3
FLATWITHEDGES
350
349
  3
GOURAUD
350
34A
  3
GOURAUDWITHEDGES
350
34B
  3
HIDDEN
350
34E
  3
JITTEROFF
350
358
  3
LINEPATTERN
350
355
  3
OVERHANGOFF
350
359
  3
REALISTIC
350
350
  3
SHADED
350
35F
  3
Shaded with edges
350
6E2
  3
SHADED_WITH_EDGE0
350
35E
  3
SHADED_WITH_EDGES
350
5C8
  3
Shades of Gray
350
6E1
  3
SHADES_OF_GRA0
350
35B
  3
SHADES_OF_GRAY
350
5C7
  3
SKETCHY
350
35C
  3
THICKEN
350
354
  3
WIREFRAME
350
34D
  3
X-RAY
350
35D
  0
XRECORD
  5
13D7
102
{ACAD_REACTORS
330
300
102
}
330
300
100
AcDbXrecord
280
     1
 90
        1
330
7C6
  0
DICTIONARY
  5
38D
102
{ACAD_REACTORS
330
300
102
}
330
300
100
AcDbDictionary
281
     1
  3
CANNOSCALE
350
7C7
  3
DIMASSOC
350
392
  3
HIDETEXT
350
393
  3
MSLTSCALE
350
38F
  3
XCLIPFRAME
350
106A
  0
DICTIONARY
  5
C4F
102
{ACAD_REACTORS
330
300
102
}
330
300
100
AcDbDictionary
281
     1
  3
NCDocParameters
350
C50
  0
DICTIONARY
  5
360
102
{ACAD_REACTORS
330
300
102
}
330
300
100
AcDbDictionary
281
     1
  3
MC_VERSION_DATA
350
36C
  3
MCS_DOCUMENT_ID
350
361
  3
MCS_PARAMS_DATA
350
36B
  0
SORTENTSTABLE
  5
4B6
102
{ACAD_REACTORS
330
4B5
102
}
330
4B5
100
AcDbSortentsTable
330
310
  0
LAYOUT
  5
7C3
102
{ACAD_REACTORS
330
30D
102
}
330
30D
100
AcDbPlotSettings
  1

  2
none_device
  4

  6

 40
0.0
 41
0.0
 42
0.0
 43
0.0
 44
0.0
 45
0.0
 46
0.0
 47
0.0
 48
0.0
 49
0.0
140
0.0
141
0.0
142
1.0
143
1.0
 70
   688
 72
     0
 73
     0
 74
     5
  7

 75
    16
 76
     0
 77
     2
 78
   300
147
1.0
148
0.0
149
0.0
100
AcDbLayout
  1
Layout1
 70
     0
 71
     1
 10
0.0
 20
0.0
 11
12.0
 21
9.0
 12
0.0
 22
0.0
 32
0.0
 14
1.000000E+20
 24
1.000000E+20
 34
1.000000E+20
 15
-1.000000E+20
 25
-1.000000E+20
 35
-1.000000E+20
146
0.0
 13
0.0
 23
0.0
 33
0.0
 16
1.0
 26
0.0
 36
0.0
 17
0.0
 27
1.0
 37
0.0
 76
     0
330
30E
  0
LAYOUT
  5
7C2
102
{ACAD_REACTORS
330
30D
102
}
330
30D
100
AcDbPlotSettings
  1

  2
Samsung ML-2240 Series (USB001)
  4
USER1
  6

 40
4.233333
 41
4.233333
 42
4.233333
 43
4.233333
 44
215.9
 45
279.4
 46
27.216667
 47
-7.705775
 48
0.0
 49
0.0
140
0.0
141
0.0
142
1.0
143
1.0
 70
  1716
 72
     1
 73
     1
 74
     0
  7

 75
    16
 76
     0
 77
     2
 78
   300
147
1.0
148
61.902991
149
-66.52225
100
AcDbLayout
  1
Model
 70
     1
 71
     0
 10
0.0
 20
0.0
 11
12.0
 21
9.0
 12
0.0
 22
0.0
 32
0.0
 14
-13.73055
 24
-101.583531
 34
-0.000003
 15
86.26945
 25
58.416469
 35
0.000008
146
0.0
 13
0.0
 23
0.0
 33
0.0
 16
1.0
 26
0.0
 36
0.0
 17
0.0
 27
1.0
 37
0.0
 76
     0
330
310
331
313
  0
MATERIAL
  5
318
102
{ACAD_REACTORS
330
316
102
}
330
316
100
AcDbMaterial
  1
BYBLOCK
 72
     1
 94
      127
  0
MATERIAL
  5
317
102
{ACAD_REACTORS
330
316
102
}
330
316
100
AcDbMaterial
  1
BYLAYER
 72
     1
 94
      127
  0
MATERIAL
  5
319
102
{ACAD_REACTORS
330
316
102
}
330
316
100
AcDbMaterial
  1
GLOBAL
 72
     1
 94
      127
  0
MLINESTYLE
  5
30B
102
{ACAD_REACTORS
330
30A
102
}
330
30A
100
AcDbMlineStyle
  2
Standard
 70
     0
  3

 62
   256
 51
90.0
 52
90.0
 71
     2
 49
0.5
 62
   256
  6
BYLAYER
 49
-0.5
 62
   256
  6
BYLAYER
  0
SCALE
  5
326
102
{ACAD_REACTORS
330
325
102
}
330
325
100
AcDbScale
 70
     0
300
1:1
140
1.0
141
1.0
290
     1
  0
SCALE
  5
327
102
{ACAD_REACTORS
330
325
102
}
330
325
100
AcDbScale
 70
     0
300
1:2
140
1.0
141
2.0
290
     0
  0
SCALE
  5
328
102
{ACAD_REACTORS
330
325
102
}
330
325
100
AcDbScale
 70
     0
300
1:4
140
1.0
141
4.0
290
     0
  0
SCALE
  5
329
102
{ACAD_REACTORS
330
325
102
}
330
325
100
AcDbScale
 70
     0
300
1:5
140
1.0
141
5.0
290
     0
  0
SCALE
  5
32A
102
{ACAD_REACTORS
330
325
102
}
330
325
100
AcDbScale
 70
     0
300
1:8
140
1.0
141
8.0
290
     0
  0
SCALE
  5
32B
102
{ACAD_REACTORS
330
325
102
}
330
325
100
AcDbScale
 70
     0
300
1:10
140
1.0
141
10.0
290
     0
  0
SCALE
  5
32C
102
{ACAD_REACTORS
330
325
102
}
330
325
100
AcDbScale
 70
     0
300
1:16
140
1.0
141
16.0
290
     0
  0
SCALE
  5
32D
102
{ACAD_REACTORS
330
325
102
}
330
325
100
AcDbScale
 70
     0
300
1:20
140
1.0
141
20.0
290
     0
  0
SCALE
  5
32E
102
{ACAD_REACTORS
330
325
102
}
330
325
100
AcDbScale
 70
     0
300
1:30
140
1.0
141
30.0
290
     0
  0
SCALE
  5
32F
102
{ACAD_REACTORS
330
325
102
}
330
325
100
AcDbScale
 70
     0
300
1:40
140
1.0
141
40.0
290
     0
  0
SCALE
  5
330
102
{ACAD_REACTORS
330
325
102
}
330
325
100
AcDbScale
 70
     0
300
1:50
140
1.0
141
50.0
290
     0
  0
SCALE
  5
331
102
{ACAD_REACTORS
330
325
102
}
330
325
100
AcDbScale
 70
     0
300
1:100
140
1.0
141
100.0
290
     0
  0
SCALE
  5
332
102
{ACAD_REACTORS
330
325
102
}
330
325
100
AcDbScale
 70
     0
300
2:1
140
2.0
141
1.0
290
     0
  0
SCALE
  5
333
102
{ACAD_REACTORS
330
325
102
}
330
325
100
AcDbScale
 70
     0
300
4:1
140
4.0
141
1.0
290
     0
  0
SCALE
  5
334
102
{ACAD_REACTORS
330
325
102
}
330
325
100
AcDbScale
 70
     0
300
8:1
140
8.0
141
1.0
290
     0
  0
SCALE
  5
335
102
{ACAD_REACTORS
330
325
102
}
330
325
100
AcDbScale
 70
     0
300
10:1
140
10.0
141
1.0
290
     0
  0
SCALE
  5
336
102
{ACAD_REACTORS
330
325
102
}
330
325
100
AcDbScale
 70
     0
300
100:1
140
100.0
141
1.0
290
     0
  0
SCALE
  5
337
102
{ACAD_REACTORS
330
325
102
}
330
325
100
AcDbScale
 70
     0
300
1/128" = 1'-0"
140
0.007812
141
12.0
290
     0
  0
SCALE
  5
338
102
{ACAD_REACTORS
330
325
102
}
330
325
100
AcDbScale
 70
     0
300
1/64" = 1'-0"
140
0.015625
141
12.0
290
     0
  0
SCALE
  5
339
102
{ACAD_REACTORS
330
325
102
}
330
325
100
AcDbScale
 70
     0
300
1/32" = 1'-0"
140
0.03125
141
12.0
290
     0
  0
SCALE
  5
33A
102
{ACAD_REACTORS
330
325
102
}
330
325
100
AcDbScale
 70
     0
300
1/16" = 1'-0"
140
0.0625
141
12.0
290
     0
  0
SCALE
  5
33B
102
{ACAD_REACTORS
330
325
102
}
330
325
100
AcDbScale
 70
     0
300
3/32" = 1'-0"
140
0.09375
141
12.0
290
     0
  0
SCALE
  5
33C
102
{ACAD_REACTORS
330
325
102
}
330
325
100
AcDbScale
 70
     0
300
1/8" = 1'-0"
140
0.125
141
12.0
290
     0
  0
SCALE
  5
33D
102
{ACAD_REACTORS
330
325
102
}
330
325
100
AcDbScale
 70
     0
300
3/16" = 1'-0"
140
0.1875
141
12.0
290
     0
  0
SCALE
  5
33E
102
{ACAD_REACTORS
330
325
102
}
330
325
100
AcDbScale
 70
     0
300
1/4" = 1'-0"
140
0.25
141
12.0
290
     0
  0
SCALE
  5
33F
102
{ACAD_REACTORS
330
325
102
}
330
325
100
AcDbScale
 70
     0
300
3/8" = 1'-0"
140
0.375
141
12.0
290
     0
  0
SCALE
  5
340
102
{ACAD_REACTORS
330
325
102
}
330
325
100
AcDbScale
 70
     0
300
1/2" = 1'-0"
140
0.5
141
12.0
290
     0
  0
SCALE
  5
341
102
{ACAD_REACTORS
330
325
102
}
330
325
100
AcDbScale
 70
     0
300
3/4" = 1'-0"
140
0.75
141
12.0
290
     0
  0
SCALE
  5
342
102
{ACAD_REACTORS
330
325
102
}
330
325
100
AcDbScale
 70
     0
300
1" = 1'-0"
140
1.0
141
12.0
290
     0
  0
SCALE
  5
343
102
{ACAD_REACTORS
330
325
102
}
330
325
100
AcDbScale
 70
     0
300
1-1/2" = 1'-0"
140
1.5
141
12.0
290
     0
  0
SCALE
  5
344
102
{ACAD_REACTORS
330
325
102
}
330
325
100
AcDbScale
 70
     0
300
3" = 1'-0"
140
3.0
141
12.0
290
     0
  0
SCALE
  5
345
102
{ACAD_REACTORS
330
325
102
}
330
325
100
AcDbScale
 70
     0
300
6" = 1'-0"
140
6.0
141
12.0
290
     0
  0
SCALE
  5
346
102
{ACAD_REACTORS
330
325
102
}
330
325
100
AcDbScale
 70
     0
300
1'-0" = 1'-0"
140
12.0
141
12.0
290
     0
  0
TABLESTYLE
  5
7C6
102
{ACAD_REACTORS
330
7C5
102
}
102
{ACAD_XDICTIONARY
360
139D
102
}
330
7C5
100
AcDbTableStyle
  3
Standard
 70
     0
 71
     8
 40
1.5
 41
1.5
280
     0
281
     0
  7
STANDARD
140
4.5
170
     2
 62
     0
 63
   257
283
     0
 90
        4
 91
        0
  1

274
    -2
284
     1
 64
     0
275
    -2
285
     1
 65
     0
276
    -2
286
     1
 66
     0
277
    -2
287
     1
 67
     0
278
    -2
288
     1
 68
     0
279
    -2
289
     1
 69
     0
  7
STANDARD
140
6.0
170
     5
 62
     0
 63
   257
283
     0
 90
        4
 91
        0
  1

274
    -2
284
     1
 64
     0
275
    -2
285
     1
 65
     0
276
    -2
286
     1
 66
     0
277
    -2
287
     1
 67
     0
278
    -2
288
     1
 68
     0
279
    -2
289
     1
 69
     0
  7
STANDARD
140
4.5
170
     5
 62
     0
 63
   257
283
     0
 90
        4
 91
        0
  1

274
    -2
284
     1
 64
     0
275
    -2
285
     1
 65
     0
276
    -2
286
     1
 66
     0
277
    -2
287
     1
 67
     0
278
    -2
288
     1
 68
     0
279
    -2
289
     1
 69
     0
  0
VISUALSTYLE
  5
34C
102
{ACAD_REACTORS
330
347
102
}
102
{ACAD_XDICTIONARY
360
139F
102
}
330
347
100
AcDbVisualStyle
  2
2dWireframe
 70
     4
 71
     0
 72
     2
 73
     0
 90
        0
 40
0.6
 41
30.0
 62
     5
 63
     7
 74
     1
 91
        4
 64
     7
 65
   257
 75
     1
175
     1
 42
1.0
 92
        0
 66
   257
 43
1.0
 76
     1
 77
     6
 78
     2
 67
     7
 79
     5
170
     0
171
     0
290
     0
174
     0
 93
        1
 44
0.0
173
     0
291
     0
 45
0.0
  0
VISUALSTYLE
  5
34F
102
{ACAD_REACTORS
330
347
102
}
102
{ACAD_XDICTIONARY
360
13A1
102
}
330
347
100
AcDbVisualStyle
  2
Basic
 70
     7
 71
     1
 72
     0
 73
     1
 90
        0
 40
0.6
 41
30.0
 62
     5
 63
     7
 74
     0
 91
        4
 64
     7
 65
   257
 75
     1
175
     1
 42
1.0
 92
        8
 66
     7
 43
1.0
 76
     1
 77
     6
 78
     2
 67
     7
 79
     5
170
     0
171
     0
290
     0
174
     0
 93
        1
 44
0.0
173
     0
291
     1
 45
0.0
  0
VISUALSTYLE
  5
353
102
{ACAD_REACTORS
330
347
102
}
102
{ACAD_XDICTIONARY
360
13A3
102
}
330
347
100
AcDbVisualStyle
  2
Brighten
 70
    12
 71
     2
 72
     2
 73
     0
 90
        0
 40
0.6
 41
30.0
 62
     5
 63
     7
 74
     1
 91
        4
 64
     7
 65
   257
 75
     1
175
     1
 42
1.0
 92
        8
 66
     7
 43
1.0
 76
     1
 77
     6
 78
     2
 67
     7
 79
     5
170
     0
171
     0
290
     0
174
     0
 93
        1
 44
50.0
173
     0
291
     1
 45
0.0
  0
VISUALSTYLE
  5
357
102
{ACAD_REACTORS
330
347
102
}
102
{ACAD_XDICTIONARY
360
13A5
102
}
330
347
100
AcDbVisualStyle
  2
ColorChange
 70
    16
 71
     2
 72
     2
 73
     3
 90
        0
 40
0.6
 41
30.0
 62
     5
 63
     8
 74
     1
 91
        4
 64
     7
 65
   257
 75
     1
175
     1
 42
1.0
 92
        8
 66
     8
 43
1.0
 76
     1
 77
     6
 78
     2
 67
     7
 79
     5
170
     0
171
     0
290
     0
174
     0
 93
        1
 44
0.0
173
     0
291
     1
 45
0.0
  0
VISUALSTYLE
  5
351
102
{ACAD_REACTORS
330
347
102
}
102
{ACAD_XDICTIONARY
360
13A7
102
}
330
347
100
AcDbVisualStyle
  2
Conceptual
 70
     9
 71
     3
 72
     2
 73
     0
 90
        0
 40
0.6
 41
30.0
 62
     5
 63
     7
 74
     2
 91
        2
 64
     7
 65
   257
 75
     1
175
     1
 42
179.0
 92
        8
 66
     7
 43
1.0
 76
     1
 77
     6
 78
     2
 67
     7
 79
     3
170
     0
171
     0
290
     0
174
     0
 93
        1
 44
0.0
173
     0
291
     0
 45
0.0
  0
VISUALSTYLE
  5
352
102
{ACAD_REACTORS
330
347
102
}
102
{ACAD_XDICTIONARY
360
13A9
102
}
330
347
100
AcDbVisualStyle
  2
Dim
 70
    11
 71
     2
 72
     2
 73
     0
 90
        0
 40
0.6
 41
30.0
 62
     5
 63
     7
 74
     1
 91
        4
 64
     7
 65
   257
 75
     1
175
     1
 42
1.0
 92
        8
 66
     7
 43
1.0
 76
     1
 77
     6
 78
     2
 67
     7
 79
     5
170
     0
171
     0
290
     0
174
     0
 93
        1
 44
-50.0
173
     0
291
     1
 45
0.0
  0
VISUALSTYLE
  5
35A
102
{ACAD_REACTORS
330
347
102
}
102
{ACAD_XDICTIONARY
360
13AB
102
}
330
347
100
AcDbVisualStyle
  2
EdgeColorOff
 70
    22
 71
     2
 72
     2
 73
     0
 90
        0
 40
0.6
 41
30.0
 62
     5
 63
     7
 74
     1
 91
        4
 64
     7
 65
   257
 75
     1
175
     1
 42
1.0
 92
        8
 66
     7
 43
1.0
 76
     1
 77
     6
 78
     2
 67
     7
 79
     5
170
     0
171
     0
290
     0
174
     0
 93
        1
 44
0.0
173
     0
291
     1
 45
0.0
  0
VISUALSTYLE
  5
356
102
{ACAD_REACTORS
330
347
102
}
102
{ACAD_XDICTIONARY
360
13AD
102
}
330
347
100
AcDbVisualStyle
  2
Facepattern
 70
    15
 71
     2
 72
     2
 73
     0
 90
        0
 40
0.6
 41
30.0
 62
     5
 63
     7
 74
     1
 91
        4
 64
     7
 65
   257
 75
     1
175
     1
 42
1.0
 92
        8
 66
     7
 43
1.0
 76
     1
 77
     6
 78
     2
 67
     7
 79
     5
170
     0
171
     0
290
     0
174
     0
 93
        1
 44
0.0
173
     0
291
     1
 45
0.0
  0
VISUALSTYLE
  5
348
102
{ACAD_REACTORS
330
347
102
}
102
{ACAD_XDICTIONARY
360
13AF
102
}
330
347
100
AcDbVisualStyle
  2
Flat
 70
     0
 71
     2
 72
     1
 73
     1
 90
        2
 40
0.6
 41
30.0
 62
     5
 63
     7
 74
     0
 91
        0
 64
     7
 65
   257
 75
     1
175
     1
 42
1.0
 92
        8
 66
     7
 43
1.0
 76
     1
 77
     6
 78
     2
 67
     7
 79
     5
170
     0
171
     0
290
     0
174
     0
 93
       13
 44
0.0
173
     0
291
     1
 45
0.0
  0
VISUALSTYLE
  5
349
102
{ACAD_REACTORS
330
347
102
}
102
{ACAD_XDICTIONARY
360
13B1
102
}
330
347
100
AcDbVisualStyle
  2
FlatWithEdges
 70
     1
 71
     2
 72
     1
 73
     1
 90
        2
 40
0.6
 41
30.0
 62
     5
 63
     7
 74
     1
 91
        0
 64
     7
 65
   257
 75
     1
175
     1
 42
1.0
 92
        0
 66
   257
 43
1.0
 76
     1
 77
     6
 78
     2
 67
     7
 79
     5
170
     0
171
     0
290
     0
174
     0
 93
       13
 44
0.0
173
     0
291
     1
 45
0.0
  0
VISUALSTYLE
  5
34A
102
{ACAD_REACTORS
330
347
102
}
102
{ACAD_XDICTIONARY
360
13B3
102
}
330
347
100
AcDbVisualStyle
  2
Gouraud
 70
     2
 71
     2
 72
     2
 73
     1
 90
        2
 40
0.6
 41
30.0
 62
     5
 63
     7
 74
     0
 91
        0
 64
     7
 65
   257
 75
     1
175
     1
 42
1.0
 92
        0
 66
     7
 43
1.0
 76
     1
 77
     6
 78
     2
 67
     7
 79
     5
170
     0
171
     0
290
     0
174
     0
 93
       13
 44
0.0
173
     0
291
     1
 45
0.0
  0
VISUALSTYLE
  5
34B
102
{ACAD_REACTORS
330
347
102
}
102
{ACAD_XDICTIONARY
360
13B5
102
}
330
347
100
AcDbVisualStyle
  2
GouraudWithEdges
 70
     3
 71
     2
 72
     2
 73
     1
 90
        2
 40
0.6
 41
30.0
 62
     5
 63
     7
 74
     1
 91
        0
 64
     7
 65
   257
 75
     1
175
     1
 42
1.0
 92
        0
 66
   257
 43
1.0
 76
     1
 77
     6
 78
     2
 67
     7
 79
     5
170
     0
171
     0
290
     0
174
     0
 93
       13
 44
0.0
173
     0
291
     1
 45
0.0
  0
VISUALSTYLE
  5
34E
102
{ACAD_REACTORS
330
347
102
}
102
{ACAD_XDICTIONARY
360
13B7
102
}
330
347
100
AcDbVisualStyle
  2
Hidden
 70
     6
 71
     1
 72
     2
 73
     2
 90
        0
 40
0.6
 41
30.0
 62
     5
 63
     7
 74
     2
 91
        2
 64
     7
 65
   257
 75
     2
175
     1
 42
40.0
 92
        0
 66
   257
 43
1.0
 76
     1
 77
     6
 78
     2
 67
     7
 79
     3
170
     0
171
     0
290
     0
174
     0
 93
        1
 44
0.0
173
     0
291
     0
 45
0.0
  0
VISUALSTYLE
  5
358
102
{ACAD_REACTORS
330
347
102
}
102
{ACAD_XDICTIONARY
360
13B9
102
}
330
347
100
AcDbVisualStyle
  2
JitterOff
 70
    20
 71
     2
 72
     2
 73
     0
 90
        0
 40
0.6
 41
30.0
 62
     5
 63
     7
 74
     1
 91
        4
 64
     7
 65
   257
 75
     1
175
     1
 42
1.0
 92
       10
 66
     7
 43
1.0
 76
     1
 77
     6
 78
     2
 67
     7
 79
     5
170
     0
171
     0
290
     0
174
     0
 93
        1
 44
0.0
173
     0
291
     1
 45
0.0
  0
VISUALSTYLE
  5
355
102
{ACAD_REACTORS
330
347
102
}
102
{ACAD_XDICTIONARY
360
13BB
102
}
330
347
100
AcDbVisualStyle
  2
Linepattern
 70
    14
 71
     2
 72
     2
 73
     0
 90
        0
 40
0.6
 41
30.0
 62
     5
 63
     7
 74
     1
 91
        4
 64
     7
 65
   257
 75
     7
175
     7
 42
1.0
 92
        8
 66
     7
 43
1.0
 76
     1
 77
     6
 78
     2
 67
     7
 79
     5
170
     0
171
     0
290
     0
174
     0
 93
        1
 44
0.0
173
     0
291
     1
 45
0.0
  0
VISUALSTYLE
  5
359
102
{ACAD_REACTORS
330
347
102
}
102
{ACAD_XDICTIONARY
360
13BD
102
}
330
347
100
AcDbVisualStyle
  2
OverhangOff
 70
    21
 71
     2
 72
     2
 73
     0
 90
        0
 40
0.6
 41
30.0
 62
     5
 63
     7
 74
     1
 91
        4
 64
     7
 65
   257
 75
     1
175
     1
 42
1.0
 92
        9
 66
     7
 43
1.0
 76
     1
 77
     6
 78
     2
 67
     7
 79
     5
170
     0
171
     0
290
     0
174
     0
 93
        1
 44
0.0
173
     0
291
     1
 45
0.0
  0
VISUALSTYLE
  5
350
102
{ACAD_REACTORS
330
347
102
}
102
{ACAD_XDICTIONARY
360
13BF
102
}
330
347
100
AcDbVisualStyle
  2
Realistic
 70
     8
 71
     2
 72
     3
 73
     0
 90
        2
 40
0.6
 41
30.0
 62
     5
 63
     7
 74
     0
 91
        0
 64
     7
 65
   257
 75
     1
175
     1
 42
1.0
 92
        8
 66
   257
 43
1.0
 76
     1
 77
     6
 78
     2
 67
     7
 79
     3
170
     0
171
     0
290
     0
174
     0
 93
       13
 44
0.0
173
     0
291
     0
 45
0.0
  0
VISUALSTYLE
  5
35F
102
{ACAD_REACTORS
330
347
102
}
102
{ACAD_XDICTIONARY
360
13C1
102
}
330
347
100
AcDbVisualStyle
  2
Shaded
 70
    27
 71
     2
 72
     2
 73
     1
 90
        2
 40
0.6
 41
30.0
 62
     5
 63
     7
 74
     0
 91
        4
 64
     7
 65
   257
 75
     1
175
     1
 42
1.0
 92
        8
 66
   257
 43
1.0
 76
     1
 77
     6
 78
     2
 67
     8
 79
     3
170
     0
171
     0
290
     0
174
     0
 93
        5
 44
0.0
173
     0
291
     0
 45
0.0
  0
VISUALSTYLE
  5
6E2
102
{ACAD_REACTORS
330
347
102
}
102
{ACAD_XDICTIONARY
360
13C3
102
}
330
347
100
AcDbVisualStyle
  2
Shaded with edges
 70
    26
 71
     2
 72
     2
 73
     1
 90
        2
 40
0.6
 41
30.0
 62
     5
 63
     7
 74
     1
 91
       10
 64
     7
 65
   257
 75
     2
175
     1
 42
1.0
 92
        8
 66
   257
 43
1.0
 76
     1
 77
     6
 78
     2
 67
     7
 79
     3
170
     0
171
     0
290
     0
174
     0
 93
        5
 44
0.0
173
     0
291
     0
 45
0.0
  0
VISUALSTYLE
  5
35E
102
{ACAD_REACTORS
330
347
102
}
102
{ACAD_XDICTIONARY
360
13C5
102
}
330
347
100
AcDbVisualStyle
  2
Shaded with edges
 70
    26
 71
     2
 72
     2
 73
     1
 90
        2
 40
0.6
 41
30.0
 62
     5
 63
     7
 74
     1
 91
       10
 64
     7
 65
   257
 75
     2
175
     1
 42
1.0
 92
        8
 66
   257
 43
1.0
 76
     1
 77
     6
 78
     2
 67
     7
 79
     3
170
     0
171
     0
290
     0
174
     0
 93
        5
 44
0.0
173
     0
291
     0
 45
0.0
  0
VISUALSTYLE
  5
5C8
102
{ACAD_REACTORS
330
347
102
}
102
{ACAD_XDICTIONARY
360
13C7
102
}
330
347
100
AcDbVisualStyle
  2
Shaded with edges
 70
    26
 71
     2
 72
     2
 73
     1
 90
        2
 40
0.6
 41
30.0
 62
     5
 63
     7
 74
     1
 91
       10
 64
     7
 65
   257
 75
     2
175
     1
 42
1.0
 92
        8
 66
   257
 43
1.0
 76
     1
 77
     6
 78
     2
 67
     7
 79
     3
170
     0
171
     0
290
     0
174
     0
 93
        5
 44
0.0
173
     0
291
     0
 45
0.0
  0
VISUALSTYLE
  5
6E1
102
{ACAD_REACTORS
330
347
102
}
102
{ACAD_XDICTIONARY
360
13C9
102
}
330
347
100
AcDbVisualStyle
  2
Shades of Gray
 70
    23
 71
     2
 72
     2
 73
     3
 90
        0
 40
0.6
 41
30.0
 62
     5
 63
     7
 74
     2
 91
        2
 64
     7
 65
     7
 75
     1
175
     1
 42
40.0
 92
        8
 66
     7
 43
1.0
 76
     1
 77
     6
 78
     2
 67
     7
 79
     3
170
     0
171
     0
290
     0
174
     0
 93
        1
 44
0.0
173
     0
291
     0
 45
0.0
  0
VISUALSTYLE
  5
35B
102
{ACAD_REACTORS
330
347
102
}
102
{ACAD_XDICTIONARY
360
13CB
102
}
330
347
100
AcDbVisualStyle
  2
Shades of Gray
 70
    23
 71
     2
 72
     2
 73
     3
 90
        0
 40
0.6
 41
30.0
 62
     5
 63
     7
 74
     2
 91
        2
 64
     7
 65
     7
 75
     1
175
     1
 42
40.0
 92
        8
 66
     7
 43
1.0
 76
     1
 77
     6
 78
     2
 67
     7
 79
     3
170
     0
171
     0
290
     0
174
     0
 93
        1
 44
0.0
173
     0
291
     0
 45
0.0
  0
VISUALSTYLE
  5
5C7
102
{ACAD_REACTORS
330
347
102
}
102
{ACAD_XDICTIONARY
360
13CD
102
}
330
347
100
AcDbVisualStyle
  2
Shades of Gray
 70
    23
 71
     2
 72
     2
 73
     3
 90
        0
 40
0.6
 41
30.0
 62
     5
 63
     7
 74
     2
 91
        2
 64
     7
 65
     7
 75
     1
175
     1
 42
40.0
 92
        8
 66
     7
 43
1.0
 76
     1
 77
     6
 78
     2
 67
     7
 79
     3
170
     0
171
     0
290
     0
174
     0
 93
        1
 44
0.0
173
     0
291
     0
 45
0.0
  0
VISUALSTYLE
  5
35C
102
{ACAD_REACTORS
330
347
102
}
102
{ACAD_XDICTIONARY
360
13CF
102
}
330
347
100
AcDbVisualStyle
  2
Sketchy
 70
    24
 71
     1
 72
     2
 73
     2
 90
        0
 40
0.6
 41
30.0
 62
     5
 63
     7
 74
     2
 91
        2
 64
     7
 65
     7
 75
     1
175
     1
 42
40.0
 92
       11
 66
     7
 43
1.0
 76
     1
 77
     6
 78
     2
 67
     7
 79
     6
170
     0
171
     0
290
     0
174
     0
 93
        1
 44
0.0
173
     0
291
     0
 45
0.0
  0
VISUALSTYLE
  5
354
102
{ACAD_REACTORS
330
347
102
}
102
{ACAD_XDICTIONARY
360
13D1
102
}
330
347
100
AcDbVisualStyle
  2
Thicken
 70
    13
 71
     2
 72
     2
 73
     0
 90
        0
 40
0.6
 41
30.0
 62
     5
 63
     7
 74
     1
 91
        4
 64
     7
 65
   257
 75
     1
175
     1
 42
1.0
 92
       12
 66
     7
 43
1.0
 76
     1
 77
     6
 78
     2
 67
     7
 79
     5
170
     0
171
     0
290
     0
174
     0
 93
        1
 44
0.0
173
     0
291
     1
 45
0.0
  0
VISUALSTYLE
  5
34D
102
{ACAD_REACTORS
330
347
102
}
102
{ACAD_XDICTIONARY
360
13D3
102
}
330
347
100
AcDbVisualStyle
  2
Wireframe
 70
     5
 71
     0
 72
     2
 73
     0
 90
        0
 40
0.6
 41
30.0
 62
     5
 63
     7
 74
     1
 91
        4
 64
     7
 65
   257
 75
     1
175
     1
 42
1.0
 92
        0
 66
   257
 43
1.0
 76
     1
 77
     6
 78
     2
 67
     7
 79
     3
170
     0
171
     0
290
     0
174
     0
 93
        1
 44
0.0
173
     0
291
     0
 45
0.0
  0
VISUALSTYLE
  5
35D
102
{ACAD_REACTORS
330
347
102
}
102
{ACAD_XDICTIONARY
360
13D5
102
}
330
347
100
AcDbVisualStyle
  2
X-Ray
 70
    25
 71
     2
 72
     2
 73
     1
 90
        1
 40
0.5
 41
30.0
 62
     5
 63
     7
 74
     1
 91
        0
 64
     7
 65
   257
 75
     1
175
     1
 42
1.0
 92
        8
 66
     7
 43
1.0
 76
     1
 77
     6
 78
     2
 67
     7
 79
     3
170
     0
171
     0
290
     0
174
     0
 93
       13
 44
0.0
173
     0
291
     0
 45
0.0
  0
DICTIONARYVAR
  5
7C7
102
{ACAD_REACTORS
330
38D
102
}
330
38D
100
DictionaryVariables
280
     0
  1
1:1
  0
DICTIONARYVAR
  5
392
102
{ACAD_REACTORS
330
38D
102
}
330
38D
100
DictionaryVariables
280
     0
  1
2
  0
DICTIONARYVAR
  5
393
102
{ACAD_REACTORS
330
38D
102
}
330
38D
100
DictionaryVariables
280
     0
  1
1
  0
DICTIONARYVAR
  5
38F
102
{ACAD_REACTORS
330
38D
102
}
330
38D
100
DictionaryVariables
280
     0
  1
0
  0
DICTIONARYVAR
  5
106A
102
{ACAD_REACTORS
330
38D
102
}
330
38D
100
DictionaryVariables
280
     0
  1
0
  0
CSACDOCUMENTOPTIONS
  5
C50
102
{ACAD_REACTORS
330
C4F
102
}
330
C4F
  0
XRECORD
  5
36C
102
{ACAD_REACTORS
330
360
102
}
330
360
100
AcDbXrecord
280
     1
300
MC_VERSION_DATA
 90
       95
310
0600000002000000570000001C000000E404000000000000000000007801936764E5D8CF7A8393818115C460606066E0646662626666706006F214793899F8DE3171E725E6E53B3BBA2878E6951050AF75FEFFFFFF520032DE0F3057000000
  0
XRECORD
  5
361
102
{ACAD_REACTORS
330
360
102
}
330
360
100
AcDbXrecord
280
     1
300
MCS_DOCUMENT_ID
 90
       60
310
0600000002000000150000001C000000E404000000000000000000007801E3D55DCFF3472857DE7F9D4D6CD05775FED3FF81000058B30A6A15000000
  0
XRECORD
  5
36B
102
{ACAD_REACTORS
330
360
102
}
330
360
100
AcDbXrecord
280
     1
300
MCS_PARAMS_DATA
 90
     3313
310
0600000002000000F64B00001C000000E404000000000000000000007801C55C5B6C5CC519DE9D595FD6B9DF494B53970A1A6F4A58DF92A6426A1A1210527090E23EF0543976A2BA75E25CAC160A6DA92AF5A55255A96AD556551F4A49A0CF15A03EC0438190865E482021147221409310B6900B3826B1FB7F7366CEFC73E6
310
1CAFBDDE3D9B07D8FF3F73CEF7DFE6FB67E6ECBA757EA3143929F767A4FCCE8636299AA49C90529036BB402C105929F279912F89C6DEAF6FD8BC69AB14A46C51EAC2B9898909BA39945F872C1FCD848A834A91A13B1AD51D6D5266E8A9FAF627E9AABE92BD45CA6F03BD81A3CFC24D59D990C96408C7E066656E0232E13A03
310
14B0AB01724443F05CC3F08780DFC8F19B03FC710A073DC8486413411B49060E3311A05C24C45064703B01D7CCE196A818E5C59C9268B967CBD6DED68ED59DC52EEB78BEF08E09F8223D745649346F1DE9DB35D0B777C089FC5FC3C8EB60BF1A286CF47FE3467F17CC59C5CD990B0CD948C1A77FB9F5CA0E4F479188EA541E
310
3C25A2E22BC99C8892456878B2821857F6B05492C2AD881B41409C21325211340605C9C6DC6006EC49AC088A0CCBB25B1159B72248E415019155047D5453031360047082A7405D92B72AB0F03379693EAB50870260AC609E2C6F6510BB3D081DFE4EF5EFECD71494A7B3590EC7F12C5B25CB32539229914732934ECE22AF1D
310
D259AC8B7B7649E437DE7BDFA69EADF76EE95186E95A7ED74C032DBFA66A9BF1CEF341B19B78E45DDED9EF56FE29189043E4814BF734E1FF34659991678231F23A51010DA578E8294D435524988818E84710A7B2643B4F7C134F5CC6936D1E4176D01398C4D0A83AE0A6BDC86B0BB5C3E1E8299D70A5A945AC12322FE697C4
310
9C8DC3BBBE34D2BA77FBEEA1BEFEED79D15C120DF70F0FEE1A093EF60C8FF47F4BCAB3B0ED666EDB17F5733E2B445B5E2C298985C507BB8BEBBA3A3A3774178B1D777FA5B36B9D327BBE1ED84C030BC74C9EDAB5B64D88BC405AEF1E1CD9D73A34B88F70838775AD5DDBD1B9B6BBABBB73A0ABA37F5D7BE0E757F57D1DB80F
310
037BFBB60D6D6F1DDED1DA3B3CB47D6FDF2EF8A0AD5933506CEF2FF6F7ADD9D6B56D5DFF9A60D6A95222FF670B51F8295953F8455019945B7EE9315C7A8AFEC352DE9D4B4A5050256AA6D1B42D5F0C265BEED4473538E9811F770DEFDCDD3732B86D706870E4A1D69DC303E45F6349C807B6EFCB8B8692103DC352AE816545
310
9E9E798813B5E9A692C86DD9B1A355A5424F8E0BF018466AF90D150136590E2905AA568F782650907D5A7180140B84AD0159F8156902B8F63BDA8BE1A72E29AF48322EA98B5F578631B6F5489B26184C63434803DB221A328E6B58DEAED6DB808FEB6DC068BD0DF8A4DE065CABB7018B3045EB390B3EAD7704C6EA6DC07518
310
10B79C17773A0DB6C361F03BDD064B22C8C7303844629E5064B47323116EB9039777E096BB70247238880C6E39831B9F221C81B3E543C57019D4736C30574EE2DD4AD73B12B9771099772B997713E97A974DF4CECD5D9582B938116EC00926492C777A7F676A8F441E4C882C98032C983211AE26DE8974E196022EC7174366
310
F9AE62C95769E105B5C4B012E2E82ED8CD3516C5E34D519CF0D1F6765A8551C6CC0505130A3E8ABEC46EF81CED54DC1DA04AB7BC4DB0CA082453194AB29B82400C2B438BA6322032B88FE093B3E13470C11297490C8EEF78E88158D51A8AD42283A38F61044E78707A57F8BBDFE2DF2167F36975041D1DA7FCF59430C35792
310
05112533A905D5D3CAAB4759DBB4CA160F3E9309466F934A1794E7E1154C402D3088858048DCDF7EA3E7FECD5B7A7B376D5480CBF43A7E5E49CCBE6BEB37D945B2402FC65F52AB73B67E7F3A58AE93F37A04F6B7011D680556EBCCA2819BC8A21C320F385BBDB4EE56E6E32CE2CB18E358AD7676B4C7C096B1674BAF7B1278
310
1E906198B0DF8681EA696AF34D20563061CAB731C0DB01185B8B0DCA46538BD880EB0E2C6FC3120B40E62289BC162112587895C11513E18290E892090EBF46A9321968C513E0BB89A0AE8F2431B88A7DFC9E07A7BD0A8E668E3AF3CDEA083A3A8ECFB770A00AB53712018F2859D8DB3D93C2E4D422CB77A40BB73A5DB807A7
310
0857A5727AC8838BE45965D0D3D5B29CBEEF99145F4E558AC0C3E9C23D922EDC0FD285FBA107E7958EEDE721E98018A3E3AAC64E7F5C166D7ABA81B65C437BB31D766C74A6ED6E1FBC2766B7AFDAD87156F9771BF44A2A724C461AB43EE729AAFB710D63E2111810BBA3ABC9AE6037E09AB9BF3AB40BE8309F8736AB64CAB2
310
BE7E3364E5AC569CA6976081AF5A311628A8EF68C5B3A4609E3E86AC3AA156E3E83562F4B5A292099A878C61EB3B549CF92354989982613F016CE7AD5A4D09AA1F5126387AAD451EE384D9C035A925859E39C1AA865EE9A9B8DA21CEE289167F7CF1D4C4BC7A125EC5AED5D8BB0B5A9D9144D134CFA71BF85A8D44BE568348
310
F6AA55A2F3CAEACF6982FD29118CC249D3CBF852A586F278BA70FBD3853B90085793EDE51E143F0AD06C6B4CB2242BDDBDD1419166C2865E85F9CE1648F3CBF54B2E655D5432557AB8C599EEE6E763403914E55050D879E2BFFA30F366F009F0CB378371CA9B99D05949929DD07465EA8797A3808B6B06B9536E64AF9C844C
310
903AF2F3709D3783A318A078E4F37AEBBCEC2DD1B228B722F785DC2DB9D64C476675A63353CC74E937B1FA39BFA7DB58A6AFC19E49583A4A9B6110A6BA038D3C80418F79D091B18A763C1D8524AA5361F194EC4CC4B23EDBA3192533E95398E41423EB6DCA1C239B4DBF91D13F6D762A6897D7013D496371DC8BECCAA7D45E
310
0C251095ABC98AA38E1B6540CD3DACF829EF15C38D27C2B92DA64A071D13897001094F16523EC1C9E5A99FF465029665AB5B13C49AF8984D174EA40B273D389D33BB29A272F6749622C2719C22AC925104534E7A8CF33714555C6B3CF3BE4BE0AF28994CA9B8353E0F28878DD26D8D2F007FBAAD11BD305CEB4EAB35BE08B8
310
B8D678FEB81BD9134AB6ADF10A644BBEF9C2334A81E4EAA6772450D87DD2AF49C178F020A0EBD3055FF292CC5B8AB3FC4114C86BA708ACDB15F49C43C04EBBE7FCBD0CA8A1CB2AF59CC3897035E1E39713E16AD873FE91085A131FFF19C04DBEDBF8D75406FD3B3A2842E56C8ABE82A171BC3BF89ECB0E0F287926BC7B0450
310
75E4DDA3C09F2EEF56BE2579157071BCBBE7881BD93E255BDE7D04B225A07C61BD5230DE1DBA8C1158736B225E412358525F03747D78F79897E472BCCBAF5BAF2BA0DDE3804E9B765F2F035A65DA3D910857134A7A2311AE52DA8D6E0E9C1341735A873DD47F12A16BE2E99BE9C275792B70532835F1AEDB838B7404B509F7
310
74C449519D9AA19EB28205FF5B08785CE3F9307262735AC933693C270155C7C6730AF8E9359ED3808B6B3CA387DDC6734EC9B6F1C897238DE72006D89713F9C2E58B91C6F3388D608DE70CA0A7DA7866D30F8008DC16BEAA2D26A2AAB848F4108A0CF46D0F54D7A73989E2C56D75B6B8431D2F6EAB64C5CD94644C04869974
310
1626C5B6A280378D1BEE62BCE2C3917700E714386FAA719B1D7E7D464DF7DD444F8317374E8CAA75BEF65E19D0F8F0523EC21D7470DCC60B8CAEF29753FC38EF4760CFDBF99B4673F680D0869F6742513F06849341B61DF57EE3400A02734628D75C0DBC8B68A868B98655ECA330208EA3C6F1B52E3DF1E8849E2433679564
310
431A886148B568E62C4406F75F64308EFD2F9D7039EA6D259B5B2BF91AD8396F72B01004EFC5CD6C88F911E8CCDF849C077E5C64E9488747967101058B73015D99FA9B900B808B63FFB117DCC85E50324556799F2F34BC086EC70CD18A4318C0D9FF2AB6807CDB718046B0A4BE0FE8B4D9FFA207EA504E3D7E65FA014C7226
310
B329B0E8D703AAFEBAA304E869379E693123CD68457958A4FF2F11AE86ECFF6119D078F6E7138AD87FF2370F86D6E1E34789702D76FED2134932CCA824CB8C811832A3160D33426421BD940847AF6F0C11D33DEECB1CFE9B7175D1F926045DE5BD8DBFBDBE9C081764D0049324E6DDB40A8607F34A225C4D16463974B5B836
310
F3B3A32E193EACE499B49986C93A780A6DA631A981D7A6CD34012EAECDFCF23937B23F51B26D337F80CCDBCC36A5C0ECD07DE7E7A7236D663D8D6033A419D0536D33E07F56B8C4CA7C0D48229F9610695A461A0883CE7B494E8DD95B004DF38E8247AB09FE45AC1A52EDAC32A0861DD8DA85D8A76276989D08579353913989
310
700119397510D9BB4CAB9DF096393711B4263ECE4B176E7EBA700B3C389DB3F0B5335AA6A7234288EA142D784A9083AFB414616018456CF64C3293C4CD2F49D3E5A5F0410CEE3E0F2E6A6FEA11580893E29AEE529C2FC11C4DF48D4AA628982DB44A422820F8563073C8F989CF2240392BED74F7768B819FDEDE6E09E0E29A
310
EE0AFA030B3CB273954C91D5916E83CC9BEE074FAB1E6B73B11CFB6CBEB73B4C23589D2D05F4CC9AAE2E4C768646F0614DBB4BD40606BDCC4B726A4DF72640A7DD749797013521AB4ED3C5971C1BF2225712D922FD192CAA82F186C253F467B664EED8B163100EA1787299890C1D4314EEF90B040C236113FD72905624B8F0
310
99FF03A92412CEF64B0000
  0
DICTIONARY
  5
139D
330
7C6
100
AcDbDictionary
280
     1
281
     1
  3
ACAD_ROUNDTRIP_2008_TABLESTYLE_CELLSTYLEMAP
360
139E
  0
DICTIONARY
  5
139F
330
34C
100
AcDbDictionary
280
     1
281
     1
  3
ACAD_XREC_ROUNDTRIP
360
13A0
  0
DICTIONARY
  5
13A1
330
34F
100
AcDbDictionary
280
     1
281
     1
  3
ACAD_XREC_ROUNDTRIP
360
13A2
  0
DICTIONARY
  5
13A3
330
353
100
AcDbDictionary
280
     1
281
     1
  3
ACAD_XREC_ROUNDTRIP
360
13A4
  0
DICTIONARY
  5
13A5
330
357
100
AcDbDictionary
280
     1
281
     1
  3
ACAD_XREC_ROUNDTRIP
360
13A6
  0
DICTIONARY
  5
13A7
330
351
100
AcDbDictionary
280
     1
281
     1
  3
ACAD_XREC_ROUNDTRIP
360
13A8
  0
DICTIONARY
  5
13A9
330
352
100
AcDbDictionary
280
     1
281
     1
  3
ACAD_XREC_ROUNDTRIP
360
13AA
  0
DICTIONARY
  5
13AB
330
35A
100
AcDbDictionary
280
     1
281
     1
  3
ACAD_XREC_ROUNDTRIP
360
13AC
  0
DICTIONARY
  5
13AD
330
356
100
AcDbDictionary
280
     1
281
     1
  3
ACAD_XREC_ROUNDTRIP
360
13AE
  0
DICTIONARY
  5
13AF
330
348
100
AcDbDictionary
280
     1
281
     1
  3
ACAD_XREC_ROUNDTRIP
360
13B0
  0
DICTIONARY
  5
13B1
330
349
100
AcDbDictionary
280
     1
281
     1
  3
ACAD_XREC_ROUNDTRIP
360
13B2
  0
DICTIONARY
  5
13B3
330
34A
100
AcDbDictionary
280
     1
281
     1
  3
ACAD_XREC_ROUNDTRIP
360
13B4
  0
DICTIONARY
  5
13B5
330
34B
100
AcDbDictionary
280
     1
281
     1
  3
ACAD_XREC_ROUNDTRIP
360
13B6
  0
DICTIONARY
  5
13B7
330
34E
100
AcDbDictionary
280
     1
281
     1
  3
ACAD_XREC_ROUNDTRIP
360
13B8
  0
DICTIONARY
  5
13B9
330
358
100
AcDbDictionary
280
     1
281
     1
  3
ACAD_XREC_ROUNDTRIP
360
13BA
  0
DICTIONARY
  5
13BB
330
355
100
AcDbDictionary
280
     1
281
     1
  3
ACAD_XREC_ROUNDTRIP
360
13BC
  0
DICTIONARY
  5
13BD
330
359
100
AcDbDictionary
280
     1
281
     1
  3
ACAD_XREC_ROUNDTRIP
360
13BE
  0
DICTIONARY
  5
13BF
330
350
100
AcDbDictionary
280
     1
281
     1
  3
ACAD_XREC_ROUNDTRIP
360
13C0
  0
DICTIONARY
  5
13C1
330
35F
100
AcDbDictionary
280
     1
281
     1
  3
ACAD_XREC_ROUNDTRIP
360
13C2
  0
DICTIONARY
  5
13C3
330
6E2
100
AcDbDictionary
280
     1
281
     1
  3
ACAD_XREC_ROUNDTRIP
360
13C4
  0
DICTIONARY
  5
13C5
330
35E
100
AcDbDictionary
280
     1
281
     1
  3
ACAD_XREC_ROUNDTRIP
360
13C6
  0
DICTIONARY
  5
13C7
330
5C8
100
AcDbDictionary
280
     1
281
     1
  3
ACAD_XREC_ROUNDTRIP
360
13C8
  0
DICTIONARY
  5
13C9
330
6E1
100
AcDbDictionary
280
     1
281
     1
  3
ACAD_XREC_ROUNDTRIP
360
13CA
  0
DICTIONARY
  5
13CB
330
35B
100
AcDbDictionary
280
     1
281
     1
  3
ACAD_XREC_ROUNDTRIP
360
13CC
  0
DICTIONARY
  5
13CD
330
5C7
100
AcDbDictionary
280
     1
281
     1
  3
ACAD_XREC_ROUNDTRIP
360
13CE
  0
DICTIONARY
  5
13CF
330
35C
100
AcDbDictionary
280
     1
281
     1
  3
ACAD_XREC_ROUNDTRIP
360
13D0
  0
DICTIONARY
  5
13D1
330
354
100
AcDbDictionary
280
     1
281
     1
  3
ACAD_XREC_ROUNDTRIP
360
13D2
  0
DICTIONARY
  5
13D3
330
34D
100
AcDbDictionary
280
     1
281
     1
  3
ACAD_XREC_ROUNDTRIP
360
13D4
  0
DICTIONARY
  5
13D5
330
35D
100
AcDbDictionary
280
     1
281
     1
  3
ACAD_XREC_ROUNDTRIP
360
13D6
  0
CELLSTYLEMAP
  5
139E
102
{ACAD_REACTORS
330
139D
102
}
330
139D
100
AcDbCellStyleMap
 90
        3
300
CELLSTYLE
  1
TABLEFORMAT_BEGIN
 90
        5
170
     1
 91
        0
 92
        0
 62
   257
 93
        1
300
CONTENTFORMAT
  1
CONTENTFORMAT_BEGIN
 90
        0
 91
        0
 92
        4
 93
        0
300

 40
0.0
140
1.0
 94
        5
 62
     0
340
305
144
6.0
309
CONTENTFORMAT_END
171
     1
301
MARGIN
  1
CELLMARGIN_BEGIN
 40
1.5
 40
1.5
 40
1.5
 40
1.5
 40
4.5
 40
4.5
309
CELLMARGIN_END
 94
        6
 95
        1
302
GRIDFORMAT
  1
GRIDFORMAT_BEGIN
 90
        0
 91
        1
 62
     0
 92
       -2
340
307
 93
        0
 40
1.125
309
GRIDFORMAT_END
 95
        2
302
GRIDFORMAT
  1
GRIDFORMAT_BEGIN
 90
        0
 91
        1
 62
     0
 92
       -2
340
307
 93
        0
 40
1.125
309
GRIDFORMAT_END
 95
        4
302
GRIDFORMAT
  1
GRIDFORMAT_BEGIN
 90
        0
 91
        1
 62
     0
 92
       -2
340
307
 93
        0
 40
1.125
309
GRIDFORMAT_END
 95
        8
302
GRIDFORMAT
  1
GRIDFORMAT_BEGIN
 90
        0
 91
        1
 62
     0
 92
       -2
340
307
 93
        0
 40
1.125
309
GRIDFORMAT_END
 95
       16
302
GRIDFORMAT
  1
GRIDFORMAT_BEGIN
 90
        0
 91
        1
 62
     0
 92
       -2
340
307
 93
        0
 40
1.125
309
GRIDFORMAT_END
 95
       32
302
GRIDFORMAT
  1
GRIDFORMAT_BEGIN
 90
        0
 91
        1
 62
     0
 92
       -2
340
307
 93
        0
 40
1.125
309
GRIDFORMAT_END
309
TABLEFORMAT_END
  1
CELLSTYLE_BEGIN
 90
        1
 91
        1
300
_TITLE
309
CELLSTYLE_END
300
CELLSTYLE
  1
TABLEFORMAT_BEGIN
 90
        5
170
     1
 91
        0
 92
        0
 62
   257
 93
        1
300
CONTENTFORMAT
  1
CONTENTFORMAT_BEGIN
 90
        0
 91
        0
 92
        4
 93
        0
300

 40
0.0
140
1.0
 94
        5
 62
     0
340
305
144
4.5
309
CONTENTFORMAT_END
171
     1
301
MARGIN
  1
CELLMARGIN_BEGIN
 40
1.5
 40
1.5
 40
1.5
 40
1.5
 40
4.5
 40
4.5
309
CELLMARGIN_END
 94
        6
 95
        1
302
GRIDFORMAT
  1
GRIDFORMAT_BEGIN
 90
        0
 91
        1
 62
     0
 92
       -2
340
307
 93
        0
 40
1.125
309
GRIDFORMAT_END
 95
        2
302
GRIDFORMAT
  1
GRIDFORMAT_BEGIN
 90
        0
 91
        1
 62
     0
 92
       -2
340
307
 93
        0
 40
1.125
309
GRIDFORMAT_END
 95
        4
302
GRIDFORMAT
  1
GRIDFORMAT_BEGIN
 90
        0
 91
        1
 62
     0
 92
       -2
340
307
 93
        0
 40
1.125
309
GRIDFORMAT_END
 95
        8
302
GRIDFORMAT
  1
GRIDFORMAT_BEGIN
 90
        0
 91
        1
 62
     0
 92
       -2
340
307
 93
        0
 40
1.125
309
GRIDFORMAT_END
 95
       16
302
GRIDFORMAT
  1
GRIDFORMAT_BEGIN
 90
        0
 91
        1
 62
     0
 92
       -2
340
307
 93
        0
 40
1.125
309
GRIDFORMAT_END
 95
       32
302
GRIDFORMAT
  1
GRIDFORMAT_BEGIN
 90
        0
 91
        1
 62
     0
 92
       -2
340
307
 93
        0
 40
1.125
309
GRIDFORMAT_END
309
TABLEFORMAT_END
  1
CELLSTYLE_BEGIN
 90
        2
 91
        1
300
_HEADER
309
CELLSTYLE_END
300
CELLSTYLE
  1
TABLEFORMAT_BEGIN
 90
        5
170
     1
 91
        0
 92
        0
 62
   257
 93
        1
300
CONTENTFORMAT
  1
CONTENTFORMAT_BEGIN
 90
        0
 91
        0
 92
        4
 93
        0
300

 40
0.0
140
1.0
 94
        2
 62
     0
340
305
144
4.5
309
CONTENTFORMAT_END
171
     1
301
MARGIN
  1
CELLMARGIN_BEGIN
 40
1.5
 40
1.5
 40
1.5
 40
1.5
 40
4.5
 40
4.5
309
CELLMARGIN_END
 94
        6
 95
        1
302
GRIDFORMAT
  1
GRIDFORMAT_BEGIN
 90
        0
 91
        1
 62
     0
 92
       -2
340
307
 93
        0
 40
1.125
309
GRIDFORMAT_END
 95
        2
302
GRIDFORMAT
  1
GRIDFORMAT_BEGIN
 90
        0
 91
        1
 62
     0
 92
       -2
340
307
 93
        0
 40
1.125
309
GRIDFORMAT_END
 95
        4
302
GRIDFORMAT
  1
GRIDFORMAT_BEGIN
 90
        0
 91
        1
 62
     0
 92
       -2
340
307
 93
        0
 40
1.125
309
GRIDFORMAT_END
 95
        8
302
GRIDFORMAT
  1
GRIDFORMAT_BEGIN
 90
        0
 91
        1
 62
     0
 92
       -2
340
307
 93
        0
 40
1.125
309
GRIDFORMAT_END
 95
       16
302
GRIDFORMAT
  1
GRIDFORMAT_BEGIN
 90
        0
 91
        1
 62
     0
 92
       -2
340
307
 93
        0
 40
1.125
309
GRIDFORMAT_END
 95
       32
302
GRIDFORMAT
  1
GRIDFORMAT_BEGIN
 90
        0
 91
        1
 62
     0
 92
       -2
340
307
 93
        0
 40
1.125
309
GRIDFORMAT_END
309
TABLEFORMAT_END
  1
CELLSTYLE_BEGIN
 90
        3
 91
        2
300
_DATA
309
CELLSTYLE_END
  0
XRECORD
  5
13A0
102
{ACAD_REACTORS
330
139F
102
}
330
139F
100
AcDbXrecord
280
     1
102
RTVSPropertyOp0
 70
     1
102
RTVSPropertyOp1
 70
     1
102
RTVSPropertyOp2
 70
     1
102
RTVSPropertyOp3
 70
     1
102
RTVSPropertyOp4
 70
     1
102
RTVSPropertyOp5
 70
     1
102
RTVSPropertyOp6
 70
     1
102
RTVSPropertyOp7
 70
     1
102
RTVSPropertyOp8
 70
     1
102
RTVSPropertyOp9
 70
     1
102
RTVSPropertyOp10
 70
     1
102
RTVSPropertyOp11
 70
     1
102
RTVSPropertyOp12
 70
     1
102
RTVSPropertyOp13
 70
     1
102
RTVSPropertyOp14
 70
     1
102
RTVSPropertyOp15
 70
     1
102
RTVSPropertyOp16
 70
     1
102
RTVSPropertyOp17
 70
     1
102
RTVSPropertyOp18
 70
     1
102
RTVSPropertyOp19
 70
     1
102
RTVSPropertyOp20
 70
     1
102
RTVSPropertyOp21
 70
     1
102
RTVSPropertyOp22
 70
     1
102
RTVSPropertyOp23
 70
     1
102
RTVSPropertyOp24
 70
     1
102
RTVSPropertyOp25
 70
     1
102
RTVSPropertyOp26
 70
     1
102
RTVSPropertyOp27
 70
     1
102
RTVSPropertyOp28
 70
     1
102
RTVSPropertyOp29
 70
     1
102
RTVSPropertyOp30
 70
     1
102
RTVSPropertyOp31
 70
     1
102
RTVSPropertyOp32
 70
     1
102
RTVSPropertyOp33
 70
     1
102
RTVSPropertyOp34
 70
     1
102
RTVSPropertyOp35
 70
     1
102
RTVSPropertyOp36
 70
     1
102
RTVSPropertyOp37
 70
     1
102
RTVSPropertyOp38
 70
     1
102
RTVSPropertyOp39
 70
     1
102
RTVSPropertyOp40
 70
     1
102
RTVSPropertyOp41
 70
     1
102
RTVSPropertyOp42
 70
     1
102
RTVSPropertyOp43
 70
     1
102
RTVSPropertyOp44
 70
     1
102
RTVSPropertyOp45
 70
     1
102
RTVSPropertyOp46
 70
     1
102
RTVSPropertyOp47
 70
     1
102
RTVSPropertyOp48
 70
     1
102
RTVSPropertyOp49
 70
     1
102
RTVSPropertyOp50
 70
     1
102
RTVSPropertyOp51
 70
     0
102
RTVSPropertyOp52
 70
     0
102
RTVSPropertyOp53
 70
     1
102
RTVSPropertyOp54
 70
     1
102
RTVSPropertyOp55
 70
     1
102
RTVSPropertyOp56
 70
     1
102
RTVSPropertyOp57
 70
     1
102
RTVSPost2010Prop28
280
     1
102
RTVSPost2010PropOp28
 70
     1
102
RTVSPost2010Prop29
280
     1
102
RTVSPost2010PropOp29
 70
     1
102
RTVSPost2010Prop30
280
     0
102
RTVSPost2010PropOp30
 70
     1
102
RTVSPost2010Prop31
280
     0
102
RTVSPost2010PropOp31
 70
     1
102
RTVSPost2010Prop32
280
     0
102
RTVSPost2010PropOp32
 70
     1
102
RTVSPost2010Prop33
280
     0
102
RTVSPost2010PropOp33
 70
     1
102
RTVSPost2010Prop34
280
     0
102
RTVSPost2010PropOp34
 70
     1
102
RTVSPost2010Prop35
280
     0
102
RTVSPost2010PropOp35
 70
     1
102
RTVSPost2010Prop36
280
     0
102
RTVSPost2010PropOp36
 70
     1
102
RTVSPost2010Prop37
 90
       50
102
RTVSPost2010PropOp37
 70
     1
102
RTVSPost2010Prop38
140
0.0
102
RTVSPost2010PropOp38
 70
     1
102
RTVSPost2010Prop39
140
1.0
102
RTVSPost2010PropOp39
 70
     1
102
RTVSPost2010Prop40
 90
        0
102
RTVSPost2010PropOp40
 70
     1
102
RTVSPost2010Prop41ColorIndex
 90
       18
102
RTVSPost2010Prop41ColorRGB
 90
        0
102
RTVSPost2010PropOp41
 70
     1
102
RTVSPost2010Prop42
 90
       50
102
RTVSPost2010PropOp42
 70
     1
102
RTVSPost2010Prop43
 90
        3
102
RTVSPost2010PropOp43
 70
     1
102
RTVSPost2010Prop44ColorIndex
 90
        5
102
RTVSPost2010Prop44ColorRGB
 90
      255
102
RTVSPost2010PropOp44
 70
     1
102
RTVSPost2010Prop45
280
     0
102
RTVSPost2010PropOp45
 70
     1
102
RTVSPost2010Prop46
 90
       50
102
RTVSPost2010PropOp46
 70
     1
102
RTVSPost2010Prop47
 90
       50
102
RTVSPost2010PropOp47
 70
     1
102
RTVSPost2010Prop48
 90
       50
102
RTVSPost2010PropOp48
 70
     1
102
RTVSPost2010Prop49
280
     0
102
RTVSPost2010PropOp49
 70
     1
102
RTVSPost2010Prop50
 90
       50
102
RTVSPost2010PropOp50
 70
     1
102
RTVSPost2010Prop51ColorIndex
 90
      256
102
RTVSPost2010Prop51ColorRGB
 90
-16777216
102
RTVSPost2010PropOp51
 70
     0
102
RTVSPost2010Prop52
140
1.0
102
RTVSPost2010PropOp52
 70
     0
102
RTVSPost2010Prop53
 90
        2
102
RTVSPost2010PropOp53
 70
     1
102
RTVSPost2010Prop54
  1
strokes_ogs.tif
102
RTVSPost2010PropOp54
 70
     1
102
RTVSPost2010Prop55
280
     0
102
RTVSPost2010PropOp55
 70
     1
102
RTVSPost2010Prop56
140
1.0
102
RTVSPost2010PropOp56
 70
     1
102
RTVSPost2010Prop57
140
1.0
102
RTVSPost2010PropOp57
 70
     1
  0
XRECORD
  5
13A2
102
{ACAD_REACTORS
330
13A1
102
}
330
13A1
100
AcDbXrecord
280
     1
102
RTVSPropertyOp0
 70
     1
102
RTVSPropertyOp1
 70
     1
102
RTVSPropertyOp2
 70
     1
102
RTVSPropertyOp3
 70
     1
102
RTVSPropertyOp4
 70
     1
102
RTVSPropertyOp5
 70
     1
102
RTVSPropertyOp6
 70
     1
102
RTVSPropertyOp7
 70
     1
102
RTVSPropertyOp8
 70
     1
102
RTVSPropertyOp9
 70
     1
102
RTVSPropertyOp10
 70
     1
102
RTVSPropertyOp11
 70
     1
102
RTVSPropertyOp12
 70
     1
102
RTVSPropertyOp13
 70
     1
102
RTVSPropertyOp14
 70
     1
102
RTVSPropertyOp15
 70
     1
102
RTVSPropertyOp16
 70
     1
102
RTVSPropertyOp17
 70
     1
102
RTVSPropertyOp18
 70
     1
102
RTVSPropertyOp19
 70
     1
102
RTVSPropertyOp20
 70
     1
102
RTVSPropertyOp21
 70
     1
102
RTVSPropertyOp22
 70
     1
102
RTVSPropertyOp23
 70
     1
102
RTVSPropertyOp24
 70
     1
102
RTVSPropertyOp25
 70
     1
102
RTVSPropertyOp26
 70
     1
102
RTVSPropertyOp27
 70
     1
102
RTVSPropertyOp28
 70
     1
102
RTVSPropertyOp29
 70
     1
102
RTVSPropertyOp30
 70
     1
102
RTVSPropertyOp31
 70
     1
102
RTVSPropertyOp32
 70
     1
102
RTVSPropertyOp33
 70
     1
102
RTVSPropertyOp34
 70
     1
102
RTVSPropertyOp35
 70
     1
102
RTVSPropertyOp36
 70
     1
102
RTVSPropertyOp37
 70
     1
102
RTVSPropertyOp38
 70
     1
102
RTVSPropertyOp39
 70
     1
102
RTVSPropertyOp40
 70
     1
102
RTVSPropertyOp41
 70
     1
102
RTVSPropertyOp42
 70
     1
102
RTVSPropertyOp43
 70
     1
102
RTVSPropertyOp44
 70
     1
102
RTVSPropertyOp45
 70
     1
102
RTVSPropertyOp46
 70
     1
102
RTVSPropertyOp47
 70
     1
102
RTVSPropertyOp48
 70
     1
102
RTVSPropertyOp49
 70
     1
102
RTVSPropertyOp50
 70
     1
102
RTVSPropertyOp51
 70
     0
102
RTVSPropertyOp52
 70
     0
102
RTVSPropertyOp53
 70
     1
102
RTVSPropertyOp54
 70
     1
102
RTVSPropertyOp55
 70
     1
102
RTVSPropertyOp56
 70
     1
102
RTVSPropertyOp57
 70
     1
102
RTVSPost2010Prop28
280
     0
102
RTVSPost2010PropOp28
 70
     1
102
RTVSPost2010Prop29
280
     1
102
RTVSPost2010PropOp29
 70
     1
102
RTVSPost2010Prop30
280
     1
102
RTVSPost2010PropOp30
 70
     1
102
RTVSPost2010Prop31
280
     0
102
RTVSPost2010PropOp31
 70
     1
102
RTVSPost2010Prop32
280
     0
102
RTVSPost2010PropOp32
 70
     1
102
RTVSPost2010Prop33
280
     0
102
RTVSPost2010PropOp33
 70
     1
102
RTVSPost2010Prop34
280
     0
102
RTVSPost2010PropOp34
 70
     1
102
RTVSPost2010Prop35
280
     0
102
RTVSPost2010PropOp35
 70
     1
102
RTVSPost2010Prop36
280
     0
102
RTVSPost2010PropOp36
 70
     1
102
RTVSPost2010Prop37
 90
       50
102
RTVSPost2010PropOp37
 70
     1
102
RTVSPost2010Prop38
140
0.0
102
RTVSPost2010PropOp38
 70
     1
102
RTVSPost2010Prop39
140
1.0
102
RTVSPost2010PropOp39
 70
     1
102
RTVSPost2010Prop40
 90
        0
102
RTVSPost2010PropOp40
 70
     1
102
RTVSPost2010Prop41ColorIndex
 90
       18
102
RTVSPost2010Prop41ColorRGB
 90
        0
102
RTVSPost2010PropOp41
 70
     1
102
RTVSPost2010Prop42
 90
       50
102
RTVSPost2010PropOp42
 70
     1
102
RTVSPost2010Prop43
 90
        3
102
RTVSPost2010PropOp43
 70
     1
102
RTVSPost2010Prop44ColorIndex
 90
        5
102
RTVSPost2010Prop44ColorRGB
 90
      255
102
RTVSPost2010PropOp44
 70
     1
102
RTVSPost2010Prop45
280
     0
102
RTVSPost2010PropOp45
 70
     1
102
RTVSPost2010Prop46
 90
       50
102
RTVSPost2010PropOp46
 70
     1
102
RTVSPost2010Prop47
 90
       50
102
RTVSPost2010PropOp47
 70
     1
102
RTVSPost2010Prop48
 90
       50
102
RTVSPost2010PropOp48
 70
     1
102
RTVSPost2010Prop49
280
     0
102
RTVSPost2010PropOp49
 70
     1
102
RTVSPost2010Prop50
 90
       50
102
RTVSPost2010PropOp50
 70
     1
102
RTVSPost2010Prop51ColorIndex
 90
      256
102
RTVSPost2010Prop51ColorRGB
 90
-16777216
102
RTVSPost2010PropOp51
 70
     0
102
RTVSPost2010Prop52
140
1.0
102
RTVSPost2010PropOp52
 70
     0
102
RTVSPost2010Prop53
 90
        2
102
RTVSPost2010PropOp53
 70
     1
102
RTVSPost2010Prop54
  1
strokes_ogs.tif
102
RTVSPost2010PropOp54
 70
     1
102
RTVSPost2010Prop55
280
     0
102
RTVSPost2010PropOp55
 70
     1
102
RTVSPost2010Prop56
140
1.0
102
RTVSPost2010PropOp56
 70
     1
102
RTVSPost2010Prop57
140
1.0
102
RTVSPost2010PropOp57
 70
     1
  0
XRECORD
  5
13A4
102
{ACAD_REACTORS
330
13A3
102
}
330
13A3
100
AcDbXrecord
280
     1
102
RTVSPropertyOp0
 70
     1
102
RTVSPropertyOp1
 70
     1
102
RTVSPropertyOp2
 70
     1
102
RTVSPropertyOp3
 70
     1
102
RTVSPropertyOp4
 70
     1
102
RTVSPropertyOp5
 70
     1
102
RTVSPropertyOp6
 70
     1
102
RTVSPropertyOp7
 70
     1
102
RTVSPropertyOp8
 70
     1
102
RTVSPropertyOp9
 70
     1
102
RTVSPropertyOp10
 70
     1
102
RTVSPropertyOp11
 70
     1
102
RTVSPropertyOp12
 70
     1
102
RTVSPropertyOp13
 70
     1
102
RTVSPropertyOp14
 70
     1
102
RTVSPropertyOp15
 70
     1
102
RTVSPropertyOp16
 70
     1
102
RTVSPropertyOp17
 70
     1
102
RTVSPropertyOp18
 70
     1
102
RTVSPropertyOp19
 70
     1
102
RTVSPropertyOp20
 70
     1
102
RTVSPropertyOp21
 70
     1
102
RTVSPropertyOp22
 70
     1
102
RTVSPropertyOp23
 70
     1
102
RTVSPropertyOp24
 70
     1
102
RTVSPropertyOp25
 70
     1
102
RTVSPropertyOp26
 70
     1
102
RTVSPropertyOp27
 70
     1
102
RTVSPropertyOp28
 70
     1
102
RTVSPropertyOp29
 70
     1
102
RTVSPropertyOp30
 70
     1
102
RTVSPropertyOp31
 70
     1
102
RTVSPropertyOp32
 70
     1
102
RTVSPropertyOp33
 70
     1
102
RTVSPropertyOp34
 70
     1
102
RTVSPropertyOp35
 70
     1
102
RTVSPropertyOp36
 70
     1
102
RTVSPropertyOp37
 70
     1
102
RTVSPropertyOp38
 70
     1
102
RTVSPropertyOp39
 70
     1
102
RTVSPropertyOp40
 70
     1
102
RTVSPropertyOp41
 70
     1
102
RTVSPropertyOp42
 70
     1
102
RTVSPropertyOp43
 70
     1
102
RTVSPropertyOp44
 70
     1
102
RTVSPropertyOp45
 70
     1
102
RTVSPropertyOp46
 70
     1
102
RTVSPropertyOp47
 70
     1
102
RTVSPropertyOp48
 70
     1
102
RTVSPropertyOp49
 70
     1
102
RTVSPropertyOp50
 70
     1
102
RTVSPropertyOp51
 70
     0
102
RTVSPropertyOp52
 70
     0
102
RTVSPropertyOp53
 70
     1
102
RTVSPropertyOp54
 70
     1
102
RTVSPropertyOp55
 70
     1
102
RTVSPropertyOp56
 70
     1
102
RTVSPropertyOp57
 70
     1
102
RTVSPost2010Prop28
280
     0
102
RTVSPost2010PropOp28
 70
     1
102
RTVSPost2010Prop29
280
     1
102
RTVSPost2010PropOp29
 70
     1
102
RTVSPost2010Prop30
280
     1
102
RTVSPost2010PropOp30
 70
     1
102
RTVSPost2010Prop31
280
     0
102
RTVSPost2010PropOp31
 70
     1
102
RTVSPost2010Prop32
280
     0
102
RTVSPost2010PropOp32
 70
     1
102
RTVSPost2010Prop33
280
     0
102
RTVSPost2010PropOp33
 70
     1
102
RTVSPost2010Prop34
280
     0
102
RTVSPost2010PropOp34
 70
     1
102
RTVSPost2010Prop35
280
     0
102
RTVSPost2010PropOp35
 70
     1
102
RTVSPost2010Prop36
280
     0
102
RTVSPost2010PropOp36
 70
     1
102
RTVSPost2010Prop37
 90
       50
102
RTVSPost2010PropOp37
 70
     1
102
RTVSPost2010Prop38
140
0.0
102
RTVSPost2010PropOp38
 70
     1
102
RTVSPost2010Prop39
140
1.0
102
RTVSPost2010PropOp39
 70
     1
102
RTVSPost2010Prop40
 90
        0
102
RTVSPost2010PropOp40
 70
     1
102
RTVSPost2010Prop41ColorIndex
 90
       18
102
RTVSPost2010Prop41ColorRGB
 90
        0
102
RTVSPost2010PropOp41
 70
     1
102
RTVSPost2010Prop42
 90
       50
102
RTVSPost2010PropOp42
 70
     1
102
RTVSPost2010Prop43
 90
        3
102
RTVSPost2010PropOp43
 70
     1
102
RTVSPost2010Prop44ColorIndex
 90
        5
102
RTVSPost2010Prop44ColorRGB
 90
      255
102
RTVSPost2010PropOp44
 70
     1
102
RTVSPost2010Prop45
280
     0
102
RTVSPost2010PropOp45
 70
     1
102
RTVSPost2010Prop46
 90
       50
102
RTVSPost2010PropOp46
 70
     1
102
RTVSPost2010Prop47
 90
       50
102
RTVSPost2010PropOp47
 70
     1
102
RTVSPost2010Prop48
 90
       50
102
RTVSPost2010PropOp48
 70
     1
102
RTVSPost2010Prop49
280
     0
102
RTVSPost2010PropOp49
 70
     1
102
RTVSPost2010Prop50
 90
       50
102
RTVSPost2010PropOp50
 70
     1
102
RTVSPost2010Prop51ColorIndex
 90
      256
102
RTVSPost2010Prop51ColorRGB
 90
-16777216
102
RTVSPost2010PropOp51
 70
     0
102
RTVSPost2010Prop52
140
1.0
102
RTVSPost2010PropOp52
 70
     0
102
RTVSPost2010Prop53
 90
        2
102
RTVSPost2010PropOp53
 70
     1
102
RTVSPost2010Prop54
  1
strokes_ogs.tif
102
RTVSPost2010PropOp54
 70
     1
102
RTVSPost2010Prop55
280
     0
102
RTVSPost2010PropOp55
 70
     1
102
RTVSPost2010Prop56
140
1.0
102
RTVSPost2010PropOp56
 70
     1
102
RTVSPost2010Prop57
140
1.0
102
RTVSPost2010PropOp57
 70
     1
  0
XRECORD
  5
13A6
102
{ACAD_REACTORS
330
13A5
102
}
330
13A5
100
AcDbXrecord
280
     1
102
RTVSPropertyOp0
 70
     1
102
RTVSPropertyOp1
 70
     1
102
RTVSPropertyOp2
 70
     1
102
RTVSPropertyOp3
 70
     1
102
RTVSPropertyOp4
 70
     1
102
RTVSPropertyOp5
 70
     1
102
RTVSPropertyOp6
 70
     1
102
RTVSPropertyOp7
 70
     1
102
RTVSPropertyOp8
 70
     1
102
RTVSPropertyOp9
 70
     1
102
RTVSPropertyOp10
 70
     1
102
RTVSPropertyOp11
 70
     1
102
RTVSPropertyOp12
 70
     1
102
RTVSPropertyOp13
 70
     1
102
RTVSPropertyOp14
 70
     1
102
RTVSPropertyOp15
 70
     1
102
RTVSPropertyOp16
 70
     1
102
RTVSPropertyOp17
 70
     1
102
RTVSPropertyOp18
 70
     1
102
RTVSPropertyOp19
 70
     1
102
RTVSPropertyOp20
 70
     1
102
RTVSPropertyOp21
 70
     1
102
RTVSPropertyOp22
 70
     1
102
RTVSPropertyOp23
 70
     1
102
RTVSPropertyOp24
 70
     1
102
RTVSPropertyOp25
 70
     1
102
RTVSPropertyOp26
 70
     1
102
RTVSPropertyOp27
 70
     1
102
RTVSPropertyOp28
 70
     1
102
RTVSPropertyOp29
 70
     1
102
RTVSPropertyOp30
 70
     1
102
RTVSPropertyOp31
 70
     1
102
RTVSPropertyOp32
 70
     1
102
RTVSPropertyOp33
 70
     1
102
RTVSPropertyOp34
 70
     1
102
RTVSPropertyOp35
 70
     1
102
RTVSPropertyOp36
 70
     1
102
RTVSPropertyOp37
 70
     1
102
RTVSPropertyOp38
 70
     1
102
RTVSPropertyOp39
 70
     1
102
RTVSPropertyOp40
 70
     1
102
RTVSPropertyOp41
 70
     1
102
RTVSPropertyOp42
 70
     1
102
RTVSPropertyOp43
 70
     1
102
RTVSPropertyOp44
 70
     1
102
RTVSPropertyOp45
 70
     1
102
RTVSPropertyOp46
 70
     1
102
RTVSPropertyOp47
 70
     1
102
RTVSPropertyOp48
 70
     1
102
RTVSPropertyOp49
 70
     1
102
RTVSPropertyOp50
 70
     1
102
RTVSPropertyOp51
 70
     0
102
RTVSPropertyOp52
 70
     0
102
RTVSPropertyOp53
 70
     1
102
RTVSPropertyOp54
 70
     1
102
RTVSPropertyOp55
 70
     1
102
RTVSPropertyOp56
 70
     1
102
RTVSPropertyOp57
 70
     1
102
RTVSPost2010Prop28
280
     0
102
RTVSPost2010PropOp28
 70
     1
102
RTVSPost2010Prop29
280
     1
102
RTVSPost2010PropOp29
 70
     1
102
RTVSPost2010Prop30
280
     1
102
RTVSPost2010PropOp30
 70
     1
102
RTVSPost2010Prop31
280
     0
102
RTVSPost2010PropOp31
 70
     1
102
RTVSPost2010Prop32
280
     0
102
RTVSPost2010PropOp32
 70
     1
102
RTVSPost2010Prop33
280
     0
102
RTVSPost2010PropOp33
 70
     1
102
RTVSPost2010Prop34
280
     0
102
RTVSPost2010PropOp34
 70
     1
102
RTVSPost2010Prop35
280
     0
102
RTVSPost2010PropOp35
 70
     1
102
RTVSPost2010Prop36
280
     0
102
RTVSPost2010PropOp36
 70
     1
102
RTVSPost2010Prop37
 90
       50
102
RTVSPost2010PropOp37
 70
     1
102
RTVSPost2010Prop38
140
0.0
102
RTVSPost2010PropOp38
 70
     1
102
RTVSPost2010Prop39
140
1.0
102
RTVSPost2010PropOp39
 70
     1
102
RTVSPost2010Prop40
 90
        0
102
RTVSPost2010PropOp40
 70
     1
102
RTVSPost2010Prop41ColorIndex
 90
       18
102
RTVSPost2010Prop41ColorRGB
 90
        0
102
RTVSPost2010PropOp41
 70
     1
102
RTVSPost2010Prop42
 90
       50
102
RTVSPost2010PropOp42
 70
     1
102
RTVSPost2010Prop43
 90
        3
102
RTVSPost2010PropOp43
 70
     1
102
RTVSPost2010Prop44ColorIndex
 90
        5
102
RTVSPost2010Prop44ColorRGB
 90
      255
102
RTVSPost2010PropOp44
 70
     1
102
RTVSPost2010Prop45
280
     0
102
RTVSPost2010PropOp45
 70
     1
102
RTVSPost2010Prop46
 90
       50
102
RTVSPost2010PropOp46
 70
     1
102
RTVSPost2010Prop47
 90
       50
102
RTVSPost2010PropOp47
 70
     1
102
RTVSPost2010Prop48
 90
       50
102
RTVSPost2010PropOp48
 70
     1
102
RTVSPost2010Prop49
280
     0
102
RTVSPost2010PropOp49
 70
     1
102
RTVSPost2010Prop50
 90
       50
102
RTVSPost2010PropOp50
 70
     1
102
RTVSPost2010Prop51ColorIndex
 90
      256
102
RTVSPost2010Prop51ColorRGB
 90
-16777216
102
RTVSPost2010PropOp51
 70
     0
102
RTVSPost2010Prop52
140
1.0
102
RTVSPost2010PropOp52
 70
     0
102
RTVSPost2010Prop53
 90
        2
102
RTVSPost2010PropOp53
 70
     1
102
RTVSPost2010Prop54
  1
strokes_ogs.tif
102
RTVSPost2010PropOp54
 70
     1
102
RTVSPost2010Prop55
280
     0
102
RTVSPost2010PropOp55
 70
     1
102
RTVSPost2010Prop56
140
1.0
102
RTVSPost2010PropOp56
 70
     1
102
RTVSPost2010Prop57
140
1.0
102
RTVSPost2010PropOp57
 70
     1
  0
XRECORD
  5
13A8
102
{ACAD_REACTORS
330
13A7
102
}
330
13A7
100
AcDbXrecord
280
     1
102
RTVSPropertyOp0
 70
     1
102
RTVSPropertyOp1
 70
     1
102
RTVSPropertyOp2
 70
     1
102
RTVSPropertyOp3
 70
     1
102
RTVSPropertyOp4
 70
     1
102
RTVSPropertyOp5
 70
     1
102
RTVSPropertyOp6
 70
     1
102
RTVSPropertyOp7
 70
     1
102
RTVSPropertyOp8
 70
     1
102
RTVSPropertyOp9
 70
     1
102
RTVSPropertyOp10
 70
     1
102
RTVSPropertyOp11
 70
     1
102
RTVSPropertyOp12
 70
     1
102
RTVSPropertyOp13
 70
     1
102
RTVSPropertyOp14
 70
     1
102
RTVSPropertyOp15
 70
     1
102
RTVSPropertyOp16
 70
     1
102
RTVSPropertyOp17
 70
     1
102
RTVSPropertyOp18
 70
     1
102
RTVSPropertyOp19
 70
     1
102
RTVSPropertyOp20
 70
     1
102
RTVSPropertyOp21
 70
     1
102
RTVSPropertyOp22
 70
     1
102
RTVSPropertyOp23
 70
     1
102
RTVSPropertyOp24
 70
     1
102
RTVSPropertyOp25
 70
     1
102
RTVSPropertyOp26
 70
     1
102
RTVSPropertyOp27
 70
     1
102
RTVSPropertyOp28
 70
     1
102
RTVSPropertyOp29
 70
     1
102
RTVSPropertyOp30
 70
     1
102
RTVSPropertyOp31
 70
     1
102
RTVSPropertyOp32
 70
     1
102
RTVSPropertyOp33
 70
     1
102
RTVSPropertyOp34
 70
     1
102
RTVSPropertyOp35
 70
     1
102
RTVSPropertyOp36
 70
     1
102
RTVSPropertyOp37
 70
     1
102
RTVSPropertyOp38
 70
     1
102
RTVSPropertyOp39
 70
     1
102
RTVSPropertyOp40
 70
     1
102
RTVSPropertyOp41
 70
     1
102
RTVSPropertyOp42
 70
     1
102
RTVSPropertyOp43
 70
     1
102
RTVSPropertyOp44
 70
     1
102
RTVSPropertyOp45
 70
     1
102
RTVSPropertyOp46
 70
     1
102
RTVSPropertyOp47
 70
     1
102
RTVSPropertyOp48
 70
     1
102
RTVSPropertyOp49
 70
     1
102
RTVSPropertyOp50
 70
     1
102
RTVSPropertyOp51
 70
     0
102
RTVSPropertyOp52
 70
     0
102
RTVSPropertyOp53
 70
     1
102
RTVSPropertyOp54
 70
     1
102
RTVSPropertyOp55
 70
     1
102
RTVSPropertyOp56
 70
     1
102
RTVSPropertyOp57
 70
     1
102
RTVSPost2010Prop28
280
     0
102
RTVSPost2010PropOp28
 70
     1
102
RTVSPost2010Prop29
280
     1
102
RTVSPost2010PropOp29
 70
     1
102
RTVSPost2010Prop30
280
     1
102
RTVSPost2010PropOp30
 70
     1
102
RTVSPost2010Prop31
280
     0
102
RTVSPost2010PropOp31
 70
     1
102
RTVSPost2010Prop32
280
     0
102
RTVSPost2010PropOp32
 70
     1
102
RTVSPost2010Prop33
280
     0
102
RTVSPost2010PropOp33
 70
     1
102
RTVSPost2010Prop34
280
     0
102
RTVSPost2010PropOp34
 70
     1
102
RTVSPost2010Prop35
280
     0
102
RTVSPost2010PropOp35
 70
     1
102
RTVSPost2010Prop36
280
     0
102
RTVSPost2010PropOp36
 70
     1
102
RTVSPost2010Prop37
 90
       50
102
RTVSPost2010PropOp37
 70
     1
102
RTVSPost2010Prop38
140
0.0
102
RTVSPost2010PropOp38
 70
     1
102
RTVSPost2010Prop39
140
1.0
102
RTVSPost2010PropOp39
 70
     1
102
RTVSPost2010Prop40
 90
        0
102
RTVSPost2010PropOp40
 70
     1
102
RTVSPost2010Prop41ColorIndex
 90
       18
102
RTVSPost2010Prop41ColorRGB
 90
        0
102
RTVSPost2010PropOp41
 70
     1
102
RTVSPost2010Prop42
 90
       50
102
RTVSPost2010PropOp42
 70
     1
102
RTVSPost2010Prop43
 90
        3
102
RTVSPost2010PropOp43
 70
     1
102
RTVSPost2010Prop44ColorIndex
 90
        5
102
RTVSPost2010Prop44ColorRGB
 90
      255
102
RTVSPost2010PropOp44
 70
     1
102
RTVSPost2010Prop45
280
     0
102
RTVSPost2010PropOp45
 70
     1
102
RTVSPost2010Prop46
 90
       50
102
RTVSPost2010PropOp46
 70
     1
102
RTVSPost2010Prop47
 90
       50
102
RTVSPost2010PropOp47
 70
     1
102
RTVSPost2010Prop48
 90
       50
102
RTVSPost2010PropOp48
 70
     1
102
RTVSPost2010Prop49
280
     0
102
RTVSPost2010PropOp49
 70
     1
102
RTVSPost2010Prop50
 90
       50
102
RTVSPost2010PropOp50
 70
     1
102
RTVSPost2010Prop51ColorIndex
 90
      256
102
RTVSPost2010Prop51ColorRGB
 90
-16777216
102
RTVSPost2010PropOp51
 70
     0
102
RTVSPost2010Prop52
140
1.0
102
RTVSPost2010PropOp52
 70
     0
102
RTVSPost2010Prop53
 90
        2
102
RTVSPost2010PropOp53
 70
     1
102
RTVSPost2010Prop54
  1
strokes_ogs.tif
102
RTVSPost2010PropOp54
 70
     1
102
RTVSPost2010Prop55
280
     0
102
RTVSPost2010PropOp55
 70
     1
102
RTVSPost2010Prop56
140
1.0
102
RTVSPost2010PropOp56
 70
     1
102
RTVSPost2010Prop57
140
1.0
102
RTVSPost2010PropOp57
 70
     1
  0
XRECORD
  5
13AA
102
{ACAD_REACTORS
330
13A9
102
}
330
13A9
100
AcDbXrecord
280
     1
102
RTVSPropertyOp0
 70
     1
102
RTVSPropertyOp1
 70
     1
102
RTVSPropertyOp2
 70
     1
102
RTVSPropertyOp3
 70
     1
102
RTVSPropertyOp4
 70
     1
102
RTVSPropertyOp5
 70
     1
102
RTVSPropertyOp6
 70
     1
102
RTVSPropertyOp7
 70
     1
102
RTVSPropertyOp8
 70
     1
102
RTVSPropertyOp9
 70
     1
102
RTVSPropertyOp10
 70
     1
102
RTVSPropertyOp11
 70
     1
102
RTVSPropertyOp12
 70
     1
102
RTVSPropertyOp13
 70
     1
102
RTVSPropertyOp14
 70
     1
102
RTVSPropertyOp15
 70
     1
102
RTVSPropertyOp16
 70
     1
102
RTVSPropertyOp17
 70
     1
102
RTVSPropertyOp18
 70
     1
102
RTVSPropertyOp19
 70
     1
102
RTVSPropertyOp20
 70
     1
102
RTVSPropertyOp21
 70
     1
102
RTVSPropertyOp22
 70
     1
102
RTVSPropertyOp23
 70
     1
102
RTVSPropertyOp24
 70
     1
102
RTVSPropertyOp25
 70
     1
102
RTVSPropertyOp26
 70
     1
102
RTVSPropertyOp27
 70
     1
102
RTVSPropertyOp28
 70
     1
102
RTVSPropertyOp29
 70
     1
102
RTVSPropertyOp30
 70
     1
102
RTVSPropertyOp31
 70
     1
102
RTVSPropertyOp32
 70
     1
102
RTVSPropertyOp33
 70
     1
102
RTVSPropertyOp34
 70
     1
102
RTVSPropertyOp35
 70
     1
102
RTVSPropertyOp36
 70
     1
102
RTVSPropertyOp37
 70
     1
102
RTVSPropertyOp38
 70
     1
102
RTVSPropertyOp39
 70
     1
102
RTVSPropertyOp40
 70
     1
102
RTVSPropertyOp41
 70
     1
102
RTVSPropertyOp42
 70
     1
102
RTVSPropertyOp43
 70
     1
102
RTVSPropertyOp44
 70
     1
102
RTVSPropertyOp45
 70
     1
102
RTVSPropertyOp46
 70
     1
102
RTVSPropertyOp47
 70
     1
102
RTVSPropertyOp48
 70
     1
102
RTVSPropertyOp49
 70
     1
102
RTVSPropertyOp50
 70
     1
102
RTVSPropertyOp51
 70
     0
102
RTVSPropertyOp52
 70
     0
102
RTVSPropertyOp53
 70
     1
102
RTVSPropertyOp54
 70
     1
102
RTVSPropertyOp55
 70
     1
102
RTVSPropertyOp56
 70
     1
102
RTVSPropertyOp57
 70
     1
102
RTVSPost2010Prop28
280
     0
102
RTVSPost2010PropOp28
 70
     1
102
RTVSPost2010Prop29
280
     1
102
RTVSPost2010PropOp29
 70
     1
102
RTVSPost2010Prop30
280
     1
102
RTVSPost2010PropOp30
 70
     1
102
RTVSPost2010Prop31
280
     0
102
RTVSPost2010PropOp31
 70
     1
102
RTVSPost2010Prop32
280
     0
102
RTVSPost2010PropOp32
 70
     1
102
RTVSPost2010Prop33
280
     0
102
RTVSPost2010PropOp33
 70
     1
102
RTVSPost2010Prop34
280
     0
102
RTVSPost2010PropOp34
 70
     1
102
RTVSPost2010Prop35
280
     0
102
RTVSPost2010PropOp35
 70
     1
102
RTVSPost2010Prop36
280
     0
102
RTVSPost2010PropOp36
 70
     1
102
RTVSPost2010Prop37
 90
       50
102
RTVSPost2010PropOp37
 70
     1
102
RTVSPost2010Prop38
140
0.0
102
RTVSPost2010PropOp38
 70
     1
102
RTVSPost2010Prop39
140
1.0
102
RTVSPost2010PropOp39
 70
     1
102
RTVSPost2010Prop40
 90
        0
102
RTVSPost2010PropOp40
 70
     1
102
RTVSPost2010Prop41ColorIndex
 90
       18
102
RTVSPost2010Prop41ColorRGB
 90
        0
102
RTVSPost2010PropOp41
 70
     1
102
RTVSPost2010Prop42
 90
       50
102
RTVSPost2010PropOp42
 70
     1
102
RTVSPost2010Prop43
 90
        3
102
RTVSPost2010PropOp43
 70
     1
102
RTVSPost2010Prop44ColorIndex
 90
        5
102
RTVSPost2010Prop44ColorRGB
 90
      255
102
RTVSPost2010PropOp44
 70
     1
102
RTVSPost2010Prop45
280
     0
102
RTVSPost2010PropOp45
 70
     1
102
RTVSPost2010Prop46
 90
       50
102
RTVSPost2010PropOp46
 70
     1
102
RTVSPost2010Prop47
 90
       50
102
RTVSPost2010PropOp47
 70
     1
102
RTVSPost2010Prop48
 90
       50
102
RTVSPost2010PropOp48
 70
     1
102
RTVSPost2010Prop49
280
     0
102
RTVSPost2010PropOp49
 70
     1
102
RTVSPost2010Prop50
 90
       50
102
RTVSPost2010PropOp50
 70
     1
102
RTVSPost2010Prop51ColorIndex
 90
      256
102
RTVSPost2010Prop51ColorRGB
 90
-16777216
102
RTVSPost2010PropOp51
 70
     0
102
RTVSPost2010Prop52
140
1.0
102
RTVSPost2010PropOp52
 70
     0
102
RTVSPost2010Prop53
 90
        2
102
RTVSPost2010PropOp53
 70
     1
102
RTVSPost2010Prop54
  1
strokes_ogs.tif
102
RTVSPost2010PropOp54
 70
     1
102
RTVSPost2010Prop55
280
     0
102
RTVSPost2010PropOp55
 70
     1
102
RTVSPost2010Prop56
140
1.0
102
RTVSPost2010PropOp56
 70
     1
102
RTVSPost2010Prop57
140
1.0
102
RTVSPost2010PropOp57
 70
     1
  0
XRECORD
  5
13AC
102
{ACAD_REACTORS
330
13AB
102
}
330
13AB
100
AcDbXrecord
280
     1
102
RTVSPropertyOp0
 70
     1
102
RTVSPropertyOp1
 70
     1
102
RTVSPropertyOp2
 70
     1
102
RTVSPropertyOp3
 70
     1
102
RTVSPropertyOp4
 70
     1
102
RTVSPropertyOp5
 70
     1
102
RTVSPropertyOp6
 70
     1
102
RTVSPropertyOp7
 70
     1
102
RTVSPropertyOp8
 70
     1
102
RTVSPropertyOp9
 70
     1
102
RTVSPropertyOp10
 70
     1
102
RTVSPropertyOp11
 70
     1
102
RTVSPropertyOp12
 70
     1
102
RTVSPropertyOp13
 70
     1
102
RTVSPropertyOp14
 70
     1
102
RTVSPropertyOp15
 70
     1
102
RTVSPropertyOp16
 70
     1
102
RTVSPropertyOp17
 70
     1
102
RTVSPropertyOp18
 70
     1
102
RTVSPropertyOp19
 70
     1
102
RTVSPropertyOp20
 70
     1
102
RTVSPropertyOp21
 70
     1
102
RTVSPropertyOp22
 70
     1
102
RTVSPropertyOp23
 70
     1
102
RTVSPropertyOp24
 70
     1
102
RTVSPropertyOp25
 70
     1
102
RTVSPropertyOp26
 70
     1
102
RTVSPropertyOp27
 70
     1
102
RTVSPropertyOp28
 70
     1
102
RTVSPropertyOp29
 70
     1
102
RTVSPropertyOp30
 70
     1
102
RTVSPropertyOp31
 70
     1
102
RTVSPropertyOp32
 70
     1
102
RTVSPropertyOp33
 70
     1
102
RTVSPropertyOp34
 70
     1
102
RTVSPropertyOp35
 70
     1
102
RTVSPropertyOp36
 70
     1
102
RTVSPropertyOp37
 70
     1
102
RTVSPropertyOp38
 70
     1
102
RTVSPropertyOp39
 70
     1
102
RTVSPropertyOp40
 70
     1
102
RTVSPropertyOp41
 70
     1
102
RTVSPropertyOp42
 70
     1
102
RTVSPropertyOp43
 70
     1
102
RTVSPropertyOp44
 70
     1
102
RTVSPropertyOp45
 70
     1
102
RTVSPropertyOp46
 70
     1
102
RTVSPropertyOp47
 70
     1
102
RTVSPropertyOp48
 70
     1
102
RTVSPropertyOp49
 70
     1
102
RTVSPropertyOp50
 70
     1
102
RTVSPropertyOp51
 70
     0
102
RTVSPropertyOp52
 70
     0
102
RTVSPropertyOp53
 70
     1
102
RTVSPropertyOp54
 70
     1
102
RTVSPropertyOp55
 70
     1
102
RTVSPropertyOp56
 70
     1
102
RTVSPropertyOp57
 70
     1
102
RTVSPost2010Prop28
280
     0
102
RTVSPost2010PropOp28
 70
     1
102
RTVSPost2010Prop29
280
     1
102
RTVSPost2010PropOp29
 70
     1
102
RTVSPost2010Prop30
280
     1
102
RTVSPost2010PropOp30
 70
     1
102
RTVSPost2010Prop31
280
     0
102
RTVSPost2010PropOp31
 70
     1
102
RTVSPost2010Prop32
280
     0
102
RTVSPost2010PropOp32
 70
     1
102
RTVSPost2010Prop33
280
     0
102
RTVSPost2010PropOp33
 70
     1
102
RTVSPost2010Prop34
280
     0
102
RTVSPost2010PropOp34
 70
     1
102
RTVSPost2010Prop35
280
     0
102
RTVSPost2010PropOp35
 70
     1
102
RTVSPost2010Prop36
280
     0
102
RTVSPost2010PropOp36
 70
     1
102
RTVSPost2010Prop37
 90
       50
102
RTVSPost2010PropOp37
 70
     1
102
RTVSPost2010Prop38
140
0.0
102
RTVSPost2010PropOp38
 70
     1
102
RTVSPost2010Prop39
140
1.0
102
RTVSPost2010PropOp39
 70
     1
102
RTVSPost2010Prop40
 90
        0
102
RTVSPost2010PropOp40
 70
     1
102
RTVSPost2010Prop41ColorIndex
 90
       18
102
RTVSPost2010Prop41ColorRGB
 90
        0
102
RTVSPost2010PropOp41
 70
     1
102
RTVSPost2010Prop42
 90
       50
102
RTVSPost2010PropOp42
 70
     1
102
RTVSPost2010Prop43
 90
        3
102
RTVSPost2010PropOp43
 70
     1
102
RTVSPost2010Prop44ColorIndex
 90
        5
102
RTVSPost2010Prop44ColorRGB
 90
      255
102
RTVSPost2010PropOp44
 70
     1
102
RTVSPost2010Prop45
280
     0
102
RTVSPost2010PropOp45
 70
     1
102
RTVSPost2010Prop46
 90
       50
102
RTVSPost2010PropOp46
 70
     1
102
RTVSPost2010Prop47
 90
       50
102
RTVSPost2010PropOp47
 70
     1
102
RTVSPost2010Prop48
 90
       50
102
RTVSPost2010PropOp48
 70
     1
102
RTVSPost2010Prop49
280
     0
102
RTVSPost2010PropOp49
 70
     1
102
RTVSPost2010Prop50
 90
       50
102
RTVSPost2010PropOp50
 70
     1
102
RTVSPost2010Prop51ColorIndex
 90
      256
102
RTVSPost2010Prop51ColorRGB
 90
-16777216
102
RTVSPost2010PropOp51
 70
     0
102
RTVSPost2010Prop52
140
1.0
102
RTVSPost2010PropOp52
 70
     0
102
RTVSPost2010Prop53
 90
        2
102
RTVSPost2010PropOp53
 70
     1
102
RTVSPost2010Prop54
  1
strokes_ogs.tif
102
RTVSPost2010PropOp54
 70
     1
102
RTVSPost2010Prop55
280
     0
102
RTVSPost2010PropOp55
 70
     1
102
RTVSPost2010Prop56
140
1.0
102
RTVSPost2010PropOp56
 70
     1
102
RTVSPost2010Prop57
140
1.0
102
RTVSPost2010PropOp57
 70
     1
  0
XRECORD
  5
13AE
102
{ACAD_REACTORS
330
13AD
102
}
330
13AD
100
AcDbXrecord
280
     1
102
RTVSPropertyOp0
 70
     1
102
RTVSPropertyOp1
 70
     1
102
RTVSPropertyOp2
 70
     1
102
RTVSPropertyOp3
 70
     1
102
RTVSPropertyOp4
 70
     1
102
RTVSPropertyOp5
 70
     1
102
RTVSPropertyOp6
 70
     1
102
RTVSPropertyOp7
 70
     1
102
RTVSPropertyOp8
 70
     1
102
RTVSPropertyOp9
 70
     1
102
RTVSPropertyOp10
 70
     1
102
RTVSPropertyOp11
 70
     1
102
RTVSPropertyOp12
 70
     1
102
RTVSPropertyOp13
 70
     1
102
RTVSPropertyOp14
 70
     1
102
RTVSPropertyOp15
 70
     1
102
RTVSPropertyOp16
 70
     1
102
RTVSPropertyOp17
 70
     1
102
RTVSPropertyOp18
 70
     1
102
RTVSPropertyOp19
 70
     1
102
RTVSPropertyOp20
 70
     1
102
RTVSPropertyOp21
 70
     1
102
RTVSPropertyOp22
 70
     1
102
RTVSPropertyOp23
 70
     1
102
RTVSPropertyOp24
 70
     1
102
RTVSPropertyOp25
 70
     1
102
RTVSPropertyOp26
 70
     1
102
RTVSPropertyOp27
 70
     1
102
RTVSPropertyOp28
 70
     1
102
RTVSPropertyOp29
 70
     1
102
RTVSPropertyOp30
 70
     1
102
RTVSPropertyOp31
 70
     1
102
RTVSPropertyOp32
 70
     1
102
RTVSPropertyOp33
 70
     1
102
RTVSPropertyOp34
 70
     1
102
RTVSPropertyOp35
 70
     1
102
RTVSPropertyOp36
 70
     1
102
RTVSPropertyOp37
 70
     1
102
RTVSPropertyOp38
 70
     1
102
RTVSPropertyOp39
 70
     1
102
RTVSPropertyOp40
 70
     1
102
RTVSPropertyOp41
 70
     1
102
RTVSPropertyOp42
 70
     1
102
RTVSPropertyOp43
 70
     1
102
RTVSPropertyOp44
 70
     1
102
RTVSPropertyOp45
 70
     1
102
RTVSPropertyOp46
 70
     1
102
RTVSPropertyOp47
 70
     1
102
RTVSPropertyOp48
 70
     1
102
RTVSPropertyOp49
 70
     1
102
RTVSPropertyOp50
 70
     1
102
RTVSPropertyOp51
 70
     0
102
RTVSPropertyOp52
 70
     0
102
RTVSPropertyOp53
 70
     1
102
RTVSPropertyOp54
 70
     1
102
RTVSPropertyOp55
 70
     1
102
RTVSPropertyOp56
 70
     1
102
RTVSPropertyOp57
 70
     1
102
RTVSPost2010Prop28
280
     0
102
RTVSPost2010PropOp28
 70
     1
102
RTVSPost2010Prop29
280
     1
102
RTVSPost2010PropOp29
 70
     1
102
RTVSPost2010Prop30
280
     1
102
RTVSPost2010PropOp30
 70
     1
102
RTVSPost2010Prop31
280
     0
102
RTVSPost2010PropOp31
 70
     1
102
RTVSPost2010Prop32
280
     0
102
RTVSPost2010PropOp32
 70
     1
102
RTVSPost2010Prop33
280
     0
102
RTVSPost2010PropOp33
 70
     1
102
RTVSPost2010Prop34
280
     0
102
RTVSPost2010PropOp34
 70
     1
102
RTVSPost2010Prop35
280
     0
102
RTVSPost2010PropOp35
 70
     1
102
RTVSPost2010Prop36
280
     0
102
RTVSPost2010PropOp36
 70
     1
102
RTVSPost2010Prop37
 90
       50
102
RTVSPost2010PropOp37
 70
     1
102
RTVSPost2010Prop38
140
0.0
102
RTVSPost2010PropOp38
 70
     1
102
RTVSPost2010Prop39
140
1.0
102
RTVSPost2010PropOp39
 70
     1
102
RTVSPost2010Prop40
 90
        0
102
RTVSPost2010PropOp40
 70
     1
102
RTVSPost2010Prop41ColorIndex
 90
       18
102
RTVSPost2010Prop41ColorRGB
 90
        0
102
RTVSPost2010PropOp41
 70
     1
102
RTVSPost2010Prop42
 90
       50
102
RTVSPost2010PropOp42
 70
     1
102
RTVSPost2010Prop43
 90
        3
102
RTVSPost2010PropOp43
 70
     1
102
RTVSPost2010Prop44ColorIndex
 90
        5
102
RTVSPost2010Prop44ColorRGB
 90
      255
102
RTVSPost2010PropOp44
 70
     1
102
RTVSPost2010Prop45
280
     0
102
RTVSPost2010PropOp45
 70
     1
102
RTVSPost2010Prop46
 90
       50
102
RTVSPost2010PropOp46
 70
     1
102
RTVSPost2010Prop47
 90
       50
102
RTVSPost2010PropOp47
 70
     1
102
RTVSPost2010Prop48
 90
       50
102
RTVSPost2010PropOp48
 70
     1
102
RTVSPost2010Prop49
280
     0
102
RTVSPost2010PropOp49
 70
     1
102
RTVSPost2010Prop50
 90
       50
102
RTVSPost2010PropOp50
 70
     1
102
RTVSPost2010Prop51ColorIndex
 90
      256
102
RTVSPost2010Prop51ColorRGB
 90
-16777216
102
RTVSPost2010PropOp51
 70
     0
102
RTVSPost2010Prop52
140
1.0
102
RTVSPost2010PropOp52
 70
     0
102
RTVSPost2010Prop53
 90
        2
102
RTVSPost2010PropOp53
 70
     1
102
RTVSPost2010Prop54
  1
strokes_ogs.tif
102
RTVSPost2010PropOp54
 70
     1
102
RTVSPost2010Prop55
280
     0
102
RTVSPost2010PropOp55
 70
     1
102
RTVSPost2010Prop56
140
1.0
102
RTVSPost2010PropOp56
 70
     1
102
RTVSPost2010Prop57
140
1.0
102
RTVSPost2010PropOp57
 70
     1
  0
XRECORD
  5
13B0
102
{ACAD_REACTORS
330
13AF
102
}
330
13AF
100
AcDbXrecord
280
     1
102
RTVSPropertyOp0
 70
     1
102
RTVSPropertyOp1
 70
     1
102
RTVSPropertyOp2
 70
     1
102
RTVSPropertyOp3
 70
     1
102
RTVSPropertyOp4
 70
     1
102
RTVSPropertyOp5
 70
     1
102
RTVSPropertyOp6
 70
     1
102
RTVSPropertyOp7
 70
     1
102
RTVSPropertyOp8
 70
     1
102
RTVSPropertyOp9
 70
     1
102
RTVSPropertyOp10
 70
     1
102
RTVSPropertyOp11
 70
     1
102
RTVSPropertyOp12
 70
     1
102
RTVSPropertyOp13
 70
     1
102
RTVSPropertyOp14
 70
     1
102
RTVSPropertyOp15
 70
     1
102
RTVSPropertyOp16
 70
     1
102
RTVSPropertyOp17
 70
     1
102
RTVSPropertyOp18
 70
     1
102
RTVSPropertyOp19
 70
     1
102
RTVSPropertyOp20
 70
     1
102
RTVSPropertyOp21
 70
     1
102
RTVSPropertyOp22
 70
     1
102
RTVSPropertyOp23
 70
     1
102
RTVSPropertyOp24
 70
     1
102
RTVSPropertyOp25
 70
     1
102
RTVSPropertyOp26
 70
     1
102
RTVSPropertyOp27
 70
     1
102
RTVSPropertyOp28
 70
     1
102
RTVSPropertyOp29
 70
     1
102
RTVSPropertyOp30
 70
     1
102
RTVSPropertyOp31
 70
     1
102
RTVSPropertyOp32
 70
     1
102
RTVSPropertyOp33
 70
     1
102
RTVSPropertyOp34
 70
     1
102
RTVSPropertyOp35
 70
     1
102
RTVSPropertyOp36
 70
     1
102
RTVSPropertyOp37
 70
     1
102
RTVSPropertyOp38
 70
     1
102
RTVSPropertyOp39
 70
     1
102
RTVSPropertyOp40
 70
     1
102
RTVSPropertyOp41
 70
     1
102
RTVSPropertyOp42
 70
     1
102
RTVSPropertyOp43
 70
     1
102
RTVSPropertyOp44
 70
     1
102
RTVSPropertyOp45
 70
     1
102
RTVSPropertyOp46
 70
     1
102
RTVSPropertyOp47
 70
     1
102
RTVSPropertyOp48
 70
     1
102
RTVSPropertyOp49
 70
     1
102
RTVSPropertyOp50
 70
     1
102
RTVSPropertyOp51
 70
     0
102
RTVSPropertyOp52
 70
     0
102
RTVSPropertyOp53
 70
     1
102
RTVSPropertyOp54
 70
     1
102
RTVSPropertyOp55
 70
     1
102
RTVSPropertyOp56
 70
     1
102
RTVSPropertyOp57
 70
     1
102
RTVSPost2010Prop28
280
     0
102
RTVSPost2010PropOp28
 70
     1
102
RTVSPost2010Prop29
280
     1
102
RTVSPost2010PropOp29
 70
     1
102
RTVSPost2010Prop30
280
     1
102
RTVSPost2010PropOp30
 70
     1
102
RTVSPost2010Prop31
280
     0
102
RTVSPost2010PropOp31
 70
     1
102
RTVSPost2010Prop32
280
     0
102
RTVSPost2010PropOp32
 70
     1
102
RTVSPost2010Prop33
280
     0
102
RTVSPost2010PropOp33
 70
     1
102
RTVSPost2010Prop34
280
     0
102
RTVSPost2010PropOp34
 70
     1
102
RTVSPost2010Prop35
280
     0
102
RTVSPost2010PropOp35
 70
     1
102
RTVSPost2010Prop36
280
     0
102
RTVSPost2010PropOp36
 70
     1
102
RTVSPost2010Prop37
 90
       50
102
RTVSPost2010PropOp37
 70
     1
102
RTVSPost2010Prop38
140
0.0
102
RTVSPost2010PropOp38
 70
     1
102
RTVSPost2010Prop39
140
1.0
102
RTVSPost2010PropOp39
 70
     1
102
RTVSPost2010Prop40
 90
        0
102
RTVSPost2010PropOp40
 70
     1
102
RTVSPost2010Prop41ColorIndex
 90
       18
102
RTVSPost2010Prop41ColorRGB
 90
        0
102
RTVSPost2010PropOp41
 70
     1
102
RTVSPost2010Prop42
 90
       50
102
RTVSPost2010PropOp42
 70
     1
102
RTVSPost2010Prop43
 90
        3
102
RTVSPost2010PropOp43
 70
     1
102
RTVSPost2010Prop44ColorIndex
 90
        5
102
RTVSPost2010Prop44ColorRGB
 90
      255
102
RTVSPost2010PropOp44
 70
     1
102
RTVSPost2010Prop45
280
     0
102
RTVSPost2010PropOp45
 70
     1
102
RTVSPost2010Prop46
 90
       50
102
RTVSPost2010PropOp46
 70
     1
102
RTVSPost2010Prop47
 90
       50
102
RTVSPost2010PropOp47
 70
     1
102
RTVSPost2010Prop48
 90
       50
102
RTVSPost2010PropOp48
 70
     1
102
RTVSPost2010Prop49
280
     0
102
RTVSPost2010PropOp49
 70
     1
102
RTVSPost2010Prop50
 90
       50
102
RTVSPost2010PropOp50
 70
     1
102
RTVSPost2010Prop51ColorIndex
 90
      256
102
RTVSPost2010Prop51ColorRGB
 90
-16777216
102
RTVSPost2010PropOp51
 70
     0
102
RTVSPost2010Prop52
140
1.0
102
RTVSPost2010PropOp52
 70
     0
102
RTVSPost2010Prop53
 90
        2
102
RTVSPost2010PropOp53
 70
     1
102
RTVSPost2010Prop54
  1
strokes_ogs.tif
102
RTVSPost2010PropOp54
 70
     1
102
RTVSPost2010Prop55
280
     0
102
RTVSPost2010PropOp55
 70
     1
102
RTVSPost2010Prop56
140
1.0
102
RTVSPost2010PropOp56
 70
     1
102
RTVSPost2010Prop57
140
1.0
102
RTVSPost2010PropOp57
 70
     1
  0
XRECORD
  5
13B2
102
{ACAD_REACTORS
330
13B1
102
}
330
13B1
100
AcDbXrecord
280
     1
102
RTVSPropertyOp0
 70
     1
102
RTVSPropertyOp1
 70
     1
102
RTVSPropertyOp2
 70
     1
102
RTVSPropertyOp3
 70
     1
102
RTVSPropertyOp4
 70
     1
102
RTVSPropertyOp5
 70
     1
102
RTVSPropertyOp6
 70
     1
102
RTVSPropertyOp7
 70
     1
102
RTVSPropertyOp8
 70
     1
102
RTVSPropertyOp9
 70
     1
102
RTVSPropertyOp10
 70
     1
102
RTVSPropertyOp11
 70
     1
102
RTVSPropertyOp12
 70
     1
102
RTVSPropertyOp13
 70
     1
102
RTVSPropertyOp14
 70
     1
102
RTVSPropertyOp15
 70
     1
102
RTVSPropertyOp16
 70
     1
102
RTVSPropertyOp17
 70
     1
102
RTVSPropertyOp18
 70
     1
102
RTVSPropertyOp19
 70
     1
102
RTVSPropertyOp20
 70
     1
102
RTVSPropertyOp21
 70
     1
102
RTVSPropertyOp22
 70
     1
102
RTVSPropertyOp23
 70
     1
102
RTVSPropertyOp24
 70
     1
102
RTVSPropertyOp25
 70
     1
102
RTVSPropertyOp26
 70
     1
102
RTVSPropertyOp27
 70
     1
102
RTVSPropertyOp28
 70
     1
102
RTVSPropertyOp29
 70
     1
102
RTVSPropertyOp30
 70
     1
102
RTVSPropertyOp31
 70
     1
102
RTVSPropertyOp32
 70
     1
102
RTVSPropertyOp33
 70
     1
102
RTVSPropertyOp34
 70
     1
102
RTVSPropertyOp35
 70
     1
102
RTVSPropertyOp36
 70
     1
102
RTVSPropertyOp37
 70
     1
102
RTVSPropertyOp38
 70
     1
102
RTVSPropertyOp39
 70
     1
102
RTVSPropertyOp40
 70
     1
102
RTVSPropertyOp41
 70
     1
102
RTVSPropertyOp42
 70
     1
102
RTVSPropertyOp43
 70
     1
102
RTVSPropertyOp44
 70
     1
102
RTVSPropertyOp45
 70
     1
102
RTVSPropertyOp46
 70
     1
102
RTVSPropertyOp47
 70
     1
102
RTVSPropertyOp48
 70
     1
102
RTVSPropertyOp49
 70
     1
102
RTVSPropertyOp50
 70
     1
102
RTVSPropertyOp51
 70
     0
102
RTVSPropertyOp52
 70
     0
102
RTVSPropertyOp53
 70
     1
102
RTVSPropertyOp54
 70
     1
102
RTVSPropertyOp55
 70
     1
102
RTVSPropertyOp56
 70
     1
102
RTVSPropertyOp57
 70
     1
102
RTVSPost2010Prop28
280
     0
102
RTVSPost2010PropOp28
 70
     1
102
RTVSPost2010Prop29
280
     1
102
RTVSPost2010PropOp29
 70
     1
102
RTVSPost2010Prop30
280
     1
102
RTVSPost2010PropOp30
 70
     1
102
RTVSPost2010Prop31
280
     0
102
RTVSPost2010PropOp31
 70
     1
102
RTVSPost2010Prop32
280
     0
102
RTVSPost2010PropOp32
 70
     1
102
RTVSPost2010Prop33
280
     0
102
RTVSPost2010PropOp33
 70
     1
102
RTVSPost2010Prop34
280
     0
102
RTVSPost2010PropOp34
 70
     1
102
RTVSPost2010Prop35
280
     0
102
RTVSPost2010PropOp35
 70
     1
102
RTVSPost2010Prop36
280
     0
102
RTVSPost2010PropOp36
 70
     1
102
RTVSPost2010Prop37
 90
       50
102
RTVSPost2010PropOp37
 70
     1
102
RTVSPost2010Prop38
140
0.0
102
RTVSPost2010PropOp38
 70
     1
102
RTVSPost2010Prop39
140
1.0
102
RTVSPost2010PropOp39
 70
     1
102
RTVSPost2010Prop40
 90
        0
102
RTVSPost2010PropOp40
 70
     1
102
RTVSPost2010Prop41ColorIndex
 90
       18
102
RTVSPost2010Prop41ColorRGB
 90
        0
102
RTVSPost2010PropOp41
 70
     1
102
RTVSPost2010Prop42
 90
       50
102
RTVSPost2010PropOp42
 70
     1
102
RTVSPost2010Prop43
 90
        3
102
RTVSPost2010PropOp43
 70
     1
102
RTVSPost2010Prop44ColorIndex
 90
        5
102
RTVSPost2010Prop44ColorRGB
 90
      255
102
RTVSPost2010PropOp44
 70
     1
102
RTVSPost2010Prop45
280
     0
102
RTVSPost2010PropOp45
 70
     1
102
RTVSPost2010Prop46
 90
       50
102
RTVSPost2010PropOp46
 70
     1
102
RTVSPost2010Prop47
 90
       50
102
RTVSPost2010PropOp47
 70
     1
102
RTVSPost2010Prop48
 90
       50
102
RTVSPost2010PropOp48
 70
     1
102
RTVSPost2010Prop49
280
     0
102
RTVSPost2010PropOp49
 70
     1
102
RTVSPost2010Prop50
 90
       50
102
RTVSPost2010PropOp50
 70
     1
102
RTVSPost2010Prop51ColorIndex
 90
      256
102
RTVSPost2010Prop51ColorRGB
 90
-16777216
102
RTVSPost2010PropOp51
 70
     0
102
RTVSPost2010Prop52
140
1.0
102
RTVSPost2010PropOp52
 70
     0
102
RTVSPost2010Prop53
 90
        2
102
RTVSPost2010PropOp53
 70
     1
102
RTVSPost2010Prop54
  1
strokes_ogs.tif
102
RTVSPost2010PropOp54
 70
     1
102
RTVSPost2010Prop55
280
     0
102
RTVSPost2010PropOp55
 70
     1
102
RTVSPost2010Prop56
140
1.0
102
RTVSPost2010PropOp56
 70
     1
102
RTVSPost2010Prop57
140
1.0
102
RTVSPost2010PropOp57
 70
     1
  0
XRECORD
  5
13B4
102
{ACAD_REACTORS
330
13B3
102
}
330
13B3
100
AcDbXrecord
280
     1
102
RTVSPropertyOp0
 70
     1
102
RTVSPropertyOp1
 70
     1
102
RTVSPropertyOp2
 70
     1
102
RTVSPropertyOp3
 70
     1
102
RTVSPropertyOp4
 70
     1
102
RTVSPropertyOp5
 70
     1
102
RTVSPropertyOp6
 70
     1
102
RTVSPropertyOp7
 70
     1
102
RTVSPropertyOp8
 70
     1
102
RTVSPropertyOp9
 70
     1
102
RTVSPropertyOp10
 70
     1
102
RTVSPropertyOp11
 70
     1
102
RTVSPropertyOp12
 70
     1
102
RTVSPropertyOp13
 70
     1
102
RTVSPropertyOp14
 70
     1
102
RTVSPropertyOp15
 70
     1
102
RTVSPropertyOp16
 70
     1
102
RTVSPropertyOp17
 70
     1
102
RTVSPropertyOp18
 70
     1
102
RTVSPropertyOp19
 70
     1
102
RTVSPropertyOp20
 70
     1
102
RTVSPropertyOp21
 70
     1
102
RTVSPropertyOp22
 70
     1
102
RTVSPropertyOp23
 70
     1
102
RTVSPropertyOp24
 70
     1
102
RTVSPropertyOp25
 70
     1
102
RTVSPropertyOp26
 70
     1
102
RTVSPropertyOp27
 70
     1
102
RTVSPropertyOp28
 70
     1
102
RTVSPropertyOp29
 70
     1
102
RTVSPropertyOp30
 70
     1
102
RTVSPropertyOp31
 70
     1
102
RTVSPropertyOp32
 70
     1
102
RTVSPropertyOp33
 70
     1
102
RTVSPropertyOp34
 70
     1
102
RTVSPropertyOp35
 70
     1
102
RTVSPropertyOp36
 70
     1
102
RTVSPropertyOp37
 70
     1
102
RTVSPropertyOp38
 70
     1
102
RTVSPropertyOp39
 70
     1
102
RTVSPropertyOp40
 70
     1
102
RTVSPropertyOp41
 70
     1
102
RTVSPropertyOp42
 70
     1
102
RTVSPropertyOp43
 70
     1
102
RTVSPropertyOp44
 70
     1
102
RTVSPropertyOp45
 70
     1
102
RTVSPropertyOp46
 70
     1
102
RTVSPropertyOp47
 70
     1
102
RTVSPropertyOp48
 70
     1
102
RTVSPropertyOp49
 70
     1
102
RTVSPropertyOp50
 70
     1
102
RTVSPropertyOp51
 70
     0
102
RTVSPropertyOp52
 70
     0
102
RTVSPropertyOp53
 70
     1
102
RTVSPropertyOp54
 70
     1
102
RTVSPropertyOp55
 70
     1
102
RTVSPropertyOp56
 70
     1
102
RTVSPropertyOp57
 70
     1
102
RTVSPost2010Prop28
280
     0
102
RTVSPost2010PropOp28
 70
     1
102
RTVSPost2010Prop29
280
     1
102
RTVSPost2010PropOp29
 70
     1
102
RTVSPost2010Prop30
280
     1
102
RTVSPost2010PropOp30
 70
     1
102
RTVSPost2010Prop31
280
     0
102
RTVSPost2010PropOp31
 70
     1
102
RTVSPost2010Prop32
280
     0
102
RTVSPost2010PropOp32
 70
     1
102
RTVSPost2010Prop33
280
     0
102
RTVSPost2010PropOp33
 70
     1
102
RTVSPost2010Prop34
280
     0
102
RTVSPost2010PropOp34
 70
     1
102
RTVSPost2010Prop35
280
     0
102
RTVSPost2010PropOp35
 70
     1
102
RTVSPost2010Prop36
280
     0
102
RTVSPost2010PropOp36
 70
     1
102
RTVSPost2010Prop37
 90
       50
102
RTVSPost2010PropOp37
 70
     1
102
RTVSPost2010Prop38
140
0.0
102
RTVSPost2010PropOp38
 70
     1
102
RTVSPost2010Prop39
140
1.0
102
RTVSPost2010PropOp39
 70
     1
102
RTVSPost2010Prop40
 90
        0
102
RTVSPost2010PropOp40
 70
     1
102
RTVSPost2010Prop41ColorIndex
 90
       18
102
RTVSPost2010Prop41ColorRGB
 90
        0
102
RTVSPost2010PropOp41
 70
     1
102
RTVSPost2010Prop42
 90
       50
102
RTVSPost2010PropOp42
 70
     1
102
RTVSPost2010Prop43
 90
        3
102
RTVSPost2010PropOp43
 70
     1
102
RTVSPost2010Prop44ColorIndex
 90
        5
102
RTVSPost2010Prop44ColorRGB
 90
      255
102
RTVSPost2010PropOp44
 70
     1
102
RTVSPost2010Prop45
280
     0
102
RTVSPost2010PropOp45
 70
     1
102
RTVSPost2010Prop46
 90
       50
102
RTVSPost2010PropOp46
 70
     1
102
RTVSPost2010Prop47
 90
       50
102
RTVSPost2010PropOp47
 70
     1
102
RTVSPost2010Prop48
 90
       50
102
RTVSPost2010PropOp48
 70
     1
102
RTVSPost2010Prop49
280
     0
102
RTVSPost2010PropOp49
 70
     1
102
RTVSPost2010Prop50
 90
       50
102
RTVSPost2010PropOp50
 70
     1
102
RTVSPost2010Prop51ColorIndex
 90
      256
102
RTVSPost2010Prop51ColorRGB
 90
-16777216
102
RTVSPost2010PropOp51
 70
     0
102
RTVSPost2010Prop52
140
1.0
102
RTVSPost2010PropOp52
 70
     0
102
RTVSPost2010Prop53
 90
        2
102
RTVSPost2010PropOp53
 70
     1
102
RTVSPost2010Prop54
  1
strokes_ogs.tif
102
RTVSPost2010PropOp54
 70
     1
102
RTVSPost2010Prop55
280
     0
102
RTVSPost2010PropOp55
 70
     1
102
RTVSPost2010Prop56
140
1.0
102
RTVSPost2010PropOp56
 70
     1
102
RTVSPost2010Prop57
140
1.0
102
RTVSPost2010PropOp57
 70
     1
  0
XRECORD
  5
13B6
102
{ACAD_REACTORS
330
13B5
102
}
330
13B5
100
AcDbXrecord
280
     1
102
RTVSPropertyOp0
 70
     1
102
RTVSPropertyOp1
 70
     1
102
RTVSPropertyOp2
 70
     1
102
RTVSPropertyOp3
 70
     1
102
RTVSPropertyOp4
 70
     1
102
RTVSPropertyOp5
 70
     1
102
RTVSPropertyOp6
 70
     1
102
RTVSPropertyOp7
 70
     1
102
RTVSPropertyOp8
 70
     1
102
RTVSPropertyOp9
 70
     1
102
RTVSPropertyOp10
 70
     1
102
RTVSPropertyOp11
 70
     1
102
RTVSPropertyOp12
 70
     1
102
RTVSPropertyOp13
 70
     1
102
RTVSPropertyOp14
 70
     1
102
RTVSPropertyOp15
 70
     1
102
RTVSPropertyOp16
 70
     1
102
RTVSPropertyOp17
 70
     1
102
RTVSPropertyOp18
 70
     1
102
RTVSPropertyOp19
 70
     1
102
RTVSPropertyOp20
 70
     1
102
RTVSPropertyOp21
 70
     1
102
RTVSPropertyOp22
 70
     1
102
RTVSPropertyOp23
 70
     1
102
RTVSPropertyOp24
 70
     1
102
RTVSPropertyOp25
 70
     1
102
RTVSPropertyOp26
 70
     1
102
RTVSPropertyOp27
 70
     1
102
RTVSPropertyOp28
 70
     1
102
RTVSPropertyOp29
 70
     1
102
RTVSPropertyOp30
 70
     1
102
RTVSPropertyOp31
 70
     1
102
RTVSPropertyOp32
 70
     1
102
RTVSPropertyOp33
 70
     1
102
RTVSPropertyOp34
 70
     1
102
RTVSPropertyOp35
 70
     1
102
RTVSPropertyOp36
 70
     1
102
RTVSPropertyOp37
 70
     1
102
RTVSPropertyOp38
 70
     1
102
RTVSPropertyOp39
 70
     1
102
RTVSPropertyOp40
 70
     1
102
RTVSPropertyOp41
 70
     1
102
RTVSPropertyOp42
 70
     1
102
RTVSPropertyOp43
 70
     1
102
RTVSPropertyOp44
 70
     1
102
RTVSPropertyOp45
 70
     1
102
RTVSPropertyOp46
 70
     1
102
RTVSPropertyOp47
 70
     1
102
RTVSPropertyOp48
 70
     1
102
RTVSPropertyOp49
 70
     1
102
RTVSPropertyOp50
 70
     1
102
RTVSPropertyOp51
 70
     0
102
RTVSPropertyOp52
 70
     0
102
RTVSPropertyOp53
 70
     1
102
RTVSPropertyOp54
 70
     1
102
RTVSPropertyOp55
 70
     1
102
RTVSPropertyOp56
 70
     1
102
RTVSPropertyOp57
 70
     1
102
RTVSPost2010Prop28
280
     0
102
RTVSPost2010PropOp28
 70
     1
102
RTVSPost2010Prop29
280
     1
102
RTVSPost2010PropOp29
 70
     1
102
RTVSPost2010Prop30
280
     1
102
RTVSPost2010PropOp30
 70
     1
102
RTVSPost2010Prop31
280
     0
102
RTVSPost2010PropOp31
 70
     1
102
RTVSPost2010Prop32
280
     0
102
RTVSPost2010PropOp32
 70
     1
102
RTVSPost2010Prop33
280
     0
102
RTVSPost2010PropOp33
 70
     1
102
RTVSPost2010Prop34
280
     0
102
RTVSPost2010PropOp34
 70
     1
102
RTVSPost2010Prop35
280
     0
102
RTVSPost2010PropOp35
 70
     1
102
RTVSPost2010Prop36
280
     0
102
RTVSPost2010PropOp36
 70
     1
102
RTVSPost2010Prop37
 90
       50
102
RTVSPost2010PropOp37
 70
     1
102
RTVSPost2010Prop38
140
0.0
102
RTVSPost2010PropOp38
 70
     1
102
RTVSPost2010Prop39
140
1.0
102
RTVSPost2010PropOp39
 70
     1
102
RTVSPost2010Prop40
 90
        0
102
RTVSPost2010PropOp40
 70
     1
102
RTVSPost2010Prop41ColorIndex
 90
       18
102
RTVSPost2010Prop41ColorRGB
 90
        0
102
RTVSPost2010PropOp41
 70
     1
102
RTVSPost2010Prop42
 90
       50
102
RTVSPost2010PropOp42
 70
     1
102
RTVSPost2010Prop43
 90
        3
102
RTVSPost2010PropOp43
 70
     1
102
RTVSPost2010Prop44ColorIndex
 90
        5
102
RTVSPost2010Prop44ColorRGB
 90
      255
102
RTVSPost2010PropOp44
 70
     1
102
RTVSPost2010Prop45
280
     0
102
RTVSPost2010PropOp45
 70
     1
102
RTVSPost2010Prop46
 90
       50
102
RTVSPost2010PropOp46
 70
     1
102
RTVSPost2010Prop47
 90
       50
102
RTVSPost2010PropOp47
 70
     1
102
RTVSPost2010Prop48
 90
       50
102
RTVSPost2010PropOp48
 70
     1
102
RTVSPost2010Prop49
280
     0
102
RTVSPost2010PropOp49
 70
     1
102
RTVSPost2010Prop50
 90
       50
102
RTVSPost2010PropOp50
 70
     1
102
RTVSPost2010Prop51ColorIndex
 90
      256
102
RTVSPost2010Prop51ColorRGB
 90
-16777216
102
RTVSPost2010PropOp51
 70
     0
102
RTVSPost2010Prop52
140
1.0
102
RTVSPost2010PropOp52
 70
     0
102
RTVSPost2010Prop53
 90
        2
102
RTVSPost2010PropOp53
 70
     1
102
RTVSPost2010Prop54
  1
strokes_ogs.tif
102
RTVSPost2010PropOp54
 70
     1
102
RTVSPost2010Prop55
280
     0
102
RTVSPost2010PropOp55
 70
     1
102
RTVSPost2010Prop56
140
1.0
102
RTVSPost2010PropOp56
 70
     1
102
RTVSPost2010Prop57
140
1.0
102
RTVSPost2010PropOp57
 70
     1
  0
XRECORD
  5
13B8
102
{ACAD_REACTORS
330
13B7
102
}
330
13B7
100
AcDbXrecord
280
     1
102
RTVSPropertyOp0
 70
     1
102
RTVSPropertyOp1
 70
     1
102
RTVSPropertyOp2
 70
     1
102
RTVSPropertyOp3
 70
     1
102
RTVSPropertyOp4
 70
     1
102
RTVSPropertyOp5
 70
     1
102
RTVSPropertyOp6
 70
     1
102
RTVSPropertyOp7
 70
     1
102
RTVSPropertyOp8
 70
     1
102
RTVSPropertyOp9
 70
     1
102
RTVSPropertyOp10
 70
     1
102
RTVSPropertyOp11
 70
     1
102
RTVSPropertyOp12
 70
     1
102
RTVSPropertyOp13
 70
     1
102
RTVSPropertyOp14
 70
     1
102
RTVSPropertyOp15
 70
     1
102
RTVSPropertyOp16
 70
     1
102
RTVSPropertyOp17
 70
     1
102
RTVSPropertyOp18
 70
     1
102
RTVSPropertyOp19
 70
     1
102
RTVSPropertyOp20
 70
     1
102
RTVSPropertyOp21
 70
     1
102
RTVSPropertyOp22
 70
     1
102
RTVSPropertyOp23
 70
     1
102
RTVSPropertyOp24
 70
     1
102
RTVSPropertyOp25
 70
     1
102
RTVSPropertyOp26
 70
     1
102
RTVSPropertyOp27
 70
     1
102
RTVSPropertyOp28
 70
     1
102
RTVSPropertyOp29
 70
     1
102
RTVSPropertyOp30
 70
     1
102
RTVSPropertyOp31
 70
     1
102
RTVSPropertyOp32
 70
     1
102
RTVSPropertyOp33
 70
     1
102
RTVSPropertyOp34
 70
     1
102
RTVSPropertyOp35
 70
     1
102
RTVSPropertyOp36
 70
     1
102
RTVSPropertyOp37
 70
     1
102
RTVSPropertyOp38
 70
     1
102
RTVSPropertyOp39
 70
     1
102
RTVSPropertyOp40
 70
     1
102
RTVSPropertyOp41
 70
     1
102
RTVSPropertyOp42
 70
     1
102
RTVSPropertyOp43
 70
     1
102
RTVSPropertyOp44
 70
     1
102
RTVSPropertyOp45
 70
     1
102
RTVSPropertyOp46
 70
     1
102
RTVSPropertyOp47
 70
     1
102
RTVSPropertyOp48
 70
     1
102
RTVSPropertyOp49
 70
     1
102
RTVSPropertyOp50
 70
     1
102
RTVSPropertyOp51
 70
     0
102
RTVSPropertyOp52
 70
     0
102
RTVSPropertyOp53
 70
     1
102
RTVSPropertyOp54
 70
     1
102
RTVSPropertyOp55
 70
     1
102
RTVSPropertyOp56
 70
     1
102
RTVSPropertyOp57
 70
     1
102
RTVSPost2010Prop28
280
     0
102
RTVSPost2010PropOp28
 70
     1
102
RTVSPost2010Prop29
280
     1
102
RTVSPost2010PropOp29
 70
     1
102
RTVSPost2010Prop30
280
     1
102
RTVSPost2010PropOp30
 70
     1
102
RTVSPost2010Prop31
280
     0
102
RTVSPost2010PropOp31
 70
     1
102
RTVSPost2010Prop32
280
     0
102
RTVSPost2010PropOp32
 70
     1
102
RTVSPost2010Prop33
280
     0
102
RTVSPost2010PropOp33
 70
     1
102
RTVSPost2010Prop34
280
     0
102
RTVSPost2010PropOp34
 70
     1
102
RTVSPost2010Prop35
280
     0
102
RTVSPost2010PropOp35
 70
     1
102
RTVSPost2010Prop36
280
     0
102
RTVSPost2010PropOp36
 70
     1
102
RTVSPost2010Prop37
 90
       50
102
RTVSPost2010PropOp37
 70
     1
102
RTVSPost2010Prop38
140
0.0
102
RTVSPost2010PropOp38
 70
     1
102
RTVSPost2010Prop39
140
1.0
102
RTVSPost2010PropOp39
 70
     1
102
RTVSPost2010Prop40
 90
        0
102
RTVSPost2010PropOp40
 70
     1
102
RTVSPost2010Prop41ColorIndex
 90
       18
102
RTVSPost2010Prop41ColorRGB
 90
        0
102
RTVSPost2010PropOp41
 70
     1
102
RTVSPost2010Prop42
 90
       50
102
RTVSPost2010PropOp42
 70
     1
102
RTVSPost2010Prop43
 90
        3
102
RTVSPost2010PropOp43
 70
     1
102
RTVSPost2010Prop44ColorIndex
 90
        5
102
RTVSPost2010Prop44ColorRGB
 90
      255
102
RTVSPost2010PropOp44
 70
     1
102
RTVSPost2010Prop45
280
     0
102
RTVSPost2010PropOp45
 70
     1
102
RTVSPost2010Prop46
 90
       50
102
RTVSPost2010PropOp46
 70
     1
102
RTVSPost2010Prop47
 90
       50
102
RTVSPost2010PropOp47
 70
     1
102
RTVSPost2010Prop48
 90
       50
102
RTVSPost2010PropOp48
 70
     1
102
RTVSPost2010Prop49
280
     0
102
RTVSPost2010PropOp49
 70
     1
102
RTVSPost2010Prop50
 90
       50
102
RTVSPost2010PropOp50
 70
     1
102
RTVSPost2010Prop51ColorIndex
 90
      256
102
RTVSPost2010Prop51ColorRGB
 90
-16777216
102
RTVSPost2010PropOp51
 70
     0
102
RTVSPost2010Prop52
140
1.0
102
RTVSPost2010PropOp52
 70
     0
102
RTVSPost2010Prop53
 90
        2
102
RTVSPost2010PropOp53
 70
     1
102
RTVSPost2010Prop54
  1
strokes_ogs.tif
102
RTVSPost2010PropOp54
 70
     1
102
RTVSPost2010Prop55
280
     0
102
RTVSPost2010PropOp55
 70
     1
102
RTVSPost2010Prop56
140
1.0
102
RTVSPost2010PropOp56
 70
     1
102
RTVSPost2010Prop57
140
1.0
102
RTVSPost2010PropOp57
 70
     1
  0
XRECORD
  5
13BA
102
{ACAD_REACTORS
330
13B9
102
}
330
13B9
100
AcDbXrecord
280
     1
102
RTVSPropertyOp0
 70
     1
102
RTVSPropertyOp1
 70
     1
102
RTVSPropertyOp2
 70
     1
102
RTVSPropertyOp3
 70
     1
102
RTVSPropertyOp4
 70
     1
102
RTVSPropertyOp5
 70
     1
102
RTVSPropertyOp6
 70
     1
102
RTVSPropertyOp7
 70
     1
102
RTVSPropertyOp8
 70
     1
102
RTVSPropertyOp9
 70
     1
102
RTVSPropertyOp10
 70
     1
102
RTVSPropertyOp11
 70
     1
102
RTVSPropertyOp12
 70
     1
102
RTVSPropertyOp13
 70
     1
102
RTVSPropertyOp14
 70
     1
102
RTVSPropertyOp15
 70
     1
102
RTVSPropertyOp16
 70
     1
102
RTVSPropertyOp17
 70
     1
102
RTVSPropertyOp18
 70
     1
102
RTVSPropertyOp19
 70
     1
102
RTVSPropertyOp20
 70
     1
102
RTVSPropertyOp21
 70
     1
102
RTVSPropertyOp22
 70
     1
102
RTVSPropertyOp23
 70
     1
102
RTVSPropertyOp24
 70
     1
102
RTVSPropertyOp25
 70
     1
102
RTVSPropertyOp26
 70
     1
102
RTVSPropertyOp27
 70
     1
102
RTVSPropertyOp28
 70
     1
102
RTVSPropertyOp29
 70
     1
102
RTVSPropertyOp30
 70
     1
102
RTVSPropertyOp31
 70
     1
102
RTVSPropertyOp32
 70
     1
102
RTVSPropertyOp33
 70
     1
102
RTVSPropertyOp34
 70
     1
102
RTVSPropertyOp35
 70
     1
102
RTVSPropertyOp36
 70
     1
102
RTVSPropertyOp37
 70
     1
102
RTVSPropertyOp38
 70
     1
102
RTVSPropertyOp39
 70
     1
102
RTVSPropertyOp40
 70
     1
102
RTVSPropertyOp41
 70
     1
102
RTVSPropertyOp42
 70
     1
102
RTVSPropertyOp43
 70
     1
102
RTVSPropertyOp44
 70
     1
102
RTVSPropertyOp45
 70
     1
102
RTVSPropertyOp46
 70
     1
102
RTVSPropertyOp47
 70
     1
102
RTVSPropertyOp48
 70
     1
102
RTVSPropertyOp49
 70
     1
102
RTVSPropertyOp50
 70
     1
102
RTVSPropertyOp51
 70
     0
102
RTVSPropertyOp52
 70
     0
102
RTVSPropertyOp53
 70
     1
102
RTVSPropertyOp54
 70
     1
102
RTVSPropertyOp55
 70
     1
102
RTVSPropertyOp56
 70
     1
102
RTVSPropertyOp57
 70
     1
102
RTVSPost2010Prop28
280
     0
102
RTVSPost2010PropOp28
 70
     1
102
RTVSPost2010Prop29
280
     1
102
RTVSPost2010PropOp29
 70
     1
102
RTVSPost2010Prop30
280
     1
102
RTVSPost2010PropOp30
 70
     1
102
RTVSPost2010Prop31
280
     0
102
RTVSPost2010PropOp31
 70
     1
102
RTVSPost2010Prop32
280
     0
102
RTVSPost2010PropOp32
 70
     1
102
RTVSPost2010Prop33
280
     0
102
RTVSPost2010PropOp33
 70
     1
102
RTVSPost2010Prop34
280
     0
102
RTVSPost2010PropOp34
 70
     1
102
RTVSPost2010Prop35
280
     0
102
RTVSPost2010PropOp35
 70
     1
102
RTVSPost2010Prop36
280
     0
102
RTVSPost2010PropOp36
 70
     1
102
RTVSPost2010Prop37
 90
       50
102
RTVSPost2010PropOp37
 70
     1
102
RTVSPost2010Prop38
140
0.0
102
RTVSPost2010PropOp38
 70
     1
102
RTVSPost2010Prop39
140
1.0
102
RTVSPost2010PropOp39
 70
     1
102
RTVSPost2010Prop40
 90
        0
102
RTVSPost2010PropOp40
 70
     1
102
RTVSPost2010Prop41ColorIndex
 90
       18
102
RTVSPost2010Prop41ColorRGB
 90
        0
102
RTVSPost2010PropOp41
 70
     1
102
RTVSPost2010Prop42
 90
       50
102
RTVSPost2010PropOp42
 70
     1
102
RTVSPost2010Prop43
 90
        3
102
RTVSPost2010PropOp43
 70
     1
102
RTVSPost2010Prop44ColorIndex
 90
        5
102
RTVSPost2010Prop44ColorRGB
 90
      255
102
RTVSPost2010PropOp44
 70
     1
102
RTVSPost2010Prop45
280
     0
102
RTVSPost2010PropOp45
 70
     1
102
RTVSPost2010Prop46
 90
       50
102
RTVSPost2010PropOp46
 70
     1
102
RTVSPost2010Prop47
 90
       50
102
RTVSPost2010PropOp47
 70
     1
102
RTVSPost2010Prop48
 90
       50
102
RTVSPost2010PropOp48
 70
     1
102
RTVSPost2010Prop49
280
     0
102
RTVSPost2010PropOp49
 70
     1
102
RTVSPost2010Prop50
 90
       50
102
RTVSPost2010PropOp50
 70
     1
102
RTVSPost2010Prop51ColorIndex
 90
      256
102
RTVSPost2010Prop51ColorRGB
 90
-16777216
102
RTVSPost2010PropOp51
 70
     0
102
RTVSPost2010Prop52
140
1.0
102
RTVSPost2010PropOp52
 70
     0
102
RTVSPost2010Prop53
 90
        2
102
RTVSPost2010PropOp53
 70
     1
102
RTVSPost2010Prop54
  1
strokes_ogs.tif
102
RTVSPost2010PropOp54
 70
     1
102
RTVSPost2010Prop55
280
     0
102
RTVSPost2010PropOp55
 70
     1
102
RTVSPost2010Prop56
140
1.0
102
RTVSPost2010PropOp56
 70
     1
102
RTVSPost2010Prop57
140
1.0
102
RTVSPost2010PropOp57
 70
     1
  0
XRECORD
  5
13BC
102
{ACAD_REACTORS
330
13BB
102
}
330
13BB
100
AcDbXrecord
280
     1
102
RTVSPropertyOp0
 70
     1
102
RTVSPropertyOp1
 70
     1
102
RTVSPropertyOp2
 70
     1
102
RTVSPropertyOp3
 70
     1
102
RTVSPropertyOp4
 70
     1
102
RTVSPropertyOp5
 70
     1
102
RTVSPropertyOp6
 70
     1
102
RTVSPropertyOp7
 70
     1
102
RTVSPropertyOp8
 70
     1
102
RTVSPropertyOp9
 70
     1
102
RTVSPropertyOp10
 70
     1
102
RTVSPropertyOp11
 70
     1
102
RTVSPropertyOp12
 70
     1
102
RTVSPropertyOp13
 70
     1
102
RTVSPropertyOp14
 70
     1
102
RTVSPropertyOp15
 70
     1
102
RTVSPropertyOp16
 70
     1
102
RTVSPropertyOp17
 70
     1
102
RTVSPropertyOp18
 70
     1
102
RTVSPropertyOp19
 70
     1
102
RTVSPropertyOp20
 70
     1
102
RTVSPropertyOp21
 70
     1
102
RTVSPropertyOp22
 70
     1
102
RTVSPropertyOp23
 70
     1
102
RTVSPropertyOp24
 70
     1
102
RTVSPropertyOp25
 70
     1
102
RTVSPropertyOp26
 70
     1
102
RTVSPropertyOp27
 70
     1
102
RTVSPropertyOp28
 70
     1
102
RTVSPropertyOp29
 70
     1
102
RTVSPropertyOp30
 70
     1
102
RTVSPropertyOp31
 70
     1
102
RTVSPropertyOp32
 70
     1
102
RTVSPropertyOp33
 70
     1
102
RTVSPropertyOp34
 70
     1
102
RTVSPropertyOp35
 70
     1
102
RTVSPropertyOp36
 70
     1
102
RTVSPropertyOp37
 70
     1
102
RTVSPropertyOp38
 70
     1
102
RTVSPropertyOp39
 70
     1
102
RTVSPropertyOp40
 70
     1
102
RTVSPropertyOp41
 70
     1
102
RTVSPropertyOp42
 70
     1
102
RTVSPropertyOp43
 70
     1
102
RTVSPropertyOp44
 70
     1
102
RTVSPropertyOp45
 70
     1
102
RTVSPropertyOp46
 70
     1
102
RTVSPropertyOp47
 70
     1
102
RTVSPropertyOp48
 70
     1
102
RTVSPropertyOp49
 70
     1
102
RTVSPropertyOp50
 70
     1
102
RTVSPropertyOp51
 70
     0
102
RTVSPropertyOp52
 70
     0
102
RTVSPropertyOp53
 70
     1
102
RTVSPropertyOp54
 70
     1
102
RTVSPropertyOp55
 70
     1
102
RTVSPropertyOp56
 70
     1
102
RTVSPropertyOp57
 70
     1
102
RTVSPost2010Prop28
280
     0
102
RTVSPost2010PropOp28
 70
     1
102
RTVSPost2010Prop29
280
     1
102
RTVSPost2010PropOp29
 70
     1
102
RTVSPost2010Prop30
280
     1
102
RTVSPost2010PropOp30
 70
     1
102
RTVSPost2010Prop31
280
     0
102
RTVSPost2010PropOp31
 70
     1
102
RTVSPost2010Prop32
280
     0
102
RTVSPost2010PropOp32
 70
     1
102
RTVSPost2010Prop33
280
     0
102
RTVSPost2010PropOp33
 70
     1
102
RTVSPost2010Prop34
280
     0
102
RTVSPost2010PropOp34
 70
     1
102
RTVSPost2010Prop35
280
     0
102
RTVSPost2010PropOp35
 70
     1
102
RTVSPost2010Prop36
280
     0
102
RTVSPost2010PropOp36
 70
     1
102
RTVSPost2010Prop37
 90
       50
102
RTVSPost2010PropOp37
 70
     1
102
RTVSPost2010Prop38
140
0.0
102
RTVSPost2010PropOp38
 70
     1
102
RTVSPost2010Prop39
140
1.0
102
RTVSPost2010PropOp39
 70
     1
102
RTVSPost2010Prop40
 90
        0
102
RTVSPost2010PropOp40
 70
     1
102
RTVSPost2010Prop41ColorIndex
 90
       18
102
RTVSPost2010Prop41ColorRGB
 90
        0
102
RTVSPost2010PropOp41
 70
     1
102
RTVSPost2010Prop42
 90
       50
102
RTVSPost2010PropOp42
 70
     1
102
RTVSPost2010Prop43
 90
        3
102
RTVSPost2010PropOp43
 70
     1
102
RTVSPost2010Prop44ColorIndex
 90
        5
102
RTVSPost2010Prop44ColorRGB
 90
      255
102
RTVSPost2010PropOp44
 70
     1
102
RTVSPost2010Prop45
280
     0
102
RTVSPost2010PropOp45
 70
     1
102
RTVSPost2010Prop46
 90
       50
102
RTVSPost2010PropOp46
 70
     1
102
RTVSPost2010Prop47
 90
       50
102
RTVSPost2010PropOp47
 70
     1
102
RTVSPost2010Prop48
 90
       50
102
RTVSPost2010PropOp48
 70
     1
102
RTVSPost2010Prop49
280
     0
102
RTVSPost2010PropOp49
 70
     1
102
RTVSPost2010Prop50
 90
       50
102
RTVSPost2010PropOp50
 70
     1
102
RTVSPost2010Prop51ColorIndex
 90
      256
102
RTVSPost2010Prop51ColorRGB
 90
-16777216
102
RTVSPost2010PropOp51
 70
     0
102
RTVSPost2010Prop52
140
1.0
102
RTVSPost2010PropOp52
 70
     0
102
RTVSPost2010Prop53
 90
        2
102
RTVSPost2010PropOp53
 70
     1
102
RTVSPost2010Prop54
  1
strokes_ogs.tif
102
RTVSPost2010PropOp54
 70
     1
102
RTVSPost2010Prop55
280
     0
102
RTVSPost2010PropOp55
 70
     1
102
RTVSPost2010Prop56
140
1.0
102
RTVSPost2010PropOp56
 70
     1
102
RTVSPost2010Prop57
140
1.0
102
RTVSPost2010PropOp57
 70
     1
  0
XRECORD
  5
13BE
102
{ACAD_REACTORS
330
13BD
102
}
330
13BD
100
AcDbXrecord
280
     1
102
RTVSPropertyOp0
 70
     1
102
RTVSPropertyOp1
 70
     1
102
RTVSPropertyOp2
 70
     1
102
RTVSPropertyOp3
 70
     1
102
RTVSPropertyOp4
 70
     1
102
RTVSPropertyOp5
 70
     1
102
RTVSPropertyOp6
 70
     1
102
RTVSPropertyOp7
 70
     1
102
RTVSPropertyOp8
 70
     1
102
RTVSPropertyOp9
 70
     1
102
RTVSPropertyOp10
 70
     1
102
RTVSPropertyOp11
 70
     1
102
RTVSPropertyOp12
 70
     1
102
RTVSPropertyOp13
 70
     1
102
RTVSPropertyOp14
 70
     1
102
RTVSPropertyOp15
 70
     1
102
RTVSPropertyOp16
 70
     1
102
RTVSPropertyOp17
 70
     1
102
RTVSPropertyOp18
 70
     1
102
RTVSPropertyOp19
 70
     1
102
RTVSPropertyOp20
 70
     1
102
RTVSPropertyOp21
 70
     1
102
RTVSPropertyOp22
 70
     1
102
RTVSPropertyOp23
 70
     1
102
RTVSPropertyOp24
 70
     1
102
RTVSPropertyOp25
 70
     1
102
RTVSPropertyOp26
 70
     1
102
RTVSPropertyOp27
 70
     1
102
RTVSPropertyOp28
 70
     1
102
RTVSPropertyOp29
 70
     1
102
RTVSPropertyOp30
 70
     1
102
RTVSPropertyOp31
 70
     1
102
RTVSPropertyOp32
 70
     1
102
RTVSPropertyOp33
 70
     1
102
RTVSPropertyOp34
 70
     1
102
RTVSPropertyOp35
 70
     1
102
RTVSPropertyOp36
 70
     1
102
RTVSPropertyOp37
 70
     1
102
RTVSPropertyOp38
 70
     1
102
RTVSPropertyOp39
 70
     1
102
RTVSPropertyOp40
 70
     1
102
RTVSPropertyOp41
 70
     1
102
RTVSPropertyOp42
 70
     1
102
RTVSPropertyOp43
 70
     1
102
RTVSPropertyOp44
 70
     1
102
RTVSPropertyOp45
 70
     1
102
RTVSPropertyOp46
 70
     1
102
RTVSPropertyOp47
 70
     1
102
RTVSPropertyOp48
 70
     1
102
RTVSPropertyOp49
 70
     1
102
RTVSPropertyOp50
 70
     1
102
RTVSPropertyOp51
 70
     0
102
RTVSPropertyOp52
 70
     0
102
RTVSPropertyOp53
 70
     1
102
RTVSPropertyOp54
 70
     1
102
RTVSPropertyOp55
 70
     1
102
RTVSPropertyOp56
 70
     1
102
RTVSPropertyOp57
 70
     1
102
RTVSPost2010Prop28
280
     0
102
RTVSPost2010PropOp28
 70
     1
102
RTVSPost2010Prop29
280
     1
102
RTVSPost2010PropOp29
 70
     1
102
RTVSPost2010Prop30
280
     1
102
RTVSPost2010PropOp30
 70
     1
102
RTVSPost2010Prop31
280
     0
102
RTVSPost2010PropOp31
 70
     1
102
RTVSPost2010Prop32
280
     0
102
RTVSPost2010PropOp32
 70
     1
102
RTVSPost2010Prop33
280
     0
102
RTVSPost2010PropOp33
 70
     1
102
RTVSPost2010Prop34
280
     0
102
RTVSPost2010PropOp34
 70
     1
102
RTVSPost2010Prop35
280
     0
102
RTVSPost2010PropOp35
 70
     1
102
RTVSPost2010Prop36
280
     0
102
RTVSPost2010PropOp36
 70
     1
102
RTVSPost2010Prop37
 90
       50
102
RTVSPost2010PropOp37
 70
     1
102
RTVSPost2010Prop38
140
0.0
102
RTVSPost2010PropOp38
 70
     1
102
RTVSPost2010Prop39
140
1.0
102
RTVSPost2010PropOp39
 70
     1
102
RTVSPost2010Prop40
 90
        0
102
RTVSPost2010PropOp40
 70
     1
102
RTVSPost2010Prop41ColorIndex
 90
       18
102
RTVSPost2010Prop41ColorRGB
 90
        0
102
RTVSPost2010PropOp41
 70
     1
102
RTVSPost2010Prop42
 90
       50
102
RTVSPost2010PropOp42
 70
     1
102
RTVSPost2010Prop43
 90
        3
102
RTVSPost2010PropOp43
 70
     1
102
RTVSPost2010Prop44ColorIndex
 90
        5
102
RTVSPost2010Prop44ColorRGB
 90
      255
102
RTVSPost2010PropOp44
 70
     1
102
RTVSPost2010Prop45
280
     0
102
RTVSPost2010PropOp45
 70
     1
102
RTVSPost2010Prop46
 90
       50
102
RTVSPost2010PropOp46
 70
     1
102
RTVSPost2010Prop47
 90
       50
102
RTVSPost2010PropOp47
 70
     1
102
RTVSPost2010Prop48
 90
       50
102
RTVSPost2010PropOp48
 70
     1
102
RTVSPost2010Prop49
280
     0
102
RTVSPost2010PropOp49
 70
     1
102
RTVSPost2010Prop50
 90
       50
102
RTVSPost2010PropOp50
 70
     1
102
RTVSPost2010Prop51ColorIndex
 90
      256
102
RTVSPost2010Prop51ColorRGB
 90
-16777216
102
RTVSPost2010PropOp51
 70
     0
102
RTVSPost2010Prop52
140
1.0
102
RTVSPost2010PropOp52
 70
     0
102
RTVSPost2010Prop53
 90
        2
102
RTVSPost2010PropOp53
 70
     1
102
RTVSPost2010Prop54
  1
strokes_ogs.tif
102
RTVSPost2010PropOp54
 70
     1
102
RTVSPost2010Prop55
280
     0
102
RTVSPost2010PropOp55
 70
     1
102
RTVSPost2010Prop56
140
1.0
102
RTVSPost2010PropOp56
 70
     1
102
RTVSPost2010Prop57
140
1.0
102
RTVSPost2010PropOp57
 70
     1
  0
XRECORD
  5
13C0
102
{ACAD_REACTORS
330
13BF
102
}
330
13BF
100
AcDbXrecord
280
     1
102
RTVSPropertyOp0
 70
     1
102
RTVSPropertyOp1
 70
     1
102
RTVSPropertyOp2
 70
     1
102
RTVSPropertyOp3
 70
     1
102
RTVSPropertyOp4
 70
     1
102
RTVSPropertyOp5
 70
     1
102
RTVSPropertyOp6
 70
     1
102
RTVSPropertyOp7
 70
     1
102
RTVSPropertyOp8
 70
     1
102
RTVSPropertyOp9
 70
     1
102
RTVSPropertyOp10
 70
     1
102
RTVSPropertyOp11
 70
     1
102
RTVSPropertyOp12
 70
     1
102
RTVSPropertyOp13
 70
     1
102
RTVSPropertyOp14
 70
     1
102
RTVSPropertyOp15
 70
     1
102
RTVSPropertyOp16
 70
     1
102
RTVSPropertyOp17
 70
     1
102
RTVSPropertyOp18
 70
     1
102
RTVSPropertyOp19
 70
     1
102
RTVSPropertyOp20
 70
     1
102
RTVSPropertyOp21
 70
     1
102
RTVSPropertyOp22
 70
     1
102
RTVSPropertyOp23
 70
     1
102
RTVSPropertyOp24
 70
     1
102
RTVSPropertyOp25
 70
     1
102
RTVSPropertyOp26
 70
     1
102
RTVSPropertyOp27
 70
     1
102
RTVSPropertyOp28
 70
     1
102
RTVSPropertyOp29
 70
     1
102
RTVSPropertyOp30
 70
     1
102
RTVSPropertyOp31
 70
     1
102
RTVSPropertyOp32
 70
     1
102
RTVSPropertyOp33
 70
     1
102
RTVSPropertyOp34
 70
     1
102
RTVSPropertyOp35
 70
     1
102
RTVSPropertyOp36
 70
     1
102
RTVSPropertyOp37
 70
     1
102
RTVSPropertyOp38
 70
     1
102
RTVSPropertyOp39
 70
     1
102
RTVSPropertyOp40
 70
     1
102
RTVSPropertyOp41
 70
     1
102
RTVSPropertyOp42
 70
     1
102
RTVSPropertyOp43
 70
     1
102
RTVSPropertyOp44
 70
     1
102
RTVSPropertyOp45
 70
     1
102
RTVSPropertyOp46
 70
     1
102
RTVSPropertyOp47
 70
     1
102
RTVSPropertyOp48
 70
     1
102
RTVSPropertyOp49
 70
     1
102
RTVSPropertyOp50
 70
     1
102
RTVSPropertyOp51
 70
     0
102
RTVSPropertyOp52
 70
     0
102
RTVSPropertyOp53
 70
     1
102
RTVSPropertyOp54
 70
     1
102
RTVSPropertyOp55
 70
     1
102
RTVSPropertyOp56
 70
     1
102
RTVSPropertyOp57
 70
     1
102
RTVSPost2010Prop28
280
     0
102
RTVSPost2010PropOp28
 70
     1
102
RTVSPost2010Prop29
280
     1
102
RTVSPost2010PropOp29
 70
     1
102
RTVSPost2010Prop30
280
     1
102
RTVSPost2010PropOp30
 70
     1
102
RTVSPost2010Prop31
280
     0
102
RTVSPost2010PropOp31
 70
     1
102
RTVSPost2010Prop32
280
     0
102
RTVSPost2010PropOp32
 70
     1
102
RTVSPost2010Prop33
280
     0
102
RTVSPost2010PropOp33
 70
     1
102
RTVSPost2010Prop34
280
     0
102
RTVSPost2010PropOp34
 70
     1
102
RTVSPost2010Prop35
280
     0
102
RTVSPost2010PropOp35
 70
     1
102
RTVSPost2010Prop36
280
     0
102
RTVSPost2010PropOp36
 70
     1
102
RTVSPost2010Prop37
 90
       50
102
RTVSPost2010PropOp37
 70
     1
102
RTVSPost2010Prop38
140
0.0
102
RTVSPost2010PropOp38
 70
     1
102
RTVSPost2010Prop39
140
1.0
102
RTVSPost2010PropOp39
 70
     1
102
RTVSPost2010Prop40
 90
        0
102
RTVSPost2010PropOp40
 70
     1
102
RTVSPost2010Prop41ColorIndex
 90
       18
102
RTVSPost2010Prop41ColorRGB
 90
        0
102
RTVSPost2010PropOp41
 70
     1
102
RTVSPost2010Prop42
 90
       50
102
RTVSPost2010PropOp42
 70
     1
102
RTVSPost2010Prop43
 90
        3
102
RTVSPost2010PropOp43
 70
     1
102
RTVSPost2010Prop44ColorIndex
 90
        5
102
RTVSPost2010Prop44ColorRGB
 90
      255
102
RTVSPost2010PropOp44
 70
     1
102
RTVSPost2010Prop45
280
     0
102
RTVSPost2010PropOp45
 70
     1
102
RTVSPost2010Prop46
 90
       50
102
RTVSPost2010PropOp46
 70
     1
102
RTVSPost2010Prop47
 90
       50
102
RTVSPost2010PropOp47
 70
     1
102
RTVSPost2010Prop48
 90
       50
102
RTVSPost2010PropOp48
 70
     1
102
RTVSPost2010Prop49
280
     0
102
RTVSPost2010PropOp49
 70
     1
102
RTVSPost2010Prop50
 90
       50
102
RTVSPost2010PropOp50
 70
     1
102
RTVSPost2010Prop51ColorIndex
 90
      256
102
RTVSPost2010Prop51ColorRGB
 90
-16777216
102
RTVSPost2010PropOp51
 70
     0
102
RTVSPost2010Prop52
140
1.0
102
RTVSPost2010PropOp52
 70
     0
102
RTVSPost2010Prop53
 90
        2
102
RTVSPost2010PropOp53
 70
     1
102
RTVSPost2010Prop54
  1
strokes_ogs.tif
102
RTVSPost2010PropOp54
 70
     1
102
RTVSPost2010Prop55
280
     0
102
RTVSPost2010PropOp55
 70
     1
102
RTVSPost2010Prop56
140
1.0
102
RTVSPost2010PropOp56
 70
     1
102
RTVSPost2010Prop57
140
1.0
102
RTVSPost2010PropOp57
 70
     1
  0
XRECORD
  5
13C2
102
{ACAD_REACTORS
330
13C1
102
}
330
13C1
100
AcDbXrecord
280
     1
102
RTVSPropertyOp0
 70
     1
102
RTVSPropertyOp1
 70
     1
102
RTVSPropertyOp2
 70
     1
102
RTVSPropertyOp3
 70
     1
102
RTVSPropertyOp4
 70
     1
102
RTVSPropertyOp5
 70
     1
102
RTVSPropertyOp6
 70
     1
102
RTVSPropertyOp7
 70
     1
102
RTVSPropertyOp8
 70
     1
102
RTVSPropertyOp9
 70
     1
102
RTVSPropertyOp10
 70
     1
102
RTVSPropertyOp11
 70
     1
102
RTVSPropertyOp12
 70
     1
102
RTVSPropertyOp13
 70
     1
102
RTVSPropertyOp14
 70
     1
102
RTVSPropertyOp15
 70
     1
102
RTVSPropertyOp16
 70
     1
102
RTVSPropertyOp17
 70
     1
102
RTVSPropertyOp18
 70
     1
102
RTVSPropertyOp19
 70
     1
102
RTVSPropertyOp20
 70
     1
102
RTVSPropertyOp21
 70
     1
102
RTVSPropertyOp22
 70
     1
102
RTVSPropertyOp23
 70
     1
102
RTVSPropertyOp24
 70
     1
102
RTVSPropertyOp25
 70
     1
102
RTVSPropertyOp26
 70
     1
102
RTVSPropertyOp27
 70
     1
102
RTVSPropertyOp28
 70
     1
102
RTVSPropertyOp29
 70
     1
102
RTVSPropertyOp30
 70
     1
102
RTVSPropertyOp31
 70
     1
102
RTVSPropertyOp32
 70
     1
102
RTVSPropertyOp33
 70
     1
102
RTVSPropertyOp34
 70
     1
102
RTVSPropertyOp35
 70
     1
102
RTVSPropertyOp36
 70
     1
102
RTVSPropertyOp37
 70
     1
102
RTVSPropertyOp38
 70
     1
102
RTVSPropertyOp39
 70
     1
102
RTVSPropertyOp40
 70
     1
102
RTVSPropertyOp41
 70
     1
102
RTVSPropertyOp42
 70
     1
102
RTVSPropertyOp43
 70
     1
102
RTVSPropertyOp44
 70
     1
102
RTVSPropertyOp45
 70
     1
102
RTVSPropertyOp46
 70
     1
102
RTVSPropertyOp47
 70
     1
102
RTVSPropertyOp48
 70
     1
102
RTVSPropertyOp49
 70
     1
102
RTVSPropertyOp50
 70
     1
102
RTVSPropertyOp51
 70
     0
102
RTVSPropertyOp52
 70
     0
102
RTVSPropertyOp53
 70
     1
102
RTVSPropertyOp54
 70
     1
102
RTVSPropertyOp55
 70
     1
102
RTVSPropertyOp56
 70
     1
102
RTVSPropertyOp57
 70
     1
102
RTVSPost2010Prop28
280
     0
102
RTVSPost2010PropOp28
 70
     1
102
RTVSPost2010Prop29
280
     1
102
RTVSPost2010PropOp29
 70
     1
102
RTVSPost2010Prop30
280
     1
102
RTVSPost2010PropOp30
 70
     1
102
RTVSPost2010Prop31
280
     0
102
RTVSPost2010PropOp31
 70
     1
102
RTVSPost2010Prop32
280
     0
102
RTVSPost2010PropOp32
 70
     1
102
RTVSPost2010Prop33
280
     0
102
RTVSPost2010PropOp33
 70
     1
102
RTVSPost2010Prop34
280
     0
102
RTVSPost2010PropOp34
 70
     1
102
RTVSPost2010Prop35
280
     0
102
RTVSPost2010PropOp35
 70
     1
102
RTVSPost2010Prop36
280
     0
102
RTVSPost2010PropOp36
 70
     1
102
RTVSPost2010Prop37
 90
       50
102
RTVSPost2010PropOp37
 70
     1
102
RTVSPost2010Prop38
140
0.0
102
RTVSPost2010PropOp38
 70
     1
102
RTVSPost2010Prop39
140
1.0
102
RTVSPost2010PropOp39
 70
     1
102
RTVSPost2010Prop40
 90
        0
102
RTVSPost2010PropOp40
 70
     1
102
RTVSPost2010Prop41ColorIndex
 90
       18
102
RTVSPost2010Prop41ColorRGB
 90
        0
102
RTVSPost2010PropOp41
 70
     1
102
RTVSPost2010Prop42
 90
       50
102
RTVSPost2010PropOp42
 70
     1
102
RTVSPost2010Prop43
 90
        3
102
RTVSPost2010PropOp43
 70
     1
102
RTVSPost2010Prop44ColorIndex
 90
        5
102
RTVSPost2010Prop44ColorRGB
 90
      255
102
RTVSPost2010PropOp44
 70
     1
102
RTVSPost2010Prop45
280
     0
102
RTVSPost2010PropOp45
 70
     1
102
RTVSPost2010Prop46
 90
       50
102
RTVSPost2010PropOp46
 70
     1
102
RTVSPost2010Prop47
 90
       50
102
RTVSPost2010PropOp47
 70
     1
102
RTVSPost2010Prop48
 90
       50
102
RTVSPost2010PropOp48
 70
     1
102
RTVSPost2010Prop49
280
     0
102
RTVSPost2010PropOp49
 70
     1
102
RTVSPost2010Prop50
 90
       50
102
RTVSPost2010PropOp50
 70
     1
102
RTVSPost2010Prop51ColorIndex
 90
      256
102
RTVSPost2010Prop51ColorRGB
 90
-16777216
102
RTVSPost2010PropOp51
 70
     0
102
RTVSPost2010Prop52
140
1.0
102
RTVSPost2010PropOp52
 70
     0
102
RTVSPost2010Prop53
 90
        2
102
RTVSPost2010PropOp53
 70
     1
102
RTVSPost2010Prop54
  1
strokes_ogs.tif
102
RTVSPost2010PropOp54
 70
     1
102
RTVSPost2010Prop55
280
     0
102
RTVSPost2010PropOp55
 70
     1
102
RTVSPost2010Prop56
140
1.0
102
RTVSPost2010PropOp56
 70
     1
102
RTVSPost2010Prop57
140
1.0
102
RTVSPost2010PropOp57
 70
     1
  0
XRECORD
  5
13C4
102
{ACAD_REACTORS
330
13C3
102
}
330
13C3
100
AcDbXrecord
280
     1
102
RTVSPropertyOp0
 70
     1
102
RTVSPropertyOp1
 70
     1
102
RTVSPropertyOp2
 70
     1
102
RTVSPropertyOp3
 70
     1
102
RTVSPropertyOp4
 70
     1
102
RTVSPropertyOp5
 70
     1
102
RTVSPropertyOp6
 70
     1
102
RTVSPropertyOp7
 70
     1
102
RTVSPropertyOp8
 70
     1
102
RTVSPropertyOp9
 70
     1
102
RTVSPropertyOp10
 70
     1
102
RTVSPropertyOp11
 70
     1
102
RTVSPropertyOp12
 70
     1
102
RTVSPropertyOp13
 70
     1
102
RTVSPropertyOp14
 70
     1
102
RTVSPropertyOp15
 70
     1
102
RTVSPropertyOp16
 70
     1
102
RTVSPropertyOp17
 70
     1
102
RTVSPropertyOp18
 70
     1
102
RTVSPropertyOp19
 70
     1
102
RTVSPropertyOp20
 70
     1
102
RTVSPropertyOp21
 70
     1
102
RTVSPropertyOp22
 70
     1
102
RTVSPropertyOp23
 70
     1
102
RTVSPropertyOp24
 70
     1
102
RTVSPropertyOp25
 70
     1
102
RTVSPropertyOp26
 70
     1
102
RTVSPropertyOp27
 70
     1
102
RTVSPropertyOp28
 70
     1
102
RTVSPropertyOp29
 70
     1
102
RTVSPropertyOp30
 70
     1
102
RTVSPropertyOp31
 70
     1
102
RTVSPropertyOp32
 70
     1
102
RTVSPropertyOp33
 70
     1
102
RTVSPropertyOp34
 70
     1
102
RTVSPropertyOp35
 70
     1
102
RTVSPropertyOp36
 70
     1
102
RTVSPropertyOp37
 70
     1
102
RTVSPropertyOp38
 70
     1
102
RTVSPropertyOp39
 70
     1
102
RTVSPropertyOp40
 70
     1
102
RTVSPropertyOp41
 70
     1
102
RTVSPropertyOp42
 70
     1
102
RTVSPropertyOp43
 70
     1
102
RTVSPropertyOp44
 70
     1
102
RTVSPropertyOp45
 70
     1
102
RTVSPropertyOp46
 70
     1
102
RTVSPropertyOp47
 70
     1
102
RTVSPropertyOp48
 70
     1
102
RTVSPropertyOp49
 70
     1
102
RTVSPropertyOp50
 70
     1
102
RTVSPropertyOp51
 70
     0
102
RTVSPropertyOp52
 70
     0
102
RTVSPropertyOp53
 70
     1
102
RTVSPropertyOp54
 70
     1
102
RTVSPropertyOp55
 70
     1
102
RTVSPropertyOp56
 70
     1
102
RTVSPropertyOp57
 70
     1
102
RTVSPost2010Prop28
280
     0
102
RTVSPost2010PropOp28
 70
     1
102
RTVSPost2010Prop29
280
     1
102
RTVSPost2010PropOp29
 70
     1
102
RTVSPost2010Prop30
280
     1
102
RTVSPost2010PropOp30
 70
     1
102
RTVSPost2010Prop31
280
     0
102
RTVSPost2010PropOp31
 70
     1
102
RTVSPost2010Prop32
280
     0
102
RTVSPost2010PropOp32
 70
     1
102
RTVSPost2010Prop33
280
     0
102
RTVSPost2010PropOp33
 70
     1
102
RTVSPost2010Prop34
280
     0
102
RTVSPost2010PropOp34
 70
     1
102
RTVSPost2010Prop35
280
     0
102
RTVSPost2010PropOp35
 70
     1
102
RTVSPost2010Prop36
280
     0
102
RTVSPost2010PropOp36
 70
     1
102
RTVSPost2010Prop37
 90
       50
102
RTVSPost2010PropOp37
 70
     1
102
RTVSPost2010Prop38
140
0.0
102
RTVSPost2010PropOp38
 70
     1
102
RTVSPost2010Prop39
140
1.0
102
RTVSPost2010PropOp39
 70
     1
102
RTVSPost2010Prop40
 90
        0
102
RTVSPost2010PropOp40
 70
     1
102
RTVSPost2010Prop41ColorIndex
 90
       18
102
RTVSPost2010Prop41ColorRGB
 90
        0
102
RTVSPost2010PropOp41
 70
     1
102
RTVSPost2010Prop42
 90
       50
102
RTVSPost2010PropOp42
 70
     1
102
RTVSPost2010Prop43
 90
        3
102
RTVSPost2010PropOp43
 70
     1
102
RTVSPost2010Prop44ColorIndex
 90
        5
102
RTVSPost2010Prop44ColorRGB
 90
      255
102
RTVSPost2010PropOp44
 70
     1
102
RTVSPost2010Prop45
280
     0
102
RTVSPost2010PropOp45
 70
     1
102
RTVSPost2010Prop46
 90
       50
102
RTVSPost2010PropOp46
 70
     1
102
RTVSPost2010Prop47
 90
       50
102
RTVSPost2010PropOp47
 70
     1
102
RTVSPost2010Prop48
 90
       50
102
RTVSPost2010PropOp48
 70
     1
102
RTVSPost2010Prop49
280
     0
102
RTVSPost2010PropOp49
 70
     1
102
RTVSPost2010Prop50
 90
       50
102
RTVSPost2010PropOp50
 70
     1
102
RTVSPost2010Prop51ColorIndex
 90
      256
102
RTVSPost2010Prop51ColorRGB
 90
-16777216
102
RTVSPost2010PropOp51
 70
     0
102
RTVSPost2010Prop52
140
1.0
102
RTVSPost2010PropOp52
 70
     0
102
RTVSPost2010Prop53
 90
        2
102
RTVSPost2010PropOp53
 70
     1
102
RTVSPost2010Prop54
  1
strokes_ogs.tif
102
RTVSPost2010PropOp54
 70
     1
102
RTVSPost2010Prop55
280
     0
102
RTVSPost2010PropOp55
 70
     1
102
RTVSPost2010Prop56
140
1.0
102
RTVSPost2010PropOp56
 70
     1
102
RTVSPost2010Prop57
140
1.0
102
RTVSPost2010PropOp57
 70
     1
  0
XRECORD
  5
13C6
102
{ACAD_REACTORS
330
13C5
102
}
330
13C5
100
AcDbXrecord
280
     1
102
RTVSPropertyOp0
 70
     1
102
RTVSPropertyOp1
 70
     1
102
RTVSPropertyOp2
 70
     1
102
RTVSPropertyOp3
 70
     1
102
RTVSPropertyOp4
 70
     1
102
RTVSPropertyOp5
 70
     1
102
RTVSPropertyOp6
 70
     1
102
RTVSPropertyOp7
 70
     1
102
RTVSPropertyOp8
 70
     1
102
RTVSPropertyOp9
 70
     1
102
RTVSPropertyOp10
 70
     1
102
RTVSPropertyOp11
 70
     1
102
RTVSPropertyOp12
 70
     1
102
RTVSPropertyOp13
 70
     1
102
RTVSPropertyOp14
 70
     1
102
RTVSPropertyOp15
 70
     1
102
RTVSPropertyOp16
 70
     1
102
RTVSPropertyOp17
 70
     1
102
RTVSPropertyOp18
 70
     1
102
RTVSPropertyOp19
 70
     1
102
RTVSPropertyOp20
 70
     1
102
RTVSPropertyOp21
 70
     1
102
RTVSPropertyOp22
 70
     1
102
RTVSPropertyOp23
 70
     1
102
RTVSPropertyOp24
 70
     1
102
RTVSPropertyOp25
 70
     1
102
RTVSPropertyOp26
 70
     1
102
RTVSPropertyOp27
 70
     1
102
RTVSPropertyOp28
 70
     1
102
RTVSPropertyOp29
 70
     1
102
RTVSPropertyOp30
 70
     1
102
RTVSPropertyOp31
 70
     1
102
RTVSPropertyOp32
 70
     1
102
RTVSPropertyOp33
 70
     1
102
RTVSPropertyOp34
 70
     1
102
RTVSPropertyOp35
 70
     1
102
RTVSPropertyOp36
 70
     1
102
RTVSPropertyOp37
 70
     1
102
RTVSPropertyOp38
 70
     1
102
RTVSPropertyOp39
 70
     1
102
RTVSPropertyOp40
 70
     1
102
RTVSPropertyOp41
 70
     1
102
RTVSPropertyOp42
 70
     1
102
RTVSPropertyOp43
 70
     1
102
RTVSPropertyOp44
 70
     1
102
RTVSPropertyOp45
 70
     1
102
RTVSPropertyOp46
 70
     1
102
RTVSPropertyOp47
 70
     1
102
RTVSPropertyOp48
 70
     1
102
RTVSPropertyOp49
 70
     1
102
RTVSPropertyOp50
 70
     1
102
RTVSPropertyOp51
 70
     0
102
RTVSPropertyOp52
 70
     0
102
RTVSPropertyOp53
 70
     1
102
RTVSPropertyOp54
 70
     1
102
RTVSPropertyOp55
 70
     1
102
RTVSPropertyOp56
 70
     1
102
RTVSPropertyOp57
 70
     1
102
RTVSPost2010Prop28
280
     0
102
RTVSPost2010PropOp28
 70
     1
102
RTVSPost2010Prop29
280
     1
102
RTVSPost2010PropOp29
 70
     1
102
RTVSPost2010Prop30
280
     1
102
RTVSPost2010PropOp30
 70
     1
102
RTVSPost2010Prop31
280
     0
102
RTVSPost2010PropOp31
 70
     1
102
RTVSPost2010Prop32
280
     0
102
RTVSPost2010PropOp32
 70
     1
102
RTVSPost2010Prop33
280
     0
102
RTVSPost2010PropOp33
 70
     1
102
RTVSPost2010Prop34
280
     0
102
RTVSPost2010PropOp34
 70
     1
102
RTVSPost2010Prop35
280
     0
102
RTVSPost2010PropOp35
 70
     1
102
RTVSPost2010Prop36
280
     0
102
RTVSPost2010PropOp36
 70
     1
102
RTVSPost2010Prop37
 90
       50
102
RTVSPost2010PropOp37
 70
     1
102
RTVSPost2010Prop38
140
0.0
102
RTVSPost2010PropOp38
 70
     1
102
RTVSPost2010Prop39
140
1.0
102
RTVSPost2010PropOp39
 70
     1
102
RTVSPost2010Prop40
 90
        0
102
RTVSPost2010PropOp40
 70
     1
102
RTVSPost2010Prop41ColorIndex
 90
       18
102
RTVSPost2010Prop41ColorRGB
 90
        0
102
RTVSPost2010PropOp41
 70
     1
102
RTVSPost2010Prop42
 90
       50
102
RTVSPost2010PropOp42
 70
     1
102
RTVSPost2010Prop43
 90
        3
102
RTVSPost2010PropOp43
 70
     1
102
RTVSPost2010Prop44ColorIndex
 90
        5
102
RTVSPost2010Prop44ColorRGB
 90
      255
102
RTVSPost2010PropOp44
 70
     1
102
RTVSPost2010Prop45
280
     0
102
RTVSPost2010PropOp45
 70
     1
102
RTVSPost2010Prop46
 90
       50
102
RTVSPost2010PropOp46
 70
     1
102
RTVSPost2010Prop47
 90
       50
102
RTVSPost2010PropOp47
 70
     1
102
RTVSPost2010Prop48
 90
       50
102
RTVSPost2010PropOp48
 70
     1
102
RTVSPost2010Prop49
280
     0
102
RTVSPost2010PropOp49
 70
     1
102
RTVSPost2010Prop50
 90
       50
102
RTVSPost2010PropOp50
 70
     1
102
RTVSPost2010Prop51ColorIndex
 90
      256
102
RTVSPost2010Prop51ColorRGB
 90
-16777216
102
RTVSPost2010PropOp51
 70
     0
102
RTVSPost2010Prop52
140
1.0
102
RTVSPost2010PropOp52
 70
     0
102
RTVSPost2010Prop53
 90
        2
102
RTVSPost2010PropOp53
 70
     1
102
RTVSPost2010Prop54
  1
strokes_ogs.tif
102
RTVSPost2010PropOp54
 70
     1
102
RTVSPost2010Prop55
280
     0
102
RTVSPost2010PropOp55
 70
     1
102
RTVSPost2010Prop56
140
1.0
102
RTVSPost2010PropOp56
 70
     1
102
RTVSPost2010Prop57
140
1.0
102
RTVSPost2010PropOp57
 70
     1
  0
XRECORD
  5
13C8
102
{ACAD_REACTORS
330
13C7
102
}
330
13C7
100
AcDbXrecord
280
     1
102
RTVSPropertyOp0
 70
     1
102
RTVSPropertyOp1
 70
     1
102
RTVSPropertyOp2
 70
     1
102
RTVSPropertyOp3
 70
     1
102
RTVSPropertyOp4
 70
     1
102
RTVSPropertyOp5
 70
     1
102
RTVSPropertyOp6
 70
     1
102
RTVSPropertyOp7
 70
     1
102
RTVSPropertyOp8
 70
     1
102
RTVSPropertyOp9
 70
     1
102
RTVSPropertyOp10
 70
     1
102
RTVSPropertyOp11
 70
     1
102
RTVSPropertyOp12
 70
     1
102
RTVSPropertyOp13
 70
     1
102
RTVSPropertyOp14
 70
     1
102
RTVSPropertyOp15
 70
     1
102
RTVSPropertyOp16
 70
     1
102
RTVSPropertyOp17
 70
     1
102
RTVSPropertyOp18
 70
     1
102
RTVSPropertyOp19
 70
     1
102
RTVSPropertyOp20
 70
     1
102
RTVSPropertyOp21
 70
     1
102
RTVSPropertyOp22
 70
     1
102
RTVSPropertyOp23
 70
     1
102
RTVSPropertyOp24
 70
     1
102
RTVSPropertyOp25
 70
     1
102
RTVSPropertyOp26
 70
     1
102
RTVSPropertyOp27
 70
     1
102
RTVSPropertyOp28
 70
     1
102
RTVSPropertyOp29
 70
     1
102
RTVSPropertyOp30
 70
     1
102
RTVSPropertyOp31
 70
     1
102
RTVSPropertyOp32
 70
     1
102
RTVSPropertyOp33
 70
     1
102
RTVSPropertyOp34
 70
     1
102
RTVSPropertyOp35
 70
     1
102
RTVSPropertyOp36
 70
     1
102
RTVSPropertyOp37
 70
     1
102
RTVSPropertyOp38
 70
     1
102
RTVSPropertyOp39
 70
     1
102
RTVSPropertyOp40
 70
     1
102
RTVSPropertyOp41
 70
     1
102
RTVSPropertyOp42
 70
     1
102
RTVSPropertyOp43
 70
     1
102
RTVSPropertyOp44
 70
     1
102
RTVSPropertyOp45
 70
     1
102
RTVSPropertyOp46
 70
     1
102
RTVSPropertyOp47
 70
     1
102
RTVSPropertyOp48
 70
     1
102
RTVSPropertyOp49
 70
     1
102
RTVSPropertyOp50
 70
     1
102
RTVSPropertyOp51
 70
     0
102
RTVSPropertyOp52
 70
     0
102
RTVSPropertyOp53
 70
     1
102
RTVSPropertyOp54
 70
     1
102
RTVSPropertyOp55
 70
     1
102
RTVSPropertyOp56
 70
     1
102
RTVSPropertyOp57
 70
     1
102
RTVSPost2010Prop28
280
     0
102
RTVSPost2010PropOp28
 70
     1
102
RTVSPost2010Prop29
280
     1
102
RTVSPost2010PropOp29
 70
     1
102
RTVSPost2010Prop30
280
     1
102
RTVSPost2010PropOp30
 70
     1
102
RTVSPost2010Prop31
280
     0
102
RTVSPost2010PropOp31
 70
     1
102
RTVSPost2010Prop32
280
     0
102
RTVSPost2010PropOp32
 70
     1
102
RTVSPost2010Prop33
280
     0
102
RTVSPost2010PropOp33
 70
     1
102
RTVSPost2010Prop34
280
     0
102
RTVSPost2010PropOp34
 70
     1
102
RTVSPost2010Prop35
280
     0
102
RTVSPost2010PropOp35
 70
     1
102
RTVSPost2010Prop36
280
     0
102
RTVSPost2010PropOp36
 70
     1
102
RTVSPost2010Prop37
 90
       50
102
RTVSPost2010PropOp37
 70
     1
102
RTVSPost2010Prop38
140
0.0
102
RTVSPost2010PropOp38
 70
     1
102
RTVSPost2010Prop39
140
1.0
102
RTVSPost2010PropOp39
 70
     1
102
RTVSPost2010Prop40
 90
        0
102
RTVSPost2010PropOp40
 70
     1
102
RTVSPost2010Prop41ColorIndex
 90
       18
102
RTVSPost2010Prop41ColorRGB
 90
        0
102
RTVSPost2010PropOp41
 70
     1
102
RTVSPost2010Prop42
 90
       50
102
RTVSPost2010PropOp42
 70
     1
102
RTVSPost2010Prop43
 90
        3
102
RTVSPost2010PropOp43
 70
     1
102
RTVSPost2010Prop44ColorIndex
 90
        5
102
RTVSPost2010Prop44ColorRGB
 90
      255
102
RTVSPost2010PropOp44
 70
     1
102
RTVSPost2010Prop45
280
     0
102
RTVSPost2010PropOp45
 70
     1
102
RTVSPost2010Prop46
 90
       50
102
RTVSPost2010PropOp46
 70
     1
102
RTVSPost2010Prop47
 90
       50
102
RTVSPost2010PropOp47
 70
     1
102
RTVSPost2010Prop48
 90
       50
102
RTVSPost2010PropOp48
 70
     1
102
RTVSPost2010Prop49
280
     0
102
RTVSPost2010PropOp49
 70
     1
102
RTVSPost2010Prop50
 90
       50
102
RTVSPost2010PropOp50
 70
     1
102
RTVSPost2010Prop51ColorIndex
 90
      256
102
RTVSPost2010Prop51ColorRGB
 90
-16777216
102
RTVSPost2010PropOp51
 70
     0
102
RTVSPost2010Prop52
140
1.0
102
RTVSPost2010PropOp52
 70
     0
102
RTVSPost2010Prop53
 90
        2
102
RTVSPost2010PropOp53
 70
     1
102
RTVSPost2010Prop54
  1
strokes_ogs.tif
102
RTVSPost2010PropOp54
 70
     1
102
RTVSPost2010Prop55
280
     0
102
RTVSPost2010PropOp55
 70
     1
102
RTVSPost2010Prop56
140
1.0
102
RTVSPost2010PropOp56
 70
     1
102
RTVSPost2010Prop57
140
1.0
102
RTVSPost2010PropOp57
 70
     1
  0
XRECORD
  5
13CA
102
{ACAD_REACTORS
330
13C9
102
}
330
13C9
100
AcDbXrecord
280
     1
102
RTVSPropertyOp0
 70
     1
102
RTVSPropertyOp1
 70
     1
102
RTVSPropertyOp2
 70
     1
102
RTVSPropertyOp3
 70
     1
102
RTVSPropertyOp4
 70
     1
102
RTVSPropertyOp5
 70
     1
102
RTVSPropertyOp6
 70
     1
102
RTVSPropertyOp7
 70
     1
102
RTVSPropertyOp8
 70
     1
102
RTVSPropertyOp9
 70
     1
102
RTVSPropertyOp10
 70
     1
102
RTVSPropertyOp11
 70
     1
102
RTVSPropertyOp12
 70
     1
102
RTVSPropertyOp13
 70
     1
102
RTVSPropertyOp14
 70
     1
102
RTVSPropertyOp15
 70
     1
102
RTVSPropertyOp16
 70
     1
102
RTVSPropertyOp17
 70
     1
102
RTVSPropertyOp18
 70
     1
102
RTVSPropertyOp19
 70
     1
102
RTVSPropertyOp20
 70
     1
102
RTVSPropertyOp21
 70
     1
102
RTVSPropertyOp22
 70
     1
102
RTVSPropertyOp23
 70
     1
102
RTVSPropertyOp24
 70
     1
102
RTVSPropertyOp25
 70
     1
102
RTVSPropertyOp26
 70
     1
102
RTVSPropertyOp27
 70
     1
102
RTVSPropertyOp28
 70
     1
102
RTVSPropertyOp29
 70
     1
102
RTVSPropertyOp30
 70
     1
102
RTVSPropertyOp31
 70
     1
102
RTVSPropertyOp32
 70
     1
102
RTVSPropertyOp33
 70
     1
102
RTVSPropertyOp34
 70
     1
102
RTVSPropertyOp35
 70
     1
102
RTVSPropertyOp36
 70
     1
102
RTVSPropertyOp37
 70
     1
102
RTVSPropertyOp38
 70
     1
102
RTVSPropertyOp39
 70
     1
102
RTVSPropertyOp40
 70
     1
102
RTVSPropertyOp41
 70
     1
102
RTVSPropertyOp42
 70
     1
102
RTVSPropertyOp43
 70
     1
102
RTVSPropertyOp44
 70
     1
102
RTVSPropertyOp45
 70
     1
102
RTVSPropertyOp46
 70
     1
102
RTVSPropertyOp47
 70
     1
102
RTVSPropertyOp48
 70
     1
102
RTVSPropertyOp49
 70
     1
102
RTVSPropertyOp50
 70
     1
102
RTVSPropertyOp51
 70
     0
102
RTVSPropertyOp52
 70
     0
102
RTVSPropertyOp53
 70
     1
102
RTVSPropertyOp54
 70
     1
102
RTVSPropertyOp55
 70
     1
102
RTVSPropertyOp56
 70
     1
102
RTVSPropertyOp57
 70
     1
102
RTVSPost2010Prop28
280
     0
102
RTVSPost2010PropOp28
 70
     1
102
RTVSPost2010Prop29
280
     1
102
RTVSPost2010PropOp29
 70
     1
102
RTVSPost2010Prop30
280
     1
102
RTVSPost2010PropOp30
 70
     1
102
RTVSPost2010Prop31
280
     0
102
RTVSPost2010PropOp31
 70
     1
102
RTVSPost2010Prop32
280
     0
102
RTVSPost2010PropOp32
 70
     1
102
RTVSPost2010Prop33
280
     0
102
RTVSPost2010PropOp33
 70
     1
102
RTVSPost2010Prop34
280
     0
102
RTVSPost2010PropOp34
 70
     1
102
RTVSPost2010Prop35
280
     0
102
RTVSPost2010PropOp35
 70
     1
102
RTVSPost2010Prop36
280
     0
102
RTVSPost2010PropOp36
 70
     1
102
RTVSPost2010Prop37
 90
       50
102
RTVSPost2010PropOp37
 70
     1
102
RTVSPost2010Prop38
140
0.0
102
RTVSPost2010PropOp38
 70
     1
102
RTVSPost2010Prop39
140
1.0
102
RTVSPost2010PropOp39
 70
     1
102
RTVSPost2010Prop40
 90
        0
102
RTVSPost2010PropOp40
 70
     1
102
RTVSPost2010Prop41ColorIndex
 90
       18
102
RTVSPost2010Prop41ColorRGB
 90
        0
102
RTVSPost2010PropOp41
 70
     1
102
RTVSPost2010Prop42
 90
       50
102
RTVSPost2010PropOp42
 70
     1
102
RTVSPost2010Prop43
 90
        3
102
RTVSPost2010PropOp43
 70
     1
102
RTVSPost2010Prop44ColorIndex
 90
        5
102
RTVSPost2010Prop44ColorRGB
 90
      255
102
RTVSPost2010PropOp44
 70
     1
102
RTVSPost2010Prop45
280
     0
102
RTVSPost2010PropOp45
 70
     1
102
RTVSPost2010Prop46
 90
       50
102
RTVSPost2010PropOp46
 70
     1
102
RTVSPost2010Prop47
 90
       50
102
RTVSPost2010PropOp47
 70
     1
102
RTVSPost2010Prop48
 90
       50
102
RTVSPost2010PropOp48
 70
     1
102
RTVSPost2010Prop49
280
     0
102
RTVSPost2010PropOp49
 70
     1
102
RTVSPost2010Prop50
 90
       50
102
RTVSPost2010PropOp50
 70
     1
102
RTVSPost2010Prop51ColorIndex
 90
      256
102
RTVSPost2010Prop51ColorRGB
 90
-16777216
102
RTVSPost2010PropOp51
 70
     0
102
RTVSPost2010Prop52
140
1.0
102
RTVSPost2010PropOp52
 70
     0
102
RTVSPost2010Prop53
 90
        2
102
RTVSPost2010PropOp53
 70
     1
102
RTVSPost2010Prop54
  1
strokes_ogs.tif
102
RTVSPost2010PropOp54
 70
     1
102
RTVSPost2010Prop55
280
     0
102
RTVSPost2010PropOp55
 70
     1
102
RTVSPost2010Prop56
140
1.0
102
RTVSPost2010PropOp56
 70
     1
102
RTVSPost2010Prop57
140
1.0
102
RTVSPost2010PropOp57
 70
     1
  0
XRECORD
  5
13CC
102
{ACAD_REACTORS
330
13CB
102
}
330
13CB
100
AcDbXrecord
280
     1
102
RTVSPropertyOp0
 70
     1
102
RTVSPropertyOp1
 70
     1
102
RTVSPropertyOp2
 70
     1
102
RTVSPropertyOp3
 70
     1
102
RTVSPropertyOp4
 70
     1
102
RTVSPropertyOp5
 70
     1
102
RTVSPropertyOp6
 70
     1
102
RTVSPropertyOp7
 70
     1
102
RTVSPropertyOp8
 70
     1
102
RTVSPropertyOp9
 70
     1
102
RTVSPropertyOp10
 70
     1
102
RTVSPropertyOp11
 70
     1
102
RTVSPropertyOp12
 70
     1
102
RTVSPropertyOp13
 70
     1
102
RTVSPropertyOp14
 70
     1
102
RTVSPropertyOp15
 70
     1
102
RTVSPropertyOp16
 70
     1
102
RTVSPropertyOp17
 70
     1
102
RTVSPropertyOp18
 70
     1
102
RTVSPropertyOp19
 70
     1
102
RTVSPropertyOp20
 70
     1
102
RTVSPropertyOp21
 70
     1
102
RTVSPropertyOp22
 70
     1
102
RTVSPropertyOp23
 70
     1
102
RTVSPropertyOp24
 70
     1
102
RTVSPropertyOp25
 70
     1
102
RTVSPropertyOp26
 70
     1
102
RTVSPropertyOp27
 70
     1
102
RTVSPropertyOp28
 70
     1
102
RTVSPropertyOp29
 70
     1
102
RTVSPropertyOp30
 70
     1
102
RTVSPropertyOp31
 70
     1
102
RTVSPropertyOp32
 70
     1
102
RTVSPropertyOp33
 70
     1
102
RTVSPropertyOp34
 70
     1
102
RTVSPropertyOp35
 70
     1
102
RTVSPropertyOp36
 70
     1
102
RTVSPropertyOp37
 70
     1
102
RTVSPropertyOp38
 70
     1
102
RTVSPropertyOp39
 70
     1
102
RTVSPropertyOp40
 70
     1
102
RTVSPropertyOp41
 70
     1
102
RTVSPropertyOp42
 70
     1
102
RTVSPropertyOp43
 70
     1
102
RTVSPropertyOp44
 70
     1
102
RTVSPropertyOp45
 70
     1
102
RTVSPropertyOp46
 70
     1
102
RTVSPropertyOp47
 70
     1
102
RTVSPropertyOp48
 70
     1
102
RTVSPropertyOp49
 70
     1
102
RTVSPropertyOp50
 70
     1
102
RTVSPropertyOp51
 70
     0
102
RTVSPropertyOp52
 70
     0
102
RTVSPropertyOp53
 70
     1
102
RTVSPropertyOp54
 70
     1
102
RTVSPropertyOp55
 70
     1
102
RTVSPropertyOp56
 70
     1
102
RTVSPropertyOp57
 70
     1
102
RTVSPost2010Prop28
280
     0
102
RTVSPost2010PropOp28
 70
     1
102
RTVSPost2010Prop29
280
     1
102
RTVSPost2010PropOp29
 70
     1
102
RTVSPost2010Prop30
280
     1
102
RTVSPost2010PropOp30
 70
     1
102
RTVSPost2010Prop31
280
     0
102
RTVSPost2010PropOp31
 70
     1
102
RTVSPost2010Prop32
280
     0
102
RTVSPost2010PropOp32
 70
     1
102
RTVSPost2010Prop33
280
     0
102
RTVSPost2010PropOp33
 70
     1
102
RTVSPost2010Prop34
280
     0
102
RTVSPost2010PropOp34
 70
     1
102
RTVSPost2010Prop35
280
     0
102
RTVSPost2010PropOp35
 70
     1
102
RTVSPost2010Prop36
280
     0
102
RTVSPost2010PropOp36
 70
     1
102
RTVSPost2010Prop37
 90
       50
102
RTVSPost2010PropOp37
 70
     1
102
RTVSPost2010Prop38
140
0.0
102
RTVSPost2010PropOp38
 70
     1
102
RTVSPost2010Prop39
140
1.0
102
RTVSPost2010PropOp39
 70
     1
102
RTVSPost2010Prop40
 90
        0
102
RTVSPost2010PropOp40
 70
     1
102
RTVSPost2010Prop41ColorIndex
 90
       18
102
RTVSPost2010Prop41ColorRGB
 90
        0
102
RTVSPost2010PropOp41
 70
     1
102
RTVSPost2010Prop42
 90
       50
102
RTVSPost2010PropOp42
 70
     1
102
RTVSPost2010Prop43
 90
        3
102
RTVSPost2010PropOp43
 70
     1
102
RTVSPost2010Prop44ColorIndex
 90
        5
102
RTVSPost2010Prop44ColorRGB
 90
      255
102
RTVSPost2010PropOp44
 70
     1
102
RTVSPost2010Prop45
280
     0
102
RTVSPost2010PropOp45
 70
     1
102
RTVSPost2010Prop46
 90
       50
102
RTVSPost2010PropOp46
 70
     1
102
RTVSPost2010Prop47
 90
       50
102
RTVSPost2010PropOp47
 70
     1
102
RTVSPost2010Prop48
 90
       50
102
RTVSPost2010PropOp48
 70
     1
102
RTVSPost2010Prop49
280
     0
102
RTVSPost2010PropOp49
 70
     1
102
RTVSPost2010Prop50
 90
       50
102
RTVSPost2010PropOp50
 70
     1
102
RTVSPost2010Prop51ColorIndex
 90
      256
102
RTVSPost2010Prop51ColorRGB
 90
-16777216
102
RTVSPost2010PropOp51
 70
     0
102
RTVSPost2010Prop52
140
1.0
102
RTVSPost2010PropOp52
 70
     0
102
RTVSPost2010Prop53
 90
        2
102
RTVSPost2010PropOp53
 70
     1
102
RTVSPost2010Prop54
  1
strokes_ogs.tif
102
RTVSPost2010PropOp54
 70
     1
102
RTVSPost2010Prop55
280
     0
102
RTVSPost2010PropOp55
 70
     1
102
RTVSPost2010Prop56
140
1.0
102
RTVSPost2010PropOp56
 70
     1
102
RTVSPost2010Prop57
140
1.0
102
RTVSPost2010PropOp57
 70
     1
  0
XRECORD
  5
13CE
102
{ACAD_REACTORS
330
13CD
102
}
330
13CD
100
AcDbXrecord
280
     1
102
RTVSPropertyOp0
 70
     1
102
RTVSPropertyOp1
 70
     1
102
RTVSPropertyOp2
 70
     1
102
RTVSPropertyOp3
 70
     1
102
RTVSPropertyOp4
 70
     1
102
RTVSPropertyOp5
 70
     1
102
RTVSPropertyOp6
 70
     1
102
RTVSPropertyOp7
 70
     1
102
RTVSPropertyOp8
 70
     1
102
RTVSPropertyOp9
 70
     1
102
RTVSPropertyOp10
 70
     1
102
RTVSPropertyOp11
 70
     1
102
RTVSPropertyOp12
 70
     1
102
RTVSPropertyOp13
 70
     1
102
RTVSPropertyOp14
 70
     1
102
RTVSPropertyOp15
 70
     1
102
RTVSPropertyOp16
 70
     1
102
RTVSPropertyOp17
 70
     1
102
RTVSPropertyOp18
 70
     1
102
RTVSPropertyOp19
 70
     1
102
RTVSPropertyOp20
 70
     1
102
RTVSPropertyOp21
 70
     1
102
RTVSPropertyOp22
 70
     1
102
RTVSPropertyOp23
 70
     1
102
RTVSPropertyOp24
 70
     1
102
RTVSPropertyOp25
 70
     1
102
RTVSPropertyOp26
 70
     1
102
RTVSPropertyOp27
 70
     1
102
RTVSPropertyOp28
 70
     1
102
RTVSPropertyOp29
 70
     1
102
RTVSPropertyOp30
 70
     1
102
RTVSPropertyOp31
 70
     1
102
RTVSPropertyOp32
 70
     1
102
RTVSPropertyOp33
 70
     1
102
RTVSPropertyOp34
 70
     1
102
RTVSPropertyOp35
 70
     1
102
RTVSPropertyOp36
 70
     1
102
RTVSPropertyOp37
 70
     1
102
RTVSPropertyOp38
 70
     1
102
RTVSPropertyOp39
 70
     1
102
RTVSPropertyOp40
 70
     1
102
RTVSPropertyOp41
 70
     1
102
RTVSPropertyOp42
 70
     1
102
RTVSPropertyOp43
 70
     1
102
RTVSPropertyOp44
 70
     1
102
RTVSPropertyOp45
 70
     1
102
RTVSPropertyOp46
 70
     1
102
RTVSPropertyOp47
 70
     1
102
RTVSPropertyOp48
 70
     1
102
RTVSPropertyOp49
 70
     1
102
RTVSPropertyOp50
 70
     1
102
RTVSPropertyOp51
 70
     0
102
RTVSPropertyOp52
 70
     0
102
RTVSPropertyOp53
 70
     1
102
RTVSPropertyOp54
 70
     1
102
RTVSPropertyOp55
 70
     1
102
RTVSPropertyOp56
 70
     1
102
RTVSPropertyOp57
 70
     1
102
RTVSPost2010Prop28
280
     0
102
RTVSPost2010PropOp28
 70
     1
102
RTVSPost2010Prop29
280
     1
102
RTVSPost2010PropOp29
 70
     1
102
RTVSPost2010Prop30
280
     1
102
RTVSPost2010PropOp30
 70
     1
102
RTVSPost2010Prop31
280
     0
102
RTVSPost2010PropOp31
 70
     1
102
RTVSPost2010Prop32
280
     0
102
RTVSPost2010PropOp32
 70
     1
102
RTVSPost2010Prop33
280
     0
102
RTVSPost2010PropOp33
 70
     1
102
RTVSPost2010Prop34
280
     0
102
RTVSPost2010PropOp34
 70
     1
102
RTVSPost2010Prop35
280
     0
102
RTVSPost2010PropOp35
 70
     1
102
RTVSPost2010Prop36
280
     0
102
RTVSPost2010PropOp36
 70
     1
102
RTVSPost2010Prop37
 90
       50
102
RTVSPost2010PropOp37
 70
     1
102
RTVSPost2010Prop38
140
0.0
102
RTVSPost2010PropOp38
 70
     1
102
RTVSPost2010Prop39
140
1.0
102
RTVSPost2010PropOp39
 70
     1
102
RTVSPost2010Prop40
 90
        0
102
RTVSPost2010PropOp40
 70
     1
102
RTVSPost2010Prop41ColorIndex
 90
       18
102
RTVSPost2010Prop41ColorRGB
 90
        0
102
RTVSPost2010PropOp41
 70
     1
102
RTVSPost2010Prop42
 90
       50
102
RTVSPost2010PropOp42
 70
     1
102
RTVSPost2010Prop43
 90
        3
102
RTVSPost2010PropOp43
 70
     1
102
RTVSPost2010Prop44ColorIndex
 90
        5
102
RTVSPost2010Prop44ColorRGB
 90
      255
102
RTVSPost2010PropOp44
 70
     1
102
RTVSPost2010Prop45
280
     0
102
RTVSPost2010PropOp45
 70
     1
102
RTVSPost2010Prop46
 90
       50
102
RTVSPost2010PropOp46
 70
     1
102
RTVSPost2010Prop47
 90
       50
102
RTVSPost2010PropOp47
 70
     1
102
RTVSPost2010Prop48
 90
       50
102
RTVSPost2010PropOp48
 70
     1
102
RTVSPost2010Prop49
280
     0
102
RTVSPost2010PropOp49
 70
     1
102
RTVSPost2010Prop50
 90
       50
102
RTVSPost2010PropOp50
 70
     1
102
RTVSPost2010Prop51ColorIndex
 90
      256
102
RTVSPost2010Prop51ColorRGB
 90
-16777216
102
RTVSPost2010PropOp51
 70
     0
102
RTVSPost2010Prop52
140
1.0
102
RTVSPost2010PropOp52
 70
     0
102
RTVSPost2010Prop53
 90
        2
102
RTVSPost2010PropOp53
 70
     1
102
RTVSPost2010Prop54
  1
strokes_ogs.tif
102
RTVSPost2010PropOp54
 70
     1
102
RTVSPost2010Prop55
280
     0
102
RTVSPost2010PropOp55
 70
     1
102
RTVSPost2010Prop56
140
1.0
102
RTVSPost2010PropOp56
 70
     1
102
RTVSPost2010Prop57
140
1.0
102
RTVSPost2010PropOp57
 70
     1
  0
XRECORD
  5
13D0
102
{ACAD_REACTORS
330
13CF
102
}
330
13CF
100
AcDbXrecord
280
     1
102
RTVSPropertyOp0
 70
     1
102
RTVSPropertyOp1
 70
     1
102
RTVSPropertyOp2
 70
     1
102
RTVSPropertyOp3
 70
     1
102
RTVSPropertyOp4
 70
     1
102
RTVSPropertyOp5
 70
     1
102
RTVSPropertyOp6
 70
     1
102
RTVSPropertyOp7
 70
     1
102
RTVSPropertyOp8
 70
     1
102
RTVSPropertyOp9
 70
     1
102
RTVSPropertyOp10
 70
     1
102
RTVSPropertyOp11
 70
     1
102
RTVSPropertyOp12
 70
     1
102
RTVSPropertyOp13
 70
     1
102
RTVSPropertyOp14
 70
     1
102
RTVSPropertyOp15
 70
     1
102
RTVSPropertyOp16
 70
     1
102
RTVSPropertyOp17
 70
     1
102
RTVSPropertyOp18
 70
     1
102
RTVSPropertyOp19
 70
     1
102
RTVSPropertyOp20
 70
     1
102
RTVSPropertyOp21
 70
     1
102
RTVSPropertyOp22
 70
     1
102
RTVSPropertyOp23
 70
     1
102
RTVSPropertyOp24
 70
     1
102
RTVSPropertyOp25
 70
     1
102
RTVSPropertyOp26
 70
     1
102
RTVSPropertyOp27
 70
     1
102
RTVSPropertyOp28
 70
     1
102
RTVSPropertyOp29
 70
     1
102
RTVSPropertyOp30
 70
     1
102
RTVSPropertyOp31
 70
     1
102
RTVSPropertyOp32
 70
     1
102
RTVSPropertyOp33
 70
     1
102
RTVSPropertyOp34
 70
     1
102
RTVSPropertyOp35
 70
     1
102
RTVSPropertyOp36
 70
     1
102
RTVSPropertyOp37
 70
     1
102
RTVSPropertyOp38
 70
     1
102
RTVSPropertyOp39
 70
     1
102
RTVSPropertyOp40
 70
     1
102
RTVSPropertyOp41
 70
     1
102
RTVSPropertyOp42
 70
     1
102
RTVSPropertyOp43
 70
     1
102
RTVSPropertyOp44
 70
     1
102
RTVSPropertyOp45
 70
     1
102
RTVSPropertyOp46
 70
     1
102
RTVSPropertyOp47
 70
     1
102
RTVSPropertyOp48
 70
     1
102
RTVSPropertyOp49
 70
     1
102
RTVSPropertyOp50
 70
     1
102
RTVSPropertyOp51
 70
     0
102
RTVSPropertyOp52
 70
     0
102
RTVSPropertyOp53
 70
     1
102
RTVSPropertyOp54
 70
     1
102
RTVSPropertyOp55
 70
     1
102
RTVSPropertyOp56
 70
     1
102
RTVSPropertyOp57
 70
     1
102
RTVSPost2010Prop28
280
     0
102
RTVSPost2010PropOp28
 70
     1
102
RTVSPost2010Prop29
280
     1
102
RTVSPost2010PropOp29
 70
     1
102
RTVSPost2010Prop30
280
     1
102
RTVSPost2010PropOp30
 70
     1
102
RTVSPost2010Prop31
280
     0
102
RTVSPost2010PropOp31
 70
     1
102
RTVSPost2010Prop32
280
     0
102
RTVSPost2010PropOp32
 70
     1
102
RTVSPost2010Prop33
280
     0
102
RTVSPost2010PropOp33
 70
     1
102
RTVSPost2010Prop34
280
     0
102
RTVSPost2010PropOp34
 70
     1
102
RTVSPost2010Prop35
280
     0
102
RTVSPost2010PropOp35
 70
     1
102
RTVSPost2010Prop36
280
     0
102
RTVSPost2010PropOp36
 70
     1
102
RTVSPost2010Prop37
 90
       50
102
RTVSPost2010PropOp37
 70
     1
102
RTVSPost2010Prop38
140
0.0
102
RTVSPost2010PropOp38
 70
     1
102
RTVSPost2010Prop39
140
1.0
102
RTVSPost2010PropOp39
 70
     1
102
RTVSPost2010Prop40
 90
        0
102
RTVSPost2010PropOp40
 70
     1
102
RTVSPost2010Prop41ColorIndex
 90
       18
102
RTVSPost2010Prop41ColorRGB
 90
        0
102
RTVSPost2010PropOp41
 70
     1
102
RTVSPost2010Prop42
 90
       50
102
RTVSPost2010PropOp42
 70
     1
102
RTVSPost2010Prop43
 90
        3
102
RTVSPost2010PropOp43
 70
     1
102
RTVSPost2010Prop44ColorIndex
 90
        5
102
RTVSPost2010Prop44ColorRGB
 90
      255
102
RTVSPost2010PropOp44
 70
     1
102
RTVSPost2010Prop45
280
     0
102
RTVSPost2010PropOp45
 70
     1
102
RTVSPost2010Prop46
 90
       50
102
RTVSPost2010PropOp46
 70
     1
102
RTVSPost2010Prop47
 90
       50
102
RTVSPost2010PropOp47
 70
     1
102
RTVSPost2010Prop48
 90
       50
102
RTVSPost2010PropOp48
 70
     1
102
RTVSPost2010Prop49
280
     0
102
RTVSPost2010PropOp49
 70
     1
102
RTVSPost2010Prop50
 90
       50
102
RTVSPost2010PropOp50
 70
     1
102
RTVSPost2010Prop51ColorIndex
 90
      256
102
RTVSPost2010Prop51ColorRGB
 90
-16777216
102
RTVSPost2010PropOp51
 70
     0
102
RTVSPost2010Prop52
140
1.0
102
RTVSPost2010PropOp52
 70
     0
102
RTVSPost2010Prop53
 90
        2
102
RTVSPost2010PropOp53
 70
     1
102
RTVSPost2010Prop54
  1
strokes_ogs.tif
102
RTVSPost2010PropOp54
 70
     1
102
RTVSPost2010Prop55
280
     0
102
RTVSPost2010PropOp55
 70
     1
102
RTVSPost2010Prop56
140
1.0
102
RTVSPost2010PropOp56
 70
     1
102
RTVSPost2010Prop57
140
1.0
102
RTVSPost2010PropOp57
 70
     1
  0
XRECORD
  5
13D2
102
{ACAD_REACTORS
330
13D1
102
}
330
13D1
100
AcDbXrecord
280
     1
102
RTVSPropertyOp0
 70
     1
102
RTVSPropertyOp1
 70
     1
102
RTVSPropertyOp2
 70
     1
102
RTVSPropertyOp3
 70
     1
102
RTVSPropertyOp4
 70
     1
102
RTVSPropertyOp5
 70
     1
102
RTVSPropertyOp6
 70
     1
102
RTVSPropertyOp7
 70
     1
102
RTVSPropertyOp8
 70
     1
102
RTVSPropertyOp9
 70
     1
102
RTVSPropertyOp10
 70
     1
102
RTVSPropertyOp11
 70
     1
102
RTVSPropertyOp12
 70
     1
102
RTVSPropertyOp13
 70
     1
102
RTVSPropertyOp14
 70
     1
102
RTVSPropertyOp15
 70
     1
102
RTVSPropertyOp16
 70
     1
102
RTVSPropertyOp17
 70
     1
102
RTVSPropertyOp18
 70
     1
102
RTVSPropertyOp19
 70
     1
102
RTVSPropertyOp20
 70
     1
102
RTVSPropertyOp21
 70
     1
102
RTVSPropertyOp22
 70
     1
102
RTVSPropertyOp23
 70
     1
102
RTVSPropertyOp24
 70
     1
102
RTVSPropertyOp25
 70
     1
102
RTVSPropertyOp26
 70
     1
102
RTVSPropertyOp27
 70
     1
102
RTVSPropertyOp28
 70
     1
102
RTVSPropertyOp29
 70
     1
102
RTVSPropertyOp30
 70
     1
102
RTVSPropertyOp31
 70
     1
102
RTVSPropertyOp32
 70
     1
102
RTVSPropertyOp33
 70
     1
102
RTVSPropertyOp34
 70
     1
102
RTVSPropertyOp35
 70
     1
102
RTVSPropertyOp36
 70
     1
102
RTVSPropertyOp37
 70
     1
102
RTVSPropertyOp38
 70
     1
102
RTVSPropertyOp39
 70
     1
102
RTVSPropertyOp40
 70
     1
102
RTVSPropertyOp41
 70
     1
102
RTVSPropertyOp42
 70
     1
102
RTVSPropertyOp43
 70
     1
102
RTVSPropertyOp44
 70
     1
102
RTVSPropertyOp45
 70
     1
102
RTVSPropertyOp46
 70
     1
102
RTVSPropertyOp47
 70
     1
102
RTVSPropertyOp48
 70
     1
102
RTVSPropertyOp49
 70
     1
102
RTVSPropertyOp50
 70
     1
102
RTVSPropertyOp51
 70
     0
102
RTVSPropertyOp52
 70
     0
102
RTVSPropertyOp53
 70
     1
102
RTVSPropertyOp54
 70
     1
102
RTVSPropertyOp55
 70
     1
102
RTVSPropertyOp56
 70
     1
102
RTVSPropertyOp57
 70
     1
102
RTVSPost2010Prop28
280
     0
102
RTVSPost2010PropOp28
 70
     1
102
RTVSPost2010Prop29
280
     1
102
RTVSPost2010PropOp29
 70
     1
102
RTVSPost2010Prop30
280
     1
102
RTVSPost2010PropOp30
 70
     1
102
RTVSPost2010Prop31
280
     0
102
RTVSPost2010PropOp31
 70
     1
102
RTVSPost2010Prop32
280
     0
102
RTVSPost2010PropOp32
 70
     1
102
RTVSPost2010Prop33
280
     0
102
RTVSPost2010PropOp33
 70
     1
102
RTVSPost2010Prop34
280
     0
102
RTVSPost2010PropOp34
 70
     1
102
RTVSPost2010Prop35
280
     0
102
RTVSPost2010PropOp35
 70
     1
102
RTVSPost2010Prop36
280
     0
102
RTVSPost2010PropOp36
 70
     1
102
RTVSPost2010Prop37
 90
       50
102
RTVSPost2010PropOp37
 70
     1
102
RTVSPost2010Prop38
140
0.0
102
RTVSPost2010PropOp38
 70
     1
102
RTVSPost2010Prop39
140
1.0
102
RTVSPost2010PropOp39
 70
     1
102
RTVSPost2010Prop40
 90
        0
102
RTVSPost2010PropOp40
 70
     1
102
RTVSPost2010Prop41ColorIndex
 90
       18
102
RTVSPost2010Prop41ColorRGB
 90
        0
102
RTVSPost2010PropOp41
 70
     1
102
RTVSPost2010Prop42
 90
       50
102
RTVSPost2010PropOp42
 70
     1
102
RTVSPost2010Prop43
 90
        3
102
RTVSPost2010PropOp43
 70
     1
102
RTVSPost2010Prop44ColorIndex
 90
        5
102
RTVSPost2010Prop44ColorRGB
 90
      255
102
RTVSPost2010PropOp44
 70
     1
102
RTVSPost2010Prop45
280
     0
102
RTVSPost2010PropOp45
 70
     1
102
RTVSPost2010Prop46
 90
       50
102
RTVSPost2010PropOp46
 70
     1
102
RTVSPost2010Prop47
 90
       50
102
RTVSPost2010PropOp47
 70
     1
102
RTVSPost2010Prop48
 90
       50
102
RTVSPost2010PropOp48
 70
     1
102
RTVSPost2010Prop49
280
     0
102
RTVSPost2010PropOp49
 70
     1
102
RTVSPost2010Prop50
 90
       50
102
RTVSPost2010PropOp50
 70
     1
102
RTVSPost2010Prop51ColorIndex
 90
      256
102
RTVSPost2010Prop51ColorRGB
 90
-16777216
102
RTVSPost2010PropOp51
 70
     0
102
RTVSPost2010Prop52
140
1.0
102
RTVSPost2010PropOp52
 70
     0
102
RTVSPost2010Prop53
 90
        2
102
RTVSPost2010PropOp53
 70
     1
102
RTVSPost2010Prop54
  1
strokes_ogs.tif
102
RTVSPost2010PropOp54
 70
     1
102
RTVSPost2010Prop55
280
     0
102
RTVSPost2010PropOp55
 70
     1
102
RTVSPost2010Prop56
140
1.0
102
RTVSPost2010PropOp56
 70
     1
102
RTVSPost2010Prop57
140
1.0
102
RTVSPost2010PropOp57
 70
     1
  0
XRECORD
  5
13D4
102
{ACAD_REACTORS
330
13D3
102
}
330
13D3
100
AcDbXrecord
280
     1
102
RTVSPropertyOp0
 70
     1
102
RTVSPropertyOp1
 70
     1
102
RTVSPropertyOp2
 70
     1
102
RTVSPropertyOp3
 70
     1
102
RTVSPropertyOp4
 70
     1
102
RTVSPropertyOp5
 70
     1
102
RTVSPropertyOp6
 70
     1
102
RTVSPropertyOp7
 70
     1
102
RTVSPropertyOp8
 70
     1
102
RTVSPropertyOp9
 70
     1
102
RTVSPropertyOp10
 70
     1
102
RTVSPropertyOp11
 70
     1
102
RTVSPropertyOp12
 70
     1
102
RTVSPropertyOp13
 70
     1
102
RTVSPropertyOp14
 70
     1
102
RTVSPropertyOp15
 70
     1
102
RTVSPropertyOp16
 70
     1
102
RTVSPropertyOp17
 70
     1
102
RTVSPropertyOp18
 70
     1
102
RTVSPropertyOp19
 70
     1
102
RTVSPropertyOp20
 70
     1
102
RTVSPropertyOp21
 70
     1
102
RTVSPropertyOp22
 70
     1
102
RTVSPropertyOp23
 70
     1
102
RTVSPropertyOp24
 70
     1
102
RTVSPropertyOp25
 70
     1
102
RTVSPropertyOp26
 70
     1
102
RTVSPropertyOp27
 70
     1
102
RTVSPropertyOp28
 70
     1
102
RTVSPropertyOp29
 70
     1
102
RTVSPropertyOp30
 70
     1
102
RTVSPropertyOp31
 70
     1
102
RTVSPropertyOp32
 70
     1
102
RTVSPropertyOp33
 70
     1
102
RTVSPropertyOp34
 70
     1
102
RTVSPropertyOp35
 70
     1
102
RTVSPropertyOp36
 70
     1
102
RTVSPropertyOp37
 70
     1
102
RTVSPropertyOp38
 70
     1
102
RTVSPropertyOp39
 70
     1
102
RTVSPropertyOp40
 70
     1
102
RTVSPropertyOp41
 70
     1
102
RTVSPropertyOp42
 70
     1
102
RTVSPropertyOp43
 70
     1
102
RTVSPropertyOp44
 70
     1
102
RTVSPropertyOp45
 70
     1
102
RTVSPropertyOp46
 70
     1
102
RTVSPropertyOp47
 70
     1
102
RTVSPropertyOp48
 70
     1
102
RTVSPropertyOp49
 70
     1
102
RTVSPropertyOp50
 70
     1
102
RTVSPropertyOp51
 70
     0
102
RTVSPropertyOp52
 70
     0
102
RTVSPropertyOp53
 70
     1
102
RTVSPropertyOp54
 70
     1
102
RTVSPropertyOp55
 70
     1
102
RTVSPropertyOp56
 70
     1
102
RTVSPropertyOp57
 70
     1
102
RTVSPost2010Prop28
280
     0
102
RTVSPost2010PropOp28
 70
     1
102
RTVSPost2010Prop29
280
     1
102
RTVSPost2010PropOp29
 70
     1
102
RTVSPost2010Prop30
280
     1
102
RTVSPost2010PropOp30
 70
     1
102
RTVSPost2010Prop31
280
     0
102
RTVSPost2010PropOp31
 70
     1
102
RTVSPost2010Prop32
280
     0
102
RTVSPost2010PropOp32
 70
     1
102
RTVSPost2010Prop33
280
     0
102
RTVSPost2010PropOp33
 70
     1
102
RTVSPost2010Prop34
280
     0
102
RTVSPost2010PropOp34
 70
     1
102
RTVSPost2010Prop35
280
     0
102
RTVSPost2010PropOp35
 70
     1
102
RTVSPost2010Prop36
280
     0
102
RTVSPost2010PropOp36
 70
     1
102
RTVSPost2010Prop37
 90
       50
102
RTVSPost2010PropOp37
 70
     1
102
RTVSPost2010Prop38
140
0.0
102
RTVSPost2010PropOp38
 70
     1
102
RTVSPost2010Prop39
140
1.0
102
RTVSPost2010PropOp39
 70
     1
102
RTVSPost2010Prop40
 90
        0
102
RTVSPost2010PropOp40
 70
     1
102
RTVSPost2010Prop41ColorIndex
 90
       18
102
RTVSPost2010Prop41ColorRGB
 90
        0
102
RTVSPost2010PropOp41
 70
     1
102
RTVSPost2010Prop42
 90
       50
102
RTVSPost2010PropOp42
 70
     1
102
RTVSPost2010Prop43
 90
        3
102
RTVSPost2010PropOp43
 70
     1
102
RTVSPost2010Prop44ColorIndex
 90
        5
102
RTVSPost2010Prop44ColorRGB
 90
      255
102
RTVSPost2010PropOp44
 70
     1
102
RTVSPost2010Prop45
280
     0
102
RTVSPost2010PropOp45
 70
     1
102
RTVSPost2010Prop46
 90
       50
102
RTVSPost2010PropOp46
 70
     1
102
RTVSPost2010Prop47
 90
       50
102
RTVSPost2010PropOp47
 70
     1
102
RTVSPost2010Prop48
 90
       50
102
RTVSPost2010PropOp48
 70
     1
102
RTVSPost2010Prop49
280
     0
102
RTVSPost2010PropOp49
 70
     1
102
RTVSPost2010Prop50
 90
       50
102
RTVSPost2010PropOp50
 70
     1
102
RTVSPost2010Prop51ColorIndex
 90
      256
102
RTVSPost2010Prop51ColorRGB
 90
-16777216
102
RTVSPost2010PropOp51
 70
     0
102
RTVSPost2010Prop52
140
1.0
102
RTVSPost2010PropOp52
 70
     0
102
RTVSPost2010Prop53
 90
        2
102
RTVSPost2010PropOp53
 70
     1
102
RTVSPost2010Prop54
  1
strokes_ogs.tif
102
RTVSPost2010PropOp54
 70
     1
102
RTVSPost2010Prop55
280
     0
102
RTVSPost2010PropOp55
 70
     1
102
RTVSPost2010Prop56
140
1.0
102
RTVSPost2010PropOp56
 70
     1
102
RTVSPost2010Prop57
140
1.0
102
RTVSPost2010PropOp57
 70
     1
  0
XRECORD
  5
13D6
102
{ACAD_REACTORS
330
13D5
102
}
330
13D5
100
AcDbXrecord
280
     1
102
RTVSPropertyOp0
 70
     1
102
RTVSPropertyOp1
 70
     1
102
RTVSPropertyOp2
 70
     1
102
RTVSPropertyOp3
 70
     1
102
RTVSPropertyOp4
 70
     1
102
RTVSPropertyOp5
 70
     1
102
RTVSPropertyOp6
 70
     1
102
RTVSPropertyOp7
 70
     1
102
RTVSPropertyOp8
 70
     1
102
RTVSPropertyOp9
 70
     1
102
RTVSPropertyOp10
 70
     1
102
RTVSPropertyOp11
 70
     1
102
RTVSPropertyOp12
 70
     1
102
RTVSPropertyOp13
 70
     1
102
RTVSPropertyOp14
 70
     1
102
RTVSPropertyOp15
 70
     1
102
RTVSPropertyOp16
 70
     1
102
RTVSPropertyOp17
 70
     1
102
RTVSPropertyOp18
 70
     1
102
RTVSPropertyOp19
 70
     1
102
RTVSPropertyOp20
 70
     1
102
RTVSPropertyOp21
 70
     1
102
RTVSPropertyOp22
 70
     1
102
RTVSPropertyOp23
 70
     1
102
RTVSPropertyOp24
 70
     1
102
RTVSPropertyOp25
 70
     1
102
RTVSPropertyOp26
 70
     1
102
RTVSPropertyOp27
 70
     1
102
RTVSPropertyOp28
 70
     1
102
RTVSPropertyOp29
 70
     1
102
RTVSPropertyOp30
 70
     1
102
RTVSPropertyOp31
 70
     1
102
RTVSPropertyOp32
 70
     1
102
RTVSPropertyOp33
 70
     1
102
RTVSPropertyOp34
 70
     1
102
RTVSPropertyOp35
 70
     1
102
RTVSPropertyOp36
 70
     1
102
RTVSPropertyOp37
 70
     1
102
RTVSPropertyOp38
 70
     1
102
RTVSPropertyOp39
 70
     1
102
RTVSPropertyOp40
 70
     1
102
RTVSPropertyOp41
 70
     1
102
RTVSPropertyOp42
 70
     1
102
RTVSPropertyOp43
 70
     1
102
RTVSPropertyOp44
 70
     1
102
RTVSPropertyOp45
 70
     1
102
RTVSPropertyOp46
 70
     1
102
RTVSPropertyOp47
 70
     1
102
RTVSPropertyOp48
 70
     1
102
RTVSPropertyOp49
 70
     1
102
RTVSPropertyOp50
 70
     1
102
RTVSPropertyOp51
 70
     0
102
RTVSPropertyOp52
 70
     0
102
RTVSPropertyOp53
 70
     1
102
RTVSPropertyOp54
 70
     1
102
RTVSPropertyOp55
 70
     1
102
RTVSPropertyOp56
 70
     1
102
RTVSPropertyOp57
 70
     1
102
RTVSPost2010Prop28
280
     0
102
RTVSPost2010PropOp28
 70
     1
102
RTVSPost2010Prop29
280
     1
102
RTVSPost2010PropOp29
 70
     1
102
RTVSPost2010Prop30
280
     1
102
RTVSPost2010PropOp30
 70
     1
102
RTVSPost2010Prop31
280
     0
102
RTVSPost2010PropOp31
 70
     1
102
RTVSPost2010Prop32
280
     0
102
RTVSPost2010PropOp32
 70
     1
102
RTVSPost2010Prop33
280
     0
102
RTVSPost2010PropOp33
 70
     1
102
RTVSPost2010Prop34
280
     0
102
RTVSPost2010PropOp34
 70
     1
102
RTVSPost2010Prop35
280
     0
102
RTVSPost2010PropOp35
 70
     1
102
RTVSPost2010Prop36
280
     0
102
RTVSPost2010PropOp36
 70
     1
102
RTVSPost2010Prop37
 90
       50
102
RTVSPost2010PropOp37
 70
     1
102
RTVSPost2010Prop38
140
0.0
102
RTVSPost2010PropOp38
 70
     1
102
RTVSPost2010Prop39
140
1.0
102
RTVSPost2010PropOp39
 70
     1
102
RTVSPost2010Prop40
 90
        0
102
RTVSPost2010PropOp40
 70
     1
102
RTVSPost2010Prop41ColorIndex
 90
       18
102
RTVSPost2010Prop41ColorRGB
 90
        0
102
RTVSPost2010PropOp41
 70
     1
102
RTVSPost2010Prop42
 90
       50
102
RTVSPost2010PropOp42
 70
     1
102
RTVSPost2010Prop43
 90
        3
102
RTVSPost2010PropOp43
 70
     1
102
RTVSPost2010Prop44ColorIndex
 90
        5
102
RTVSPost2010Prop44ColorRGB
 90
      255
102
RTVSPost2010PropOp44
 70
     1
102
RTVSPost2010Prop45
280
     0
102
RTVSPost2010PropOp45
 70
     1
102
RTVSPost2010Prop46
 90
       50
102
RTVSPost2010PropOp46
 70
     1
102
RTVSPost2010Prop47
 90
       50
102
RTVSPost2010PropOp47
 70
     1
102
RTVSPost2010Prop48
 90
       50
102
RTVSPost2010PropOp48
 70
     1
102
RTVSPost2010Prop49
280
     0
102
RTVSPost2010PropOp49
 70
     1
102
RTVSPost2010Prop50
 90
       50
102
RTVSPost2010PropOp50
 70
     1
102
RTVSPost2010Prop51ColorIndex
 90
      256
102
RTVSPost2010Prop51ColorRGB
 90
-16777216
102
RTVSPost2010PropOp51
 70
     0
102
RTVSPost2010Prop52
140
1.0
102
RTVSPost2010PropOp52
 70
     0
102
RTVSPost2010Prop53
 90
        2
102
RTVSPost2010PropOp53
 70
     1
102
RTVSPost2010Prop54
  1
strokes_ogs.tif
102
RTVSPost2010PropOp54
 70
     1
102
RTVSPost2010Prop55
280
     0
102
RTVSPost2010PropOp55
 70
     1
102
RTVSPost2010Prop56
140
1.0
102
RTVSPost2010PropOp56
 70
     1
102
RTVSPost2010Prop57
140
1.0
102
RTVSPost2010PropOp57
 70
     1
  0
ENDSEC
  0
EOF
