ISO-10303-21;
HEADER;
/* Generated by software containing ST-Developer
 * from STEP Tools, Inc. (www.steptools.com) 
 */
/* OPTION: strings as raw bytes, not using required /X/ escapes */

FILE_DESCRIPTION(
/* description */ ('Unknown'),
/* implementation_level */ '2;1');

FILE_NAME(
/* name */ 'borne cuivre_r2',
/* time_stamp */ '2017-08-16T11:35:14+02:00',
/* author */ ('Unknown'),
/* organization */ ('Unknown'),
/* preprocessor_version */ 'ST-DEVELOPER v16.7',
/* originating_system */ 'DEX',
/* authorisation */ $);

FILE_SCHEMA (('AUTOMOTIVE_DESIGN {1 0 10303 214 3 1 1}'));
ENDSEC;

DATA;
#10=PROPERTY_DEFINITION_REPRESENTATION(#14,#12);
#11=PROPERTY_DEFINITION_REPRESENTATION(#15,#13);
#12=REPRESENTATION('',(#16),#157);
#13=REPRESENTATION('',(#17),#157);
#14=PROPERTY_DEFINITION('pmi validation property','',#162);
#15=PROPERTY_DEFINITION('pmi validation property','',#162);
#16=VALUE_REPRESENTATION_ITEM('number of annotations',COUNT_MEASURE(0.));
#17=VALUE_REPRESENTATION_ITEM('number of views',COUNT_MEASURE(0.));
#18=SHAPE_REPRESENTATION_RELATIONSHIP('','',#97,#19);
#19=ADVANCED_BREP_SHAPE_REPRESENTATION('',(#95),#157);
#20=CONICAL_SURFACE('',#109,6.5,0.785398163397447);
#21=CONICAL_SURFACE('',#110,7.,0.785398163397447);
#22=CYLINDRICAL_SURFACE('',#102,7.);
#23=CYLINDRICAL_SURFACE('',#108,4.2);
#24=ORIENTED_EDGE('',*,*,#36,.T.);
#25=ORIENTED_EDGE('',*,*,#37,.F.);
#26=ORIENTED_EDGE('',*,*,#38,.T.);
#27=ORIENTED_EDGE('',*,*,#39,.T.);
#28=ORIENTED_EDGE('',*,*,#40,.T.);
#29=ORIENTED_EDGE('',*,*,#41,.F.);
#30=ORIENTED_EDGE('',*,*,#41,.T.);
#31=ORIENTED_EDGE('',*,*,#37,.T.);
#32=ORIENTED_EDGE('',*,*,#38,.F.);
#33=ORIENTED_EDGE('',*,*,#36,.F.);
#34=ORIENTED_EDGE('',*,*,#40,.F.);
#35=ORIENTED_EDGE('',*,*,#39,.F.);
#36=EDGE_CURVE('',#42,#42,#48,.T.);
#37=EDGE_CURVE('',#43,#43,#49,.T.);
#38=EDGE_CURVE('',#44,#44,#50,.F.);
#39=EDGE_CURVE('',#45,#45,#51,.F.);
#40=EDGE_CURVE('',#46,#46,#52,.T.);
#41=EDGE_CURVE('',#47,#47,#53,.T.);
#42=VERTEX_POINT('',#140);
#43=VERTEX_POINT('',#142);
#44=VERTEX_POINT('',#145);
#45=VERTEX_POINT('',#147);
#46=VERTEX_POINT('',#150);
#47=VERTEX_POINT('',#152);
#48=CIRCLE('',#100,6.5);
#49=CIRCLE('',#101,4.2);
#50=CIRCLE('',#103,7.);
#51=CIRCLE('',#104,7.);
#52=CIRCLE('',#106,6.5);
#53=CIRCLE('',#107,4.2);
#54=EDGE_LOOP('',(#24));
#55=EDGE_LOOP('',(#25));
#56=EDGE_LOOP('',(#26));
#57=EDGE_LOOP('',(#27));
#58=EDGE_LOOP('',(#28));
#59=EDGE_LOOP('',(#29));
#60=EDGE_LOOP('',(#30));
#61=EDGE_LOOP('',(#31));
#62=EDGE_LOOP('',(#32));
#63=EDGE_LOOP('',(#33));
#64=EDGE_LOOP('',(#34));
#65=EDGE_LOOP('',(#35));
#66=FACE_BOUND('',#54,.T.);
#67=FACE_BOUND('',#55,.T.);
#68=FACE_BOUND('',#56,.T.);
#69=FACE_BOUND('',#57,.T.);
#70=FACE_BOUND('',#58,.T.);
#71=FACE_BOUND('',#59,.T.);
#72=FACE_BOUND('',#60,.T.);
#73=FACE_BOUND('',#61,.T.);
#74=FACE_BOUND('',#62,.T.);
#75=FACE_BOUND('',#63,.T.);
#76=FACE_BOUND('',#64,.T.);
#77=FACE_BOUND('',#65,.T.);
#78=PLANE('',#99);
#79=PLANE('',#105);
#80=ADVANCED_FACE('',(#66,#67),#78,.T.);
#81=ADVANCED_FACE('',(#68,#69),#22,.T.);
#82=ADVANCED_FACE('',(#70,#71),#79,.T.);
#83=ADVANCED_FACE('',(#72,#73),#23,.F.);
#84=ADVANCED_FACE('',(#74,#75),#20,.T.);
#85=ADVANCED_FACE('',(#76,#77),#21,.T.);
#86=CLOSED_SHELL('',(#80,#81,#82,#83,#84,#85));
#87=STYLED_ITEM('',(#88),#95);
#88=PRESENTATION_STYLE_ASSIGNMENT((#89));
#89=SURFACE_STYLE_USAGE(.BOTH.,#90);
#90=SURFACE_SIDE_STYLE('',(#91));
#91=SURFACE_STYLE_FILL_AREA(#92);
#92=FILL_AREA_STYLE('',(#93));
#93=FILL_AREA_STYLE_COLOUR('',#94);
#94=COLOUR_RGB('',0.550000011920929,0.311243504285812,0.218416497111321);
#95=MANIFOLD_SOLID_BREP('',#86);
#96=SHAPE_DEFINITION_REPRESENTATION(#162,#97);
#97=SHAPE_REPRESENTATION('borne cuivre_r2',(#98),#157);
#98=AXIS2_PLACEMENT_3D('',#137,#111,#112);
#99=AXIS2_PLACEMENT_3D('',#138,#113,#114);
#100=AXIS2_PLACEMENT_3D('',#139,#115,#116);
#101=AXIS2_PLACEMENT_3D('',#141,#117,#118);
#102=AXIS2_PLACEMENT_3D('',#143,#119,#120);
#103=AXIS2_PLACEMENT_3D('',#144,#121,#122);
#104=AXIS2_PLACEMENT_3D('',#146,#123,#124);
#105=AXIS2_PLACEMENT_3D('',#148,#125,#126);
#106=AXIS2_PLACEMENT_3D('',#149,#127,#128);
#107=AXIS2_PLACEMENT_3D('',#151,#129,#130);
#108=AXIS2_PLACEMENT_3D('',#153,#131,#132);
#109=AXIS2_PLACEMENT_3D('',#154,#133,#134);
#110=AXIS2_PLACEMENT_3D('',#155,#135,#136);
#111=DIRECTION('',(0.,0.,1.));
#112=DIRECTION('',(1.,0.,0.));
#113=DIRECTION('',(6.42490176287706E-17,0.,-1.));
#114=DIRECTION('',(-1.,0.,-6.42490176287706E-17));
#115=DIRECTION('',(6.42490176287706E-17,0.,-1.));
#116=DIRECTION('',(-1.,0.,-6.42490176287706E-17));
#117=DIRECTION('',(6.42490176287706E-17,0.,-1.));
#118=DIRECTION('',(-1.,0.,-6.42490176287706E-17));
#119=DIRECTION('',(6.42490176287706E-17,0.,-1.));
#120=DIRECTION('',(-1.,0.,-6.42490176287706E-17));
#121=DIRECTION('',(6.42490176287705E-17,0.,-1.));
#122=DIRECTION('',(-1.,0.,-6.42490176287705E-17));
#123=DIRECTION('',(-6.42490176287706E-17,0.,1.));
#124=DIRECTION('',(1.,0.,6.42490176287706E-17));
#125=DIRECTION('',(-6.42490176287706E-17,0.,1.));
#126=DIRECTION('',(1.,0.,6.42490176287706E-17));
#127=DIRECTION('',(-6.42490176287706E-17,0.,1.));
#128=DIRECTION('',(1.,0.,6.42490176287706E-17));
#129=DIRECTION('',(-1.82602471155453E-16,1.08058165418772E-32,1.));
#130=DIRECTION('',(1.,-9.13012355777267E-17,1.82602471155453E-16));
#131=DIRECTION('',(-6.42490176287706E-17,0.,1.));
#132=DIRECTION('',(1.,0.,6.42490176287706E-17));
#133=DIRECTION('',(-6.42490176287705E-17,0.,1.));
#134=DIRECTION('',(1.,0.,6.42490176287705E-17));
#135=DIRECTION('',(6.42490176287706E-17,0.,-1.));
#136=DIRECTION('',(-1.,0.,-6.42490176287706E-17));
#137=CARTESIAN_POINT('',(0.,0.,0.));
#138=CARTESIAN_POINT('',(3.,0.,1.5));
#139=CARTESIAN_POINT('',(1.18860682613226E-15,0.,1.5));
#140=CARTESIAN_POINT('',(-6.5,0.,1.5));
#141=CARTESIAN_POINT('',(1.3171048613898E-15,0.,1.5));
#142=CARTESIAN_POINT('',(-4.2,0.,1.5));
#143=CARTESIAN_POINT('',(-1.73472347597681E-16,0.,22.7));
#144=CARTESIAN_POINT('',(1.15648231731787E-15,0.,2.));
#145=CARTESIAN_POINT('',(-7.,0.,2.));
#146=CARTESIAN_POINT('',(5.2963073470649E-31,0.,20.));
#147=CARTESIAN_POINT('',(7.,0.,20.));
#148=CARTESIAN_POINT('',(9.5,0.,20.5));
#149=CARTESIAN_POINT('',(-3.21245088143847E-17,0.,20.5));
#150=CARTESIAN_POINT('',(6.5,0.,20.5));
#151=CARTESIAN_POINT('',(9.6373526443156E-17,0.,20.5));
#152=CARTESIAN_POINT('',(4.2,-3.83465189426452E-16,20.5));
#153=CARTESIAN_POINT('',(1.99797079433286E-15,0.,-9.09729717389749));
#154=CARTESIAN_POINT('',(1.18860682613226E-15,0.,1.5));
#155=CARTESIAN_POINT('',(5.2963073470649E-31,0.,20.));
#156=MECHANICAL_DESIGN_GEOMETRIC_PRESENTATION_REPRESENTATION('',(#87),#157);
#157=(
GEOMETRIC_REPRESENTATION_CONTEXT(3)
GLOBAL_UNCERTAINTY_ASSIGNED_CONTEXT((#158))
GLOBAL_UNIT_ASSIGNED_CONTEXT((#161,#160,#159))
REPRESENTATION_CONTEXT('borne cuivre_r2','TOP_LEVEL_ASSEMBLY_PART')
);
#158=UNCERTAINTY_MEASURE_WITH_UNIT(LENGTH_MEASURE(0.005),#161,
'DISTANCE_ACCURACY_VALUE','Maximum Tolerance applied to model');
#159=(
NAMED_UNIT(*)
SI_UNIT($,.STERADIAN.)
SOLID_ANGLE_UNIT()
);
#160=(
NAMED_UNIT(*)
PLANE_ANGLE_UNIT()
SI_UNIT($,.RADIAN.)
);
#161=(
LENGTH_UNIT()
NAMED_UNIT(*)
SI_UNIT(.MILLI.,.METRE.)
);
#162=PRODUCT_DEFINITION_SHAPE('','',#163);
#163=PRODUCT_DEFINITION('','',#165,#164);
#164=PRODUCT_DEFINITION_CONTEXT('',#171,'design');
#165=PRODUCT_DEFINITION_FORMATION_WITH_SPECIFIED_SOURCE('','',#167,
 .NOT_KNOWN.);
#166=PRODUCT_RELATED_PRODUCT_CATEGORY('','',(#167));
#167=PRODUCT('borne cuivre_r2','borne cuivre_r2','borne cuivre_r2',(#169));
#168=PRODUCT_CATEGORY('','');
#169=PRODUCT_CONTEXT('',#171,'mechanical');
#170=APPLICATION_PROTOCOL_DEFINITION('international standard',
'automotive_design',2010,#171);
#171=APPLICATION_CONTEXT(
'core data for automotive mechanical design processes');
ENDSEC;
END-ISO-10303-21;
