ISO-10303-21;
HEADER;
FILE_DESCRIPTION(('CATIA V5 STEP'),'2;1');

FILE_NAME('H:\\Chape.stp','2017-08-09T12:42:55+00:00',('none'),('none'),'CATIA Version 5 Release 21 SP 6 (IN-10)','CATIA V5 STEP AP203','none');

FILE_SCHEMA(('CONFIG_CONTROL_DESIGN'));

ENDSEC;
DATA;
#5=PRODUCT('Chape','','',(#2)) ;
#1=APPLICATION_CONTEXT('configuration controlled 3D design of mechanical parts and assemblies') ;
#14=PRODUCT_DEFINITION('',' ',#6,#3) ;
#16=SECURITY_CLASSIFICATION(' ',' ',#15) ;
#15=SECURITY_CLASSIFICATION_LEVEL('unclassified') ;
#46=CARTESIAN_POINT(' ',(0.,0.,0.)) ;
#51=CARTESIAN_POINT('Axis2P3D Location',(0.,15.1,0.)) ;
#56=CARTESIAN_POINT('Line Origine',(115.,15.1,17.5)) ;
#60=CARTESIAN_POINT('Vertex',(115.,15.1,0.)) ;
#62=CARTESIAN_POINT('Vertex',(115.,15.1,35.)) ;
#65=CARTESIAN_POINT('Line Origine',(0.,15.1,35.)) ;
#69=CARTESIAN_POINT('Vertex',(-115.,15.1,35.)) ;
#72=CARTESIAN_POINT('Line Origine',(-115.,15.1,17.5)) ;
#76=CARTESIAN_POINT('Vertex',(-115.,15.1,0.)) ;
#79=CARTESIAN_POINT('Line Origine',(0.,15.1,0.)) ;
#91=CARTESIAN_POINT('Axis2P3D Location',(0.,-15.1,35.)) ;
#96=CARTESIAN_POINT('Line Origine',(115.,17.6,35.)) ;
#100=CARTESIAN_POINT('Vertex',(115.,20.1,35.)) ;
#103=CARTESIAN_POINT('Line Origine',(0.,20.1,35.)) ;
#107=CARTESIAN_POINT('Vertex',(-115.,20.1,35.)) ;
#110=CARTESIAN_POINT('Line Origine',(-115.,17.6,35.)) ;
#122=CARTESIAN_POINT('Axis2P3D Location',(0.,20.1,0.)) ;
#127=CARTESIAN_POINT('Line Origine',(0.,20.1,0.)) ;
#131=CARTESIAN_POINT('Vertex',(-115.,20.1,0.)) ;
#133=CARTESIAN_POINT('Vertex',(115.,20.1,0.)) ;
#136=CARTESIAN_POINT('Line Origine',(-115.,20.1,17.5)) ;
#141=CARTESIAN_POINT('Line Origine',(115.,20.1,17.5)) ;
#153=CARTESIAN_POINT('Axis2P3D Location',(0.,-15.1,0.)) ;
#158=CARTESIAN_POINT('Line Origine',(0.,-15.1,0.)) ;
#162=CARTESIAN_POINT('Vertex',(-115.,-15.1,0.)) ;
#164=CARTESIAN_POINT('Vertex',(115.,-15.1,0.)) ;
#167=CARTESIAN_POINT('Line Origine',(-115.,-15.1,17.5)) ;
#171=CARTESIAN_POINT('Vertex',(-115.,-15.1,35.)) ;
#174=CARTESIAN_POINT('Line Origine',(0.,-15.1,35.)) ;
#178=CARTESIAN_POINT('Vertex',(115.,-15.1,35.)) ;
#181=CARTESIAN_POINT('Line Origine',(115.,-15.1,17.5)) ;
#193=CARTESIAN_POINT('Axis2P3D Location',(0.,-30.6,0.)) ;
#198=CARTESIAN_POINT('Line Origine',(-115.,5.3290705182E-015,0.)) ;
#203=CARTESIAN_POINT('Line Origine',(115.,1.7763568394E-015,0.)) ;
#215=CARTESIAN_POINT('Line Origine',(-115.,-17.6,35.)) ;
#219=CARTESIAN_POINT('Vertex',(-115.,-20.1,35.)) ;
#222=CARTESIAN_POINT('Line Origine',(0.,-20.1,35.)) ;
#226=CARTESIAN_POINT('Vertex',(115.,-20.1,35.)) ;
#229=CARTESIAN_POINT('Line Origine',(115.,-17.6,35.)) ;
#241=CARTESIAN_POINT('Axis2P3D Location',(0.,-20.1,0.)) ;
#246=CARTESIAN_POINT('Line Origine',(115.,-20.1,17.5)) ;
#250=CARTESIAN_POINT('Vertex',(115.,-20.1,0.)) ;
#253=CARTESIAN_POINT('Line Origine',(-115.,-20.1,17.5)) ;
#257=CARTESIAN_POINT('Vertex',(-115.,-20.1,0.)) ;
#260=CARTESIAN_POINT('Line Origine',(0.,-20.1,0.)) ;
#272=CARTESIAN_POINT('Line Origine',(-115.,-25.35,0.)) ;
#276=CARTESIAN_POINT('Vertex',(-115.,-30.6,0.)) ;
#279=CARTESIAN_POINT('Line Origine',(0.,-30.6,0.)) ;
#283=CARTESIAN_POINT('Vertex',(115.,-30.6,0.)) ;
#286=CARTESIAN_POINT('Line Origine',(115.,-25.35,0.)) ;
#298=CARTESIAN_POINT('Axis2P3D Location',(0.,-30.6,0.)) ;
#303=CARTESIAN_POINT('Line Origine',(-115.,-30.6,-2.5)) ;
#307=CARTESIAN_POINT('Vertex',(-115.,-30.6,-5.)) ;
#310=CARTESIAN_POINT('Line Origine',(0.,-30.6,-5.)) ;
#314=CARTESIAN_POINT('Vertex',(115.,-30.6,-5.)) ;
#317=CARTESIAN_POINT('Line Origine',(115.,-30.6,-2.5)) ;
#329=CARTESIAN_POINT('Axis2P3D Location',(0.,-30.6,-5.)) ;
#334=CARTESIAN_POINT('Line Origine',(-115.,3.5527136788E-015,-5.)) ;
#338=CARTESIAN_POINT('Vertex',(-115.,30.6,-5.)) ;
#341=CARTESIAN_POINT('Line Origine',(0.,30.6,-5.)) ;
#345=CARTESIAN_POINT('Vertex',(115.,30.6,-5.)) ;
#348=CARTESIAN_POINT('Line Origine',(115.,3.5527136788E-015,-5.)) ;
#360=CARTESIAN_POINT('Axis2P3D Location',(0.,30.6,-5.)) ;
#365=CARTESIAN_POINT('Line Origine',(-115.,30.6,-2.5)) ;
#369=CARTESIAN_POINT('Vertex',(-115.,30.6,0.)) ;
#372=CARTESIAN_POINT('Line Origine',(0.,30.6,0.)) ;
#376=CARTESIAN_POINT('Vertex',(115.,30.6,0.)) ;
#379=CARTESIAN_POINT('Line Origine',(115.,30.6,-2.5)) ;
#391=CARTESIAN_POINT('Line Origine',(115.,25.35,0.)) ;
#396=CARTESIAN_POINT('Line Origine',(-115.,25.35,0.)) ;
#408=CARTESIAN_POINT('Axis2P3D Location',(115.,0.,0.)) ;
#428=CARTESIAN_POINT('Axis2P3D Location',(-115.,0.,0.)) ;
#451=CARTESIAN_POINT('Axis2P3D Location',(0.,0.,0.)) ;
#52=DIRECTION('Axis2P3D Direction',(0.,1.,0.)) ;
#53=DIRECTION('Axis2P3D XDirection',(0.,0.,1.)) ;
#57=DIRECTION('Vector Direction',(0.,0.,1.)) ;
#66=DIRECTION('Vector Direction',(1.,0.,0.)) ;
#73=DIRECTION('Vector Direction',(0.,0.,1.)) ;
#80=DIRECTION('Vector Direction',(1.,0.,0.)) ;
#92=DIRECTION('Axis2P3D Direction',(-0.,0.,1.)) ;
#93=DIRECTION('Axis2P3D XDirection',(0.,-1.,0.)) ;
#97=DIRECTION('Vector Direction',(0.,1.,0.)) ;
#104=DIRECTION('Vector Direction',(1.,0.,0.)) ;
#111=DIRECTION('Vector Direction',(0.,1.,0.)) ;
#123=DIRECTION('Axis2P3D Direction',(0.,1.,0.)) ;
#124=DIRECTION('Axis2P3D XDirection',(0.,0.,1.)) ;
#128=DIRECTION('Vector Direction',(1.,0.,0.)) ;
#137=DIRECTION('Vector Direction',(0.,0.,1.)) ;
#142=DIRECTION('Vector Direction',(0.,0.,1.)) ;
#154=DIRECTION('Axis2P3D Direction',(0.,1.,0.)) ;
#155=DIRECTION('Axis2P3D XDirection',(0.,0.,1.)) ;
#159=DIRECTION('Vector Direction',(1.,0.,0.)) ;
#168=DIRECTION('Vector Direction',(0.,0.,1.)) ;
#175=DIRECTION('Vector Direction',(1.,0.,0.)) ;
#182=DIRECTION('Vector Direction',(0.,0.,1.)) ;
#194=DIRECTION('Axis2P3D Direction',(0.,0.,-1.)) ;
#195=DIRECTION('Axis2P3D XDirection',(0.,1.,0.)) ;
#199=DIRECTION('Vector Direction',(0.,1.,0.)) ;
#204=DIRECTION('Vector Direction',(0.,1.,0.)) ;
#216=DIRECTION('Vector Direction',(0.,-1.,0.)) ;
#223=DIRECTION('Vector Direction',(1.,0.,0.)) ;
#230=DIRECTION('Vector Direction',(0.,-1.,0.)) ;
#242=DIRECTION('Axis2P3D Direction',(0.,1.,0.)) ;
#243=DIRECTION('Axis2P3D XDirection',(0.,0.,1.)) ;
#247=DIRECTION('Vector Direction',(0.,0.,1.)) ;
#254=DIRECTION('Vector Direction',(0.,0.,1.)) ;
#261=DIRECTION('Vector Direction',(1.,0.,0.)) ;
#273=DIRECTION('Vector Direction',(0.,1.,0.)) ;
#280=DIRECTION('Vector Direction',(1.,0.,0.)) ;
#287=DIRECTION('Vector Direction',(0.,1.,0.)) ;
#299=DIRECTION('Axis2P3D Direction',(0.,-1.,0.)) ;
#300=DIRECTION('Axis2P3D XDirection',(0.,0.,-1.)) ;
#304=DIRECTION('Vector Direction',(0.,0.,-1.)) ;
#311=DIRECTION('Vector Direction',(1.,0.,0.)) ;
#318=DIRECTION('Vector Direction',(0.,0.,-1.)) ;
#330=DIRECTION('Axis2P3D Direction',(0.,0.,-1.)) ;
#331=DIRECTION('Axis2P3D XDirection',(0.,1.,0.)) ;
#335=DIRECTION('Vector Direction',(0.,1.,0.)) ;
#342=DIRECTION('Vector Direction',(1.,0.,0.)) ;
#349=DIRECTION('Vector Direction',(0.,1.,0.)) ;
#361=DIRECTION('Axis2P3D Direction',(0.,1.,0.)) ;
#362=DIRECTION('Axis2P3D XDirection',(0.,0.,1.)) ;
#366=DIRECTION('Vector Direction',(0.,0.,1.)) ;
#373=DIRECTION('Vector Direction',(1.,0.,0.)) ;
#380=DIRECTION('Vector Direction',(0.,0.,1.)) ;
#392=DIRECTION('Vector Direction',(0.,1.,0.)) ;
#397=DIRECTION('Vector Direction',(0.,1.,0.)) ;
#409=DIRECTION('Axis2P3D Direction',(1.,0.,0.)) ;
#410=DIRECTION('Axis2P3D XDirection',(0.,1.,0.)) ;
#429=DIRECTION('Axis2P3D Direction',(1.,0.,0.)) ;
#430=DIRECTION('Axis2P3D XDirection',(0.,1.,0.)) ;
#452=DIRECTION('Axis2P3D Direction',(0.,0.,1.)) ;
#453=DIRECTION('Axis2P3D XDirection',(1.,0.,0.)) ;
#47=AXIS2_PLACEMENT_3D(' ',#46,$,$) ;
#54=AXIS2_PLACEMENT_3D('Plane Axis2P3D',#51,#52,#53) ;
#94=AXIS2_PLACEMENT_3D('Plane Axis2P3D',#91,#92,#93) ;
#125=AXIS2_PLACEMENT_3D('Plane Axis2P3D',#122,#123,#124) ;
#156=AXIS2_PLACEMENT_3D('Plane Axis2P3D',#153,#154,#155) ;
#196=AXIS2_PLACEMENT_3D('Plane Axis2P3D',#193,#194,#195) ;
#244=AXIS2_PLACEMENT_3D('Plane Axis2P3D',#241,#242,#243) ;
#301=AXIS2_PLACEMENT_3D('Plane Axis2P3D',#298,#299,#300) ;
#332=AXIS2_PLACEMENT_3D('Plane Axis2P3D',#329,#330,#331) ;
#363=AXIS2_PLACEMENT_3D('Plane Axis2P3D',#360,#361,#362) ;
#411=AXIS2_PLACEMENT_3D('Plane Axis2P3D',#408,#409,#410) ;
#431=AXIS2_PLACEMENT_3D('Plane Axis2P3D',#428,#429,#430) ;
#454=AXIS2_PLACEMENT_3D('Rep\X2\00E8\X0\re absolu',#451,#452,#453) ;
#40=PRODUCT_DEFINITION_SHAPE(' ',' ',#14) ;
#31=APPROVAL_PERSON_ORGANIZATION(#25,#21,#19) ;
#25=PERSON_AND_ORGANIZATION(#22,#23) ;
#22=PERSON(' ',' ',' ',$,$,$) ;
#23=ORGANIZATION(' ',' ',' ') ;
#21=APPROVAL(#20,' ') ;
#20=APPROVAL_STATUS('not_yet_approved') ;
#19=APPROVAL_ROLE('APPROVER') ;
#13=DATE_AND_TIME(#11,#12) ;
#12=LOCAL_TIME(14,42,55.,#10) ;
#10=COORDINATED_UNIVERSAL_TIME_OFFSET(0,0,.AHEAD.) ;
#85=ORIENTED_EDGE('',*,*,#64,.T.) ;
#86=ORIENTED_EDGE('',*,*,#71,.F.) ;
#87=ORIENTED_EDGE('',*,*,#78,.F.) ;
#88=ORIENTED_EDGE('',*,*,#83,.T.) ;
#116=ORIENTED_EDGE('',*,*,#102,.T.) ;
#117=ORIENTED_EDGE('',*,*,#109,.F.) ;
#118=ORIENTED_EDGE('',*,*,#114,.F.) ;
#119=ORIENTED_EDGE('',*,*,#71,.T.) ;
#147=ORIENTED_EDGE('',*,*,#135,.F.) ;
#148=ORIENTED_EDGE('',*,*,#140,.T.) ;
#149=ORIENTED_EDGE('',*,*,#109,.T.) ;
#150=ORIENTED_EDGE('',*,*,#145,.F.) ;
#187=ORIENTED_EDGE('',*,*,#166,.F.) ;
#188=ORIENTED_EDGE('',*,*,#173,.T.) ;
#189=ORIENTED_EDGE('',*,*,#180,.T.) ;
#190=ORIENTED_EDGE('',*,*,#185,.F.) ;
#209=ORIENTED_EDGE('',*,*,#83,.F.) ;
#210=ORIENTED_EDGE('',*,*,#202,.F.) ;
#211=ORIENTED_EDGE('',*,*,#166,.T.) ;
#212=ORIENTED_EDGE('',*,*,#207,.T.) ;
#235=ORIENTED_EDGE('',*,*,#180,.F.) ;
#236=ORIENTED_EDGE('',*,*,#221,.T.) ;
#237=ORIENTED_EDGE('',*,*,#228,.T.) ;
#238=ORIENTED_EDGE('',*,*,#233,.F.) ;
#266=ORIENTED_EDGE('',*,*,#252,.T.) ;
#267=ORIENTED_EDGE('',*,*,#228,.F.) ;
#268=ORIENTED_EDGE('',*,*,#259,.F.) ;
#269=ORIENTED_EDGE('',*,*,#264,.T.) ;
#292=ORIENTED_EDGE('',*,*,#264,.F.) ;
#293=ORIENTED_EDGE('',*,*,#278,.F.) ;
#294=ORIENTED_EDGE('',*,*,#285,.T.) ;
#295=ORIENTED_EDGE('',*,*,#290,.T.) ;
#323=ORIENTED_EDGE('',*,*,#285,.F.) ;
#324=ORIENTED_EDGE('',*,*,#309,.T.) ;
#325=ORIENTED_EDGE('',*,*,#316,.T.) ;
#326=ORIENTED_EDGE('',*,*,#321,.F.) ;
#354=ORIENTED_EDGE('',*,*,#316,.F.) ;
#355=ORIENTED_EDGE('',*,*,#340,.T.) ;
#356=ORIENTED_EDGE('',*,*,#347,.T.) ;
#357=ORIENTED_EDGE('',*,*,#352,.F.) ;
#385=ORIENTED_EDGE('',*,*,#347,.F.) ;
#386=ORIENTED_EDGE('',*,*,#371,.T.) ;
#387=ORIENTED_EDGE('',*,*,#378,.T.) ;
#388=ORIENTED_EDGE('',*,*,#383,.F.) ;
#402=ORIENTED_EDGE('',*,*,#135,.T.) ;
#403=ORIENTED_EDGE('',*,*,#395,.T.) ;
#404=ORIENTED_EDGE('',*,*,#378,.F.) ;
#405=ORIENTED_EDGE('',*,*,#400,.F.) ;
#414=ORIENTED_EDGE('',*,*,#207,.F.) ;
#415=ORIENTED_EDGE('',*,*,#185,.T.) ;
#416=ORIENTED_EDGE('',*,*,#233,.T.) ;
#417=ORIENTED_EDGE('',*,*,#252,.F.) ;
#418=ORIENTED_EDGE('',*,*,#290,.F.) ;
#419=ORIENTED_EDGE('',*,*,#321,.T.) ;
#420=ORIENTED_EDGE('',*,*,#352,.T.) ;
#421=ORIENTED_EDGE('',*,*,#383,.T.) ;
#422=ORIENTED_EDGE('',*,*,#395,.F.) ;
#423=ORIENTED_EDGE('',*,*,#145,.T.) ;
#424=ORIENTED_EDGE('',*,*,#102,.F.) ;
#425=ORIENTED_EDGE('',*,*,#64,.F.) ;
#434=ORIENTED_EDGE('',*,*,#78,.T.) ;
#435=ORIENTED_EDGE('',*,*,#114,.T.) ;
#436=ORIENTED_EDGE('',*,*,#140,.F.) ;
#437=ORIENTED_EDGE('',*,*,#400,.T.) ;
#438=ORIENTED_EDGE('',*,*,#371,.F.) ;
#439=ORIENTED_EDGE('',*,*,#340,.F.) ;
#440=ORIENTED_EDGE('',*,*,#309,.F.) ;
#441=ORIENTED_EDGE('',*,*,#278,.T.) ;
#442=ORIENTED_EDGE('',*,*,#259,.T.) ;
#443=ORIENTED_EDGE('',*,*,#221,.F.) ;
#444=ORIENTED_EDGE('',*,*,#173,.F.) ;
#445=ORIENTED_EDGE('',*,*,#202,.T.) ;
#50=CLOSED_SHELL('Closed Shell',(#90,#121,#152,#192,#214,#240,#271,#297,#328,#359,#390,#407,#427,#447)) ;
#58=VECTOR('Line Direction',#57,1.) ;
#67=VECTOR('Line Direction',#66,1.) ;
#74=VECTOR('Line Direction',#73,1.) ;
#81=VECTOR('Line Direction',#80,1.) ;
#98=VECTOR('Line Direction',#97,1.) ;
#105=VECTOR('Line Direction',#104,1.) ;
#112=VECTOR('Line Direction',#111,1.) ;
#129=VECTOR('Line Direction',#128,1.) ;
#138=VECTOR('Line Direction',#137,1.) ;
#143=VECTOR('Line Direction',#142,1.) ;
#160=VECTOR('Line Direction',#159,1.) ;
#169=VECTOR('Line Direction',#168,1.) ;
#176=VECTOR('Line Direction',#175,1.) ;
#183=VECTOR('Line Direction',#182,1.) ;
#200=VECTOR('Line Direction',#199,1.) ;
#205=VECTOR('Line Direction',#204,1.) ;
#217=VECTOR('Line Direction',#216,1.) ;
#224=VECTOR('Line Direction',#223,1.) ;
#231=VECTOR('Line Direction',#230,1.) ;
#248=VECTOR('Line Direction',#247,1.) ;
#255=VECTOR('Line Direction',#254,1.) ;
#262=VECTOR('Line Direction',#261,1.) ;
#274=VECTOR('Line Direction',#273,1.) ;
#281=VECTOR('Line Direction',#280,1.) ;
#288=VECTOR('Line Direction',#287,1.) ;
#305=VECTOR('Line Direction',#304,1.) ;
#312=VECTOR('Line Direction',#311,1.) ;
#319=VECTOR('Line Direction',#318,1.) ;
#336=VECTOR('Line Direction',#335,1.) ;
#343=VECTOR('Line Direction',#342,1.) ;
#350=VECTOR('Line Direction',#349,1.) ;
#367=VECTOR('Line Direction',#366,1.) ;
#374=VECTOR('Line Direction',#373,1.) ;
#381=VECTOR('Line Direction',#380,1.) ;
#393=VECTOR('Line Direction',#392,1.) ;
#398=VECTOR('Line Direction',#397,1.) ;
#449=ADVANCED_BREP_SHAPE_REPRESENTATION('NONE',(#448),#45) ;
#48=SHAPE_REPRESENTATION(' ',(#47),#45) ;
#90=ADVANCED_FACE('Corps principal',(#89),#55,.F.) ;
#121=ADVANCED_FACE('Corps principal',(#120),#95,.T.) ;
#152=ADVANCED_FACE('Corps principal',(#151),#126,.T.) ;
#192=ADVANCED_FACE('Corps principal',(#191),#157,.T.) ;
#214=ADVANCED_FACE('Corps principal',(#213),#197,.F.) ;
#240=ADVANCED_FACE('Corps principal',(#239),#95,.T.) ;
#271=ADVANCED_FACE('Corps principal',(#270),#245,.F.) ;
#297=ADVANCED_FACE('Corps principal',(#296),#197,.F.) ;
#328=ADVANCED_FACE('Corps principal',(#327),#302,.T.) ;
#359=ADVANCED_FACE('Corps principal',(#358),#333,.T.) ;
#390=ADVANCED_FACE('Corps principal',(#389),#364,.T.) ;
#407=ADVANCED_FACE('Corps principal',(#406),#197,.F.) ;
#427=ADVANCED_FACE('Corps principal',(#426),#412,.T.) ;
#447=ADVANCED_FACE('Corps principal',(#446),#432,.F.) ;
#4=APPLICATION_PROTOCOL_DEFINITION('international standard','config_control_design',1994,#1) ;
#32=APPROVAL_DATE_TIME(#13,#21) ;
#448=MANIFOLD_SOLID_BREP('Corps principal',#50) ;
#11=CALENDAR_DATE(2017,9,8) ;
#30=CC_DESIGN_APPROVAL(#21,(#16,#6,#14)) ;
#18=CC_DESIGN_DATE_AND_TIME_ASSIGNMENT(#13,#17,(#16)) ;
#29=CC_DESIGN_DATE_AND_TIME_ASSIGNMENT(#13,#28,(#14)) ;
#17=DATE_TIME_ROLE('classification_date') ;
#28=DATE_TIME_ROLE('creation_date') ;
#27=CC_DESIGN_PERSON_AND_ORGANIZATION_ASSIGNMENT(#25,#26,(#16)) ;
#33=CC_DESIGN_PERSON_AND_ORGANIZATION_ASSIGNMENT(#25,#34,(#6)) ;
#35=CC_DESIGN_PERSON_AND_ORGANIZATION_ASSIGNMENT(#25,#36,(#6,#14)) ;
#37=CC_DESIGN_PERSON_AND_ORGANIZATION_ASSIGNMENT(#25,#38,(#5)) ;
#26=PERSON_AND_ORGANIZATION_ROLE('classification_officer') ;
#34=PERSON_AND_ORGANIZATION_ROLE('design_supplier') ;
#36=PERSON_AND_ORGANIZATION_ROLE('creator') ;
#38=PERSON_AND_ORGANIZATION_ROLE('design_owner') ;
#39=CC_DESIGN_SECURITY_CLASSIFICATION(#16,(#6)) ;
#450=SHAPE_REPRESENTATION_RELATIONSHIP(' ',' ',#48,#449) ;
#3=DESIGN_CONTEXT(' ',#1,'design') ;
#64=EDGE_CURVE('',#61,#63,#59,.T.) ;
#71=EDGE_CURVE('',#70,#63,#68,.T.) ;
#78=EDGE_CURVE('',#77,#70,#75,.T.) ;
#83=EDGE_CURVE('',#77,#61,#82,.T.) ;
#102=EDGE_CURVE('',#63,#101,#99,.T.) ;
#109=EDGE_CURVE('',#108,#101,#106,.T.) ;
#114=EDGE_CURVE('',#70,#108,#113,.T.) ;
#135=EDGE_CURVE('',#132,#134,#130,.T.) ;
#140=EDGE_CURVE('',#132,#108,#139,.T.) ;
#145=EDGE_CURVE('',#134,#101,#144,.T.) ;
#166=EDGE_CURVE('',#163,#165,#161,.T.) ;
#173=EDGE_CURVE('',#163,#172,#170,.T.) ;
#180=EDGE_CURVE('',#172,#179,#177,.T.) ;
#185=EDGE_CURVE('',#165,#179,#184,.T.) ;
#202=EDGE_CURVE('',#163,#77,#201,.T.) ;
#207=EDGE_CURVE('',#165,#61,#206,.T.) ;
#221=EDGE_CURVE('',#172,#220,#218,.T.) ;
#228=EDGE_CURVE('',#220,#227,#225,.T.) ;
#233=EDGE_CURVE('',#179,#227,#232,.T.) ;
#252=EDGE_CURVE('',#251,#227,#249,.T.) ;
#259=EDGE_CURVE('',#258,#220,#256,.T.) ;
#264=EDGE_CURVE('',#258,#251,#263,.T.) ;
#278=EDGE_CURVE('',#277,#258,#275,.T.) ;
#285=EDGE_CURVE('',#277,#284,#282,.T.) ;
#290=EDGE_CURVE('',#284,#251,#289,.T.) ;
#309=EDGE_CURVE('',#277,#308,#306,.T.) ;
#316=EDGE_CURVE('',#308,#315,#313,.T.) ;
#321=EDGE_CURVE('',#284,#315,#320,.T.) ;
#340=EDGE_CURVE('',#308,#339,#337,.T.) ;
#347=EDGE_CURVE('',#339,#346,#344,.T.) ;
#352=EDGE_CURVE('',#315,#346,#351,.T.) ;
#371=EDGE_CURVE('',#339,#370,#368,.T.) ;
#378=EDGE_CURVE('',#370,#377,#375,.T.) ;
#383=EDGE_CURVE('',#346,#377,#382,.T.) ;
#395=EDGE_CURVE('',#134,#377,#394,.T.) ;
#400=EDGE_CURVE('',#132,#370,#399,.T.) ;
#84=EDGE_LOOP('',(#85,#86,#87,#88)) ;
#115=EDGE_LOOP('',(#116,#117,#118,#119)) ;
#146=EDGE_LOOP('',(#147,#148,#149,#150)) ;
#186=EDGE_LOOP('',(#187,#188,#189,#190)) ;
#208=EDGE_LOOP('',(#209,#210,#211,#212)) ;
#234=EDGE_LOOP('',(#235,#236,#237,#238)) ;
#265=EDGE_LOOP('',(#266,#267,#268,#269)) ;
#291=EDGE_LOOP('',(#292,#293,#294,#295)) ;
#322=EDGE_LOOP('',(#323,#324,#325,#326)) ;
#353=EDGE_LOOP('',(#354,#355,#356,#357)) ;
#384=EDGE_LOOP('',(#385,#386,#387,#388)) ;
#401=EDGE_LOOP('',(#402,#403,#404,#405)) ;
#413=EDGE_LOOP('',(#414,#415,#416,#417,#418,#419,#420,#421,#422,#423,#424,#425)) ;
#433=EDGE_LOOP('',(#434,#435,#436,#437,#438,#439,#440,#441,#442,#443,#444,#445)) ;
#89=FACE_OUTER_BOUND('',#84,.T.) ;
#120=FACE_OUTER_BOUND('',#115,.T.) ;
#151=FACE_OUTER_BOUND('',#146,.T.) ;
#191=FACE_OUTER_BOUND('',#186,.T.) ;
#213=FACE_OUTER_BOUND('',#208,.T.) ;
#239=FACE_OUTER_BOUND('',#234,.T.) ;
#270=FACE_OUTER_BOUND('',#265,.T.) ;
#296=FACE_OUTER_BOUND('',#291,.T.) ;
#327=FACE_OUTER_BOUND('',#322,.T.) ;
#358=FACE_OUTER_BOUND('',#353,.T.) ;
#389=FACE_OUTER_BOUND('',#384,.T.) ;
#406=FACE_OUTER_BOUND('',#401,.T.) ;
#426=FACE_OUTER_BOUND('',#413,.T.) ;
#446=FACE_OUTER_BOUND('',#433,.T.) ;
#44=UNCERTAINTY_MEASURE_WITH_UNIT(LENGTH_MEASURE(0.005),#41,'distance_accuracy_value','CONFUSED CURVE UNCERTAINTY') ;
#59=LINE('Line',#56,#58) ;
#68=LINE('Line',#65,#67) ;
#75=LINE('Line',#72,#74) ;
#82=LINE('Line',#79,#81) ;
#99=LINE('Line',#96,#98) ;
#106=LINE('Line',#103,#105) ;
#113=LINE('Line',#110,#112) ;
#130=LINE('Line',#127,#129) ;
#139=LINE('Line',#136,#138) ;
#144=LINE('Line',#141,#143) ;
#161=LINE('Line',#158,#160) ;
#170=LINE('Line',#167,#169) ;
#177=LINE('Line',#174,#176) ;
#184=LINE('Line',#181,#183) ;
#201=LINE('Line',#198,#200) ;
#206=LINE('Line',#203,#205) ;
#218=LINE('Line',#215,#217) ;
#225=LINE('Line',#222,#224) ;
#232=LINE('Line',#229,#231) ;
#249=LINE('Line',#246,#248) ;
#256=LINE('Line',#253,#255) ;
#263=LINE('Line',#260,#262) ;
#275=LINE('Line',#272,#274) ;
#282=LINE('Line',#279,#281) ;
#289=LINE('Line',#286,#288) ;
#306=LINE('Line',#303,#305) ;
#313=LINE('Line',#310,#312) ;
#320=LINE('Line',#317,#319) ;
#337=LINE('Line',#334,#336) ;
#344=LINE('Line',#341,#343) ;
#351=LINE('Line',#348,#350) ;
#368=LINE('Line',#365,#367) ;
#375=LINE('Line',#372,#374) ;
#382=LINE('Line',#379,#381) ;
#394=LINE('Line',#391,#393) ;
#399=LINE('Line',#396,#398) ;
#2=MECHANICAL_CONTEXT(' ',#1,'mechanical') ;
#24=PERSONAL_ADDRESS(' ',' ',' ',' ',' ',' ',' ',' ',' ',' ',' ',' ',(#22),' ') ;
#55=PLANE('',#54) ;
#95=PLANE('',#94) ;
#126=PLANE('',#125) ;
#157=PLANE('',#156) ;
#197=PLANE('',#196) ;
#245=PLANE('',#244) ;
#302=PLANE('',#301) ;
#333=PLANE('',#332) ;
#364=PLANE('',#363) ;
#412=PLANE('',#411) ;
#432=PLANE('',#431) ;
#7=PRODUCT_CATEGORY('part',$) ;
#9=PRODUCT_CATEGORY_RELATIONSHIP(' ',' ',#7,#8) ;
#6=PRODUCT_DEFINITION_FORMATION_WITH_SPECIFIED_SOURCE('',' ',#5,.NOT_KNOWN.) ;
#8=PRODUCT_RELATED_PRODUCT_CATEGORY('detail',$,(#5)) ;
#49=SHAPE_DEFINITION_REPRESENTATION(#40,#48) ;
#61=VERTEX_POINT('',#60) ;
#63=VERTEX_POINT('',#62) ;
#70=VERTEX_POINT('',#69) ;
#77=VERTEX_POINT('',#76) ;
#101=VERTEX_POINT('',#100) ;
#108=VERTEX_POINT('',#107) ;
#132=VERTEX_POINT('',#131) ;
#134=VERTEX_POINT('',#133) ;
#163=VERTEX_POINT('',#162) ;
#165=VERTEX_POINT('',#164) ;
#172=VERTEX_POINT('',#171) ;
#179=VERTEX_POINT('',#178) ;
#220=VERTEX_POINT('',#219) ;
#227=VERTEX_POINT('',#226) ;
#251=VERTEX_POINT('',#250) ;
#258=VERTEX_POINT('',#257) ;
#277=VERTEX_POINT('',#276) ;
#284=VERTEX_POINT('',#283) ;
#308=VERTEX_POINT('',#307) ;
#315=VERTEX_POINT('',#314) ;
#339=VERTEX_POINT('',#338) ;
#346=VERTEX_POINT('',#345) ;
#370=VERTEX_POINT('',#369) ;
#377=VERTEX_POINT('',#376) ;
#41=(LENGTH_UNIT()NAMED_UNIT(*)SI_UNIT(.MILLI.,.METRE.)) ;
#42=(NAMED_UNIT(*)PLANE_ANGLE_UNIT()SI_UNIT($,.RADIAN.)) ;
#43=(NAMED_UNIT(*)SI_UNIT($,.STERADIAN.)SOLID_ANGLE_UNIT()) ;
#45=(GEOMETRIC_REPRESENTATION_CONTEXT(3)GLOBAL_UNCERTAINTY_ASSIGNED_CONTEXT((#44))GLOBAL_UNIT_ASSIGNED_CONTEXT((#41,#42,#43))REPRESENTATION_CONTEXT(' ',' ')) ;
ENDSEC;
END-ISO-10303-21;
