  0
SECTION
  2
HEADER
  9
$ACADVER
  1
AC1009
  9
$EXTMIN
 10
0.0
 20
0.0
 30
0.0
  9
$EXTMAX
 10
1000.0
 20
1000.0
 30
0.0
  9
$FILLMODE
 70
 0
  9
$SPLFRAME
 70
 1
  0
ENDSEC
  0
SECTION
  2
TABLES
  0
TABLE
  2
LAYER
 70
1
  0
LAYER
  2
0
 70
     0
 62
     7
  6
CONTINUOUS
  0
ENDTAB
  0
ENDSEC
  0
SECTION
  2
ENTITIES
  0
POLYLINE
  8
0
 62
     0
 66
     1
 10
0
 20
0
 30
0.0
 40
72
 41
72
  0
VERTEX
  8
0
 10
673.629
 20
69.9378
 30
0.0
 40
1
 41
1
  0
VERTEX
  8
0
 10
673.636
 20
69.8914
 30
0.0
 40
1
 41
1
  0
SEQEND
 8
0
  0
POLYLINE
  8
0
 62
     0
 66
     1
 10
0
 20
0
 30
0.0
 40
72
 41
72
  0
VERTEX
  8
0
 10
715.007
 20
113.719
 30
0.0
 40
1
 41
1
  0
VERTEX
  8
0
 10
715.014
 20
113.673
 30
0.0
 40
1
 41
1
  0
SEQEND
 8
0
  0
POLYLINE
  8
0
 62
     0
 66
     1
 10
0
 20
0
 30
0.0
 40
72
 41
72
  0
VERTEX
  8
0
 10
712.561
 20
43.12
 30
0.0
 40
1
 41
1
  0
VERTEX
  8
0
 10
712.514
 20
43.1139
 30
0.0
 40
1
 41
1
  0
SEQEND
 8
0
  0
POLYLINE
  8
0
 62
     0
 66
     1
 10
0
 20
0
 30
0.0
 40
72
 41
72
  0
VERTEX
  8
0
 10
515.274
 20
134.669
 30
0.0
 40
1
 41
1
  0
VERTEX
  8
0
 10
515.268
 20
134.715
 30
0.0
 40
1
 41
1
  0
SEQEND
 8
0
  0
POLYLINE
  8
0
 62
     0
 66
     1
 10
0
 20
0
 30
0.0
 40
72
 41
72
  0
VERTEX
  8
0
 10
753.464
 20
36.5586
 30
0.0
 40
1
 41
1
  0
VERTEX
  8
0
 10
753.51
 20
36.5647
 30
0.0
 40
1
 41
1
  0
SEQEND
 8
0
  0
POLYLINE
  8
0
 62
     0
 66
     1
 10
0
 20
0
 30
0.0
 40
72
 41
72
  0
VERTEX
  8
0
 10
595.86
 20
77.804
 30
0.0
 40
1
 41
1
  0
VERTEX
  8
0
 10
595.867
 20
77.7578
 30
0.0
 40
1
 41
1
  0
SEQEND
 8
0
  0
POLYLINE
  8
0
 62
     0
 66
     1
 10
0
 20
0
 30
0.0
 40
72
 41
72
  0
VERTEX
  8
0
 10
423.214
 20
49.6929
 30
0.0
 40
1
 41
1
  0
VERTEX
  8
0
 10
423.535
 20
49.6929
 30
0.0
 40
1
 41
1
  0
VERTEX
  8
0
 10
423.35
 20
49.0042
 30
0.0
 40
1
 41
1
  0
VERTEX
  8
0
 10
422.85
 20
47.3506
 30
0.0
 40
1
 41
1
  0
VERTEX
  8
0
 10
422.297
 20
45.7133
 30
0.0
 40
1
 41
1
  0
VERTEX
  8
0
 10
421.693
 20
44.0944
 30
0.0
 40
1
 41
1
  0
VERTEX
  8
0
 10
421.039
 20
42.4953
 30
0.0
 40
1
 41
1
  0
VERTEX
  8
0
 10
420.336
 20
40.9174
 30
0.0
 40
1
 41
1
  0
VERTEX
  8
0
 10
419.582
 20
39.3624
 30
0.0
 40
1
 41
1
  0
VERTEX
  8
0
 10
418.781
 20
37.8318
 30
0.0
 40
1
 41
1
  0
VERTEX
  8
0
 10
417.931
 20
36.3271
 30
0.0
 40
1
 41
1
  0
VERTEX
  8
0
 10
417.035
 20
34.85
 30
0.0
 40
1
 41
1
  0
VERTEX
  8
0
 10
416.093
 20
33.4017
 30
0.0
 40
1
 41
1
  0
VERTEX
  8
0
 10
415.106
 20
31.9836
 30
0.0
 40
1
 41
1
  0
VERTEX
  8
0
 10
414.075
 20
30.5974
 30
0.0
 40
1
 41
1
  0
VERTEX
  8
0
 10
413
 20
29.244
 30
0.0
 40
1
 41
1
  0
VERTEX
  8
0
 10
411.883
 20
27.9253
 30
0.0
 40
1
 41
1
  0
VERTEX
  8
0
 10
410.726
 20
26.6421
 30
0.0
 40
1
 41
1
  0
VERTEX
  8
0
 10
409.531
 20
25.396
 30
0.0
 40
1
 41
1
  0
VERTEX
  8
0
 10
408.294
 20
24.1881
 30
0.0
 40
1
 41
1
  0
VERTEX
  8
0
 10
407.022
 20
23.0196
 30
0.0
 40
1
 41
1
  0
VERTEX
  8
0
 10
405.713
 20
21.8917
 30
0.0
 40
1
 41
1
  0
VERTEX
  8
0
 10
404.369
 20
20.8053
 30
0.0
 40
1
 41
1
  0
VERTEX
  8
0
 10
402.992
 20
19.7618
 30
0.0
 40
1
 41
1
  0
VERTEX
  8
0
 10
401.583
 20
18.7619
 30
0.0
 40
1
 41
1
  0
VERTEX
  8
0
 10
400.143
 20
17.8069
 30
0.0
 40
1
 41
1
  0
VERTEX
  8
0
 10
398.674
 20
16.8976
 30
0.0
 40
1
 41
1
  0
VERTEX
  8
0
 10
397.178
 20
16.0349
 30
0.0
 40
1
 41
1
  0
VERTEX
  8
0
 10
395.654
 20
15.2196
 30
0.0
 40
1
 41
1
  0
VERTEX
  8
0
 10
394.106
 20
14.4526
 30
0.0
 40
1
 41
1
  0
VERTEX
  8
0
 10
392.533
 20
13.7345
 30
0.0
 40
1
 41
1
  0
VERTEX
  8
0
 10
390.94
 20
13.0663
 30
0.0
 40
1
 41
1
  0
VERTEX
  8
0
 10
389.328
 20
12.4483
 30
0.0
 40
1
 41
1
  0
VERTEX
  8
0
 10
387.694
 20
11.8813
 30
0.0
 40
1
 41
1
  0
VERTEX
  8
0
 10
386.046
 20
11.3659
 30
0.0
 40
1
 41
1
  0
VERTEX
  8
0
 10
384.382
 20
10.9026
 30
0.0
 40
1
 41
1
  0
VERTEX
  8
0
 10
382.703
 20
10.4918
 30
0.0
 40
1
 41
1
  0
VERTEX
  8
0
 10
381.013
 20
10.1338
 30
0.0
 40
1
 41
1
  0
VERTEX
  8
0
 10
379.313
 20
9.82921
 30
0.0
 40
1
 41
1
  0
VERTEX
  8
0
 10
377.603
 20
9.57813
 30
0.0
 40
1
 41
1
  0
VERTEX
  8
0
 10
375.886
 20
9.38092
 30
0.0
 40
1
 41
1
  0
VERTEX
  8
0
 10
374.164
 20
9.23768
 30
0.0
 40
1
 41
1
  0
VERTEX
  8
0
 10
372.439
 20
9.1486
 30
0.0
 40
1
 41
1
  0
VERTEX
  8
0
 10
370.711
 20
9.11376
 30
0.0
 40
1
 41
1
  0
VERTEX
  8
0
 10
368.983
 20
9.13319
 30
0.0
 40
1
 41
1
  0
VERTEX
  8
0
 10
367.257
 20
9.20688
 30
0.0
 40
1
 41
1
  0
VERTEX
  8
0
 10
365.535
 20
9.33475
 30
0.0
 40
1
 41
1
  0
VERTEX
  8
0
 10
363.817
 20
9.51671
 30
0.0
 40
1
 41
1
  0
VERTEX
  8
0
 10
362.104
 20
9.75256
 30
0.0
 40
1
 41
1
  0
VERTEX
  8
0
 10
360.401
 20
10.042
 30
0.0
 40
1
 41
1
  0
VERTEX
  8
0
 10
358.707
 20
10.3848
 30
0.0
 40
1
 41
1
  0
VERTEX
  8
0
 10
357.025
 20
10.7807
 30
0.0
 40
1
 41
1
  0
VERTEX
  8
0
 10
355.357
 20
11.2292
 30
0.0
 40
1
 41
1
  0
VERTEX
  8
0
 10
353.703
 20
11.7299
 30
0.0
 40
1
 41
1
  0
VERTEX
  8
0
 10
352.067
 20
12.2822
 30
0.0
 40
1
 41
1
  0
VERTEX
  8
0
 10
350.447
 20
12.8858
 30
0.0
 40
1
 41
1
  0
VERTEX
  8
0
 10
348.849
 20
13.5399
 30
0.0
 40
1
 41
1
  0
VERTEX
  8
0
 10
347.271
 20
14.2439
 30
0.0
 40
1
 41
1
  0
VERTEX
  8
0
 10
345.715
 20
14.9971
 30
0.0
 40
1
 41
1
  0
VERTEX
  8
0
 10
344.185
 20
15.7988
 30
0.0
 40
1
 41
1
  0
VERTEX
  8
0
 10
342.681
 20
16.6481
 30
0.0
 40
1
 41
1
  0
VERTEX
  8
0
 10
341.203
 20
17.5443
 30
0.0
 40
1
 41
1
  0
VERTEX
  8
0
 10
339.754
 20
18.4864
 30
0.0
 40
1
 41
1
  0
VERTEX
  8
0
 10
338.336
 20
19.4736
 30
0.0
 40
1
 41
1
  0
VERTEX
  8
0
 10
336.95
 20
20.5049
 30
0.0
 40
1
 41
1
  0
VERTEX
  8
0
 10
335.597
 20
21.5792
 30
0.0
 40
1
 41
1
  0
VERTEX
  8
0
 10
334.278
 20
22.6954
 30
0.0
 40
1
 41
1
  0
VERTEX
  8
0
 10
332.994
 20
23.8525
 30
0.0
 40
1
 41
1
  0
VERTEX
  8
0
 10
331.749
 20
25.0494
 30
0.0
 40
1
 41
1
  0
VERTEX
  8
0
 10
330.542
 20
26.2849
 30
0.0
 40
1
 41
1
  0
VERTEX
  8
0
 10
329.372
 20
27.5575
 30
0.0
 40
1
 41
1
  0
VERTEX
  8
0
 10
328.244
 20
28.8664
 30
0.0
 40
1
 41
1
  0
VERTEX
  8
0
 10
327.158
 20
30.21
 30
0.0
 40
1
 41
1
  0
VERTEX
  8
0
 10
326.115
 20
31.5871
 30
0.0
 40
1
 41
1
  0
VERTEX
  8
0
 10
325.115
 20
32.9962
 30
0.0
 40
1
 41
1
  0
VERTEX
  8
0
 10
324.16
 20
34.4361
 30
0.0
 40
1
 41
1
  0
VERTEX
  8
0
 10
323.25
 20
35.9053
 30
0.0
 40
1
 41
1
  0
VERTEX
  8
0
 10
322.388
 20
37.4022
 30
0.0
 40
1
 41
1
  0
VERTEX
  8
0
 10
321.572
 20
38.9256
 30
0.0
 40
1
 41
1
  0
VERTEX
  8
0
 10
320.806
 20
40.4738
 30
0.0
 40
1
 41
1
  0
VERTEX
  8
0
 10
320.088
 20
42.0454
 30
0.0
 40
1
 41
1
  0
VERTEX
  8
0
 10
319.419
 20
43.6386
 30
0.0
 40
1
 41
1
  0
VERTEX
  8
0
 10
318.801
 20
45.2522
 30
0.0
 40
1
 41
1
  0
VERTEX
  8
0
 10
318.235
 20
46.8843
 30
0.0
 40
1
 41
1
  0
VERTEX
  8
0
 10
317.719
 20
48.5335
 30
0.0
 40
1
 41
1
  0
VERTEX
  8
0
 10
317.528
 20
49.2222
 30
0.0
 40
1
 41
1
  0
VERTEX
  8
0
 10
317.582
 20
49.2222
 30
0.0
 40
1
 41
1
  0
SEQEND
 8
0
  0
POLYLINE
  8
0
 62
     0
 66
     1
 10
0
 20
0
 30
0.0
 70
     1
 40
72
 41
72
  0
VERTEX
  8
0
 10
209.664
 20
169.633
 30
0.0
 40
1
 41
1
  0
VERTEX
  8
0
 10
210.056
 20
169.66
 30
0.0
 40
1
 41
1
  0
VERTEX
  8
0
 10
210.44
 20
169.736
 30
0.0
 40
1
 41
1
  0
VERTEX
  8
0
 10
210.811
 20
169.862
 30
0.0
 40
1
 41
1
  0
VERTEX
  8
0
 10
211.164
 20
170.036
 30
0.0
 40
1
 41
1
  0
VERTEX
  8
0
 10
211.49
 20
170.254
 30
0.0
 40
1
 41
1
  0
VERTEX
  8
0
 10
211.785
 20
170.513
 30
0.0
 40
1
 41
1
  0
VERTEX
  8
0
 10
212.043
 20
170.807
 30
0.0
 40
1
 41
1
  0
VERTEX
  8
0
 10
212.261
 20
171.133
 30
0.0
 40
1
 41
1
  0
VERTEX
  8
0
 10
212.435
 20
171.486
 30
0.0
 40
1
 41
1
  0
VERTEX
  8
0
 10
212.561
 20
171.857
 30
0.0
 40
1
 41
1
  0
VERTEX
  8
0
 10
212.638
 20
172.242
 30
0.0
 40
1
 41
1
  0
VERTEX
  8
0
 10
212.664
 20
172.633
 30
0.0
 40
1
 41
1
  0
VERTEX
  8
0
 10
212.664
 20
238.328
 30
0.0
 40
1
 41
1
  0
VERTEX
  8
0
 10
212.718
 20
238.811
 30
0.0
 40
1
 41
1
  0
VERTEX
  8
0
 10
212.708
 20
239.296
 30
0.0
 40
1
 41
1
  0
VERTEX
  8
0
 10
212.635
 20
239.776
 30
0.0
 40
1
 41
1
  0
VERTEX
  8
0
 10
212.5
 20
240.242
 30
0.0
 40
1
 41
1
  0
VERTEX
  8
0
 10
212.306
 20
240.686
 30
0.0
 40
1
 41
1
  0
VERTEX
  8
0
 10
212.056
 20
241.103
 30
0.0
 40
1
 41
1
  0
VERTEX
  8
0
 10
211.753
 20
241.482
 30
0.0
 40
1
 41
1
  0
VERTEX
  8
0
 10
211.403
 20
241.818
 30
0.0
 40
1
 41
1
  0
VERTEX
  8
0
 10
211.011
 20
242.106
 30
0.0
 40
1
 41
1
  0
VERTEX
  8
0
 10
210.587
 20
242.34
 30
0.0
 40
1
 41
1
  0
VERTEX
  8
0
 10
210.135
 20
242.517
 30
0.0
 40
1
 41
1
  0
VERTEX
  8
0
 10
209.664
 20
242.633
 30
0.0
 40
1
 41
1
  0
VERTEX
  8
0
 10
132.103
 20
242.633
 30
0.0
 40
1
 41
1
  0
VERTEX
  8
0
 10
102.36
 20
238.718
 30
0.0
 40
1
 41
1
  0
VERTEX
  8
0
 10
102.882
 20
234.751
 30
0.0
 40
1
 41
1
  0
VERTEX
  8
0
 10
101.241
 20
233.182
 30
0.0
 40
1
 41
1
  0
VERTEX
  8
0
 10
99.5578
 20
231.657
 30
0.0
 40
1
 41
1
  0
VERTEX
  8
0
 10
97.8347
 20
230.176
 30
0.0
 40
1
 41
1
  0
VERTEX
  8
0
 10
96.0722
 20
228.744
 30
0.0
 40
1
 41
1
  0
VERTEX
  8
0
 10
94.2719
 20
227.36
 30
0.0
 40
1
 41
1
  0
VERTEX
  8
0
 10
92.4351
 20
226.024
 30
0.0
 40
1
 41
1
  0
VERTEX
  8
0
 10
90.5629
 20
224.737
 30
0.0
 40
1
 41
1
  0
VERTEX
  8
0
 10
88.6568
 20
223.503
 30
0.0
 40
1
 41
1
  0
VERTEX
  8
0
 10
86.7182
 20
222.319
 30
0.0
 40
1
 41
1
  0
VERTEX
  8
0
 10
84.7485
 20
221.189
 30
0.0
 40
1
 41
1
  0
VERTEX
  8
0
 10
82.7489
 20
220.111
 30
0.0
 40
1
 41
1
  0
VERTEX
  8
0
 10
80.7211
 20
219.089
 30
0.0
 40
1
 41
1
  0
VERTEX
  8
0
 10
78.6667
 20
218.119
 30
0.0
 40
1
 41
1
  0
VERTEX
  8
0
 10
76.5868
 20
217.207
 30
0.0
 40
1
 41
1
  0
VERTEX
  8
0
 10
74.4831
 20
216.351
 30
0.0
 40
1
 41
1
  0
VERTEX
  8
0
 10
72.3571
 20
215.551
 30
0.0
 40
1
 41
1
  0
VERTEX
  8
0
 10
70.2106
 20
214.81
 30
0.0
 40
1
 41
1
  0
VERTEX
  8
0
 10
68.0446
 20
214.126
 30
0.0
 40
1
 41
1
  0
VERTEX
  8
0
 10
65.8611
 20
213.501
 30
0.0
 40
1
 41
1
  0
VERTEX
  8
0
 10
63.6617
 20
212.935
 30
0.0
 40
1
 41
1
  0
VERTEX
  8
0
 10
61.4476
 20
212.428
 30
0.0
 40
1
 41
1
  0
VERTEX
  8
0
 10
59.2208
 20
211.981
 30
0.0
 40
1
 41
1
  0
VERTEX
  8
0
 10
56.9829
 20
211.593
 30
0.0
 40
1
 41
1
  0
VERTEX
  8
0
 10
54.7353
 20
211.267
 30
0.0
 40
1
 41
1
  0
VERTEX
  8
0
 10
51.8636
 20
211.079
 30
0.0
 40
1
 41
1
  0
VERTEX
  8
0
 10
48.9921
 20
211.267
 30
0.0
 40
1
 41
1
  0
VERTEX
  8
0
 10
46.1696
 20
211.828
 30
0.0
 40
1
 41
1
  0
VERTEX
  8
0
 10
43.4447
 20
212.753
 30
0.0
 40
1
 41
1
  0
VERTEX
  8
0
 10
40.8636
 20
214.026
 30
0.0
 40
1
 41
1
  0
VERTEX
  8
0
 10
38.471
 20
215.625
 30
0.0
 40
1
 41
1
  0
VERTEX
  8
0
 10
36.3074
 20
217.522
 30
0.0
 40
1
 41
1
  0
VERTEX
  8
0
 10
34.4099
 20
219.686
 30
0.0
 40
1
 41
1
  0
VERTEX
  8
0
 10
32.8111
 20
222.079
 30
0.0
 40
1
 41
1
  0
VERTEX
  8
0
 10
31.5383
 20
224.66
 30
0.0
 40
1
 41
1
  0
VERTEX
  8
0
 10
30.6133
 20
227.385
 30
0.0
 40
1
 41
1
  0
VERTEX
  8
0
 10
30.2474
 20
229.224
 30
0.0
 40
1
 41
1
  0
VERTEX
  8
0
 10
0.438585
 20
225.3
 30
0.0
 40
1
 41
1
  0
VERTEX
  8
0
 10
5.65001
 20
185.64
 30
0.0
 40
1
 41
1
  0
VERTEX
  8
0
 10
16.0254
 20
183.272
 30
0.0
 40
1
 41
1
  0
VERTEX
  8
0
 10
26.4415
 20
181.092
 30
0.0
 40
1
 41
1
  0
VERTEX
  8
0
 10
36.895
 20
179.096
 30
0.0
 40
1
 41
1
  0
VERTEX
  8
0
 10
47.3825
 20
177.289
 30
0.0
 40
1
 41
1
  0
VERTEX
  8
0
 10
57.9008
 20
175.669
 30
0.0
 40
1
 41
1
  0
VERTEX
  8
0
 10
68.4462
 20
174.239
 30
0.0
 40
1
 41
1
  0
VERTEX
  8
0
 10
79.0157
 20
172.997
 30
0.0
 40
1
 41
1
  0
VERTEX
  8
0
 10
89.6057
 20
171.944
 30
0.0
 40
1
 41
1
  0
VERTEX
  8
0
 10
100.213
 20
171.081
 30
0.0
 40
1
 41
1
  0
VERTEX
  8
0
 10
110.834
 20
170.408
 30
0.0
 40
1
 41
1
  0
VERTEX
  8
0
 10
121.465
 20
169.926
 30
0.0
 40
1
 41
1
  0
VERTEX
  8
0
 10
132.103
 20
169.633
 30
0.0
 40
1
 41
1
  0
VERTEX
  8
0
 10
209.664
 20
169.633
 30
0.0
 40
1
 41
1
  0
SEQEND
 8
0
  0
POLYLINE
  8
0
 62
     0
 66
     1
 10
0
 20
0
 30
0.0
 70
     1
 40
72
 41
72
  0
VERTEX
  8
0
 10
4.10732
 20
169.313
 30
0.0
 40
1
 41
1
  0
VERTEX
  8
0
 10
3.71571
 20
169.288
 30
0.0
 40
1
 41
1
  0
VERTEX
  8
0
 10
3.33083
 20
169.211
 30
0.0
 40
1
 41
1
  0
VERTEX
  8
0
 10
2.95925
 20
169.085
 30
0.0
 40
1
 41
1
  0
VERTEX
  8
0
 10
2.60732
 20
168.911
 30
0.0
 40
1
 41
1
  0
VERTEX
  8
0
 10
2.28103
 20
168.693
 30
0.0
 40
1
 41
1
  0
VERTEX
  8
0
 10
1.986
 20
168.435
 30
0.0
 40
1
 41
1
  0
VERTEX
  8
0
 10
1.72726
 20
168.139
 30
0.0
 40
1
 41
1
  0
VERTEX
  8
0
 10
1.50922
 20
167.813
 30
0.0
 40
1
 41
1
  0
VERTEX
  8
0
 10
1.33567
 20
167.461
 30
0.0
 40
1
 41
1
  0
VERTEX
  8
0
 10
1.20953
 20
167.089
 30
0.0
 40
1
 41
1
  0
VERTEX
  8
0
 10
1.13298
 20
166.704
 30
0.0
 40
1
 41
1
  0
VERTEX
  8
0
 10
1.10731
 20
166.313
 30
0.0
 40
1
 41
1
  0
VERTEX
  8
0
 10
1.10731
 20
100.618
 30
0.0
 40
1
 41
1
  0
VERTEX
  8
0
 10
1.05339
 20
100.136
 30
0.0
 40
1
 41
1
  0
VERTEX
  8
0
 10
1.06288
 20
99.6506
 30
0.0
 40
1
 41
1
  0
VERTEX
  8
0
 10
1.13558
 20
99.1707
 30
0.0
 40
1
 41
1
  0
VERTEX
  8
0
 10
1.27034
 20
98.7044
 30
0.0
 40
1
 41
1
  0
VERTEX
  8
0
 10
1.46485
 20
98.2597
 30
0.0
 40
1
 41
1
  0
VERTEX
  8
0
 10
1.71565
 20
97.8443
 30
0.0
 40
1
 41
1
  0
VERTEX
  8
0
 10
2.01861
 20
97.465
 30
0.0
 40
1
 41
1
  0
VERTEX
  8
0
 10
2.36843
 20
97.1286
 30
0.0
 40
1
 41
1
  0
VERTEX
  8
0
 10
2.75917
 20
96.8408
 30
0.0
 40
1
 41
1
  0
VERTEX
  8
0
 10
3.18419
 20
96.6064
 30
0.0
 40
1
 41
1
  0
VERTEX
  8
0
 10
3.63612
 20
96.4294
 30
0.0
 40
1
 41
1
  0
VERTEX
  8
0
 10
4.10732
 20
96.3129
 30
0.0
 40
1
 41
1
  0
VERTEX
  8
0
 10
81.6681
 20
96.3129
 30
0.0
 40
1
 41
1
  0
VERTEX
  8
0
 10
111.411
 20
100.229
 30
0.0
 40
1
 41
1
  0
VERTEX
  8
0
 10
110.889
 20
104.194
 30
0.0
 40
1
 41
1
  0
VERTEX
  8
0
 10
112.53
 20
105.765
 30
0.0
 40
1
 41
1
  0
VERTEX
  8
0
 10
114.213
 20
107.29
 30
0.0
 40
1
 41
1
  0
VERTEX
  8
0
 10
115.936
 20
108.77
 30
0.0
 40
1
 41
1
  0
VERTEX
  8
0
 10
117.699
 20
110.202
 30
0.0
 40
1
 41
1
  0
VERTEX
  8
0
 10
119.499
 20
111.587
 30
0.0
 40
1
 41
1
  0
VERTEX
  8
0
 10
121.336
 20
112.923
 30
0.0
 40
1
 41
1
  0
VERTEX
  8
0
 10
123.208
 20
114.209
 30
0.0
 40
1
 41
1
  0
VERTEX
  8
0
 10
125.114
 20
115.444
 30
0.0
 40
1
 41
1
  0
VERTEX
  8
0
 10
127.053
 20
116.627
 30
0.0
 40
1
 41
1
  0
VERTEX
  8
0
 10
129.023
 20
117.758
 30
0.0
 40
1
 41
1
  0
VERTEX
  8
0
 10
131.022
 20
118.835
 30
0.0
 40
1
 41
1
  0
VERTEX
  8
0
 10
133.05
 20
119.858
 30
0.0
 40
1
 41
1
  0
VERTEX
  8
0
 10
135.104
 20
120.827
 30
0.0
 40
1
 41
1
  0
VERTEX
  8
0
 10
137.184
 20
121.739
 30
0.0
 40
1
 41
1
  0
VERTEX
  8
0
 10
139.288
 20
122.595
 30
0.0
 40
1
 41
1
  0
VERTEX
  8
0
 10
141.414
 20
123.395
 30
0.0
 40
1
 41
1
  0
VERTEX
  8
0
 10
143.561
 20
124.137
 30
0.0
 40
1
 41
1
  0
VERTEX
  8
0
 10
145.726
 20
124.82
 30
0.0
 40
1
 41
1
  0
VERTEX
  8
0
 10
147.91
 20
125.446
 30
0.0
 40
1
 41
1
  0
VERTEX
  8
0
 10
150.11
 20
126.012
 30
0.0
 40
1
 41
1
  0
VERTEX
  8
0
 10
152.324
 20
126.519
 30
0.0
 40
1
 41
1
  0
VERTEX
  8
0
 10
154.55
 20
126.966
 30
0.0
 40
1
 41
1
  0
VERTEX
  8
0
 10
156.788
 20
127.353
 30
0.0
 40
1
 41
1
  0
VERTEX
  8
0
 10
159.036
 20
127.68
 30
0.0
 40
1
 41
1
  0
VERTEX
  8
0
 10
161.907
 20
127.868
 30
0.0
 40
1
 41
1
  0
VERTEX
  8
0
 10
164.779
 20
127.68
 30
0.0
 40
1
 41
1
  0
VERTEX
  8
0
 10
167.601
 20
127.118
 30
0.0
 40
1
 41
1
  0
VERTEX
  8
0
 10
170.326
 20
126.193
 30
0.0
 40
1
 41
1
  0
VERTEX
  8
0
 10
172.907
 20
124.921
 30
0.0
 40
1
 41
1
  0
VERTEX
  8
0
 10
175.3
 20
123.322
 30
0.0
 40
1
 41
1
  0
VERTEX
  8
0
 10
177.464
 20
121.424
 30
0.0
 40
1
 41
1
  0
VERTEX
  8
0
 10
179.361
 20
119.261
 30
0.0
 40
1
 41
1
  0
VERTEX
  8
0
 10
180.96
 20
116.868
 30
0.0
 40
1
 41
1
  0
VERTEX
  8
0
 10
182.233
 20
114.287
 30
0.0
 40
1
 41
1
  0
VERTEX
  8
0
 10
183.158
 20
111.562
 30
0.0
 40
1
 41
1
  0
VERTEX
  8
0
 10
183.524
 20
109.723
 30
0.0
 40
1
 41
1
  0
VERTEX
  8
0
 10
213.332
 20
113.647
 30
0.0
 40
1
 41
1
  0
VERTEX
  8
0
 10
208.121
 20
153.306
 30
0.0
 40
1
 41
1
  0
VERTEX
  8
0
 10
197.746
 20
155.674
 30
0.0
 40
1
 41
1
  0
VERTEX
  8
0
 10
187.329
 20
157.856
 30
0.0
 40
1
 41
1
  0
VERTEX
  8
0
 10
176.876
 20
159.85
 30
0.0
 40
1
 41
1
  0
VERTEX
  8
0
 10
166.389
 20
161.658
 30
0.0
 40
1
 41
1
  0
VERTEX
  8
0
 10
155.871
 20
163.278
 30
0.0
 40
1
 41
1
  0
VERTEX
  8
0
 10
145.325
 20
164.708
 30
0.0
 40
1
 41
1
  0
VERTEX
  8
0
 10
134.755
 20
165.95
 30
0.0
 40
1
 41
1
  0
VERTEX
  8
0
 10
124.165
 20
167.003
 30
0.0
 40
1
 41
1
  0
VERTEX
  8
0
 10
113.558
 20
167.865
 30
0.0
 40
1
 41
1
  0
VERTEX
  8
0
 10
102.937
 20
168.538
 30
0.0
 40
1
 41
1
  0
VERTEX
  8
0
 10
92.3061
 20
169.021
 30
0.0
 40
1
 41
1
  0
VERTEX
  8
0
 10
81.6681
 20
169.313
 30
0.0
 40
1
 41
1
  0
VERTEX
  8
0
 10
4.10732
 20
169.313
 30
0.0
 40
1
 41
1
  0
SEQEND
 8
0
  0
POLYLINE
  8
0
 62
     0
 66
     1
 10
0
 20
0
 30
0.0
 70
     1
 40
72
 41
72
  0
VERTEX
  8
0
 10
31.5383
 20
80.0878
 30
0.0
 40
1
 41
1
  0
VERTEX
  8
0
 10
32.8111
 20
77.5068
 30
0.0
 40
1
 41
1
  0
VERTEX
  8
0
 10
34.4099
 20
75.114
 30
0.0
 40
1
 41
1
  0
VERTEX
  8
0
 10
36.3074
 20
72.9504
 30
0.0
 40
1
 41
1
  0
VERTEX
  8
0
 10
38.471
 20
71.0531
 30
0.0
 40
1
 41
1
  0
VERTEX
  8
0
 10
40.8636
 20
69.4542
 30
0.0
 40
1
 41
1
  0
VERTEX
  8
0
 10
43.4447
 20
68.1814
 30
0.0
 40
1
 41
1
  0
VERTEX
  8
0
 10
46.1696
 20
67.2564
 30
0.0
 40
1
 41
1
  0
VERTEX
  8
0
 10
48.9921
 20
66.695
 30
0.0
 40
1
 41
1
  0
VERTEX
  8
0
 10
51.8636
 20
66.5068
 30
0.0
 40
1
 41
1
  0
VERTEX
  8
0
 10
54.7353
 20
66.695
 30
0.0
 40
1
 41
1
  0
VERTEX
  8
0
 10
56.9829
 20
67.0217
 30
0.0
 40
1
 41
1
  0
VERTEX
  8
0
 10
59.2208
 20
67.4088
 30
0.0
 40
1
 41
1
  0
VERTEX
  8
0
 10
61.4476
 20
67.856
 30
0.0
 40
1
 41
1
  0
VERTEX
  8
0
 10
63.6617
 20
68.3629
 30
0.0
 40
1
 41
1
  0
VERTEX
  8
0
 10
65.8611
 20
68.9292
 30
0.0
 40
1
 41
1
  0
VERTEX
  8
0
 10
68.0446
 20
69.5546
 30
0.0
 40
1
 41
1
  0
VERTEX
  8
0
 10
70.2106
 20
70.2383
 30
0.0
 40
1
 41
1
  0
VERTEX
  8
0
 10
72.3571
 20
70.9801
 30
0.0
 40
1
 41
1
  0
VERTEX
  8
0
 10
74.4831
 20
71.7796
 30
0.0
 40
1
 41
1
  0
VERTEX
  8
0
 10
76.5868
 20
72.6358
 30
0.0
 40
1
 41
1
  0
VERTEX
  8
0
 10
78.6667
 20
73.5483
 30
0.0
 40
1
 41
1
  0
VERTEX
  8
0
 10
80.7211
 20
74.5165
 30
0.0
 40
1
 41
1
  0
VERTEX
  8
0
 10
82.7489
 20
75.5396
 30
0.0
 40
1
 41
1
  0
VERTEX
  8
0
 10
84.7485
 20
76.6169
 30
0.0
 40
1
 41
1
  0
VERTEX
  8
0
 10
86.7182
 20
77.7476
 30
0.0
 40
1
 41
1
  0
VERTEX
  8
0
 10
88.6568
 20
78.931
 30
0.0
 40
1
 41
1
  0
VERTEX
  8
0
 10
90.5629
 20
80.166
 30
0.0
 40
1
 41
1
  0
VERTEX
  8
0
 10
92.4351
 20
81.4519
 30
0.0
 40
1
 41
1
  0
VERTEX
  8
0
 10
94.2719
 20
82.7876
 30
0.0
 40
1
 41
1
  0
VERTEX
  8
0
 10
96.0722
 20
84.1725
 30
0.0
 40
1
 41
1
  0
VERTEX
  8
0
 10
97.8347
 20
85.6051
 30
0.0
 40
1
 41
1
  0
VERTEX
  8
0
 10
99.5578
 20
87.0847
 30
0.0
 40
1
 41
1
  0
VERTEX
  8
0
 10
101.241
 20
88.6101
 30
0.0
 40
1
 41
1
  0
VERTEX
  8
0
 10
102.882
 20
90.1803
 30
0.0
 40
1
 41
1
  0
VERTEX
  8
0
 10
102.36
 20
94.1461
 30
0.0
 40
1
 41
1
  0
VERTEX
  8
0
 10
132.103
 20
98.0618
 30
0.0
 40
1
 41
1
  0
VERTEX
  8
0
 10
209.664
 20
98.0618
 30
0.0
 40
1
 41
1
  0
VERTEX
  8
0
 10
210.135
 20
97.9454
 30
0.0
 40
1
 41
1
  0
VERTEX
  8
0
 10
210.587
 20
97.7685
 30
0.0
 40
1
 41
1
  0
VERTEX
  8
0
 10
211.011
 20
97.534
 30
0.0
 40
1
 41
1
  0
VERTEX
  8
0
 10
211.403
 20
97.2463
 30
0.0
 40
1
 41
1
  0
VERTEX
  8
0
 10
211.753
 20
96.9097
 30
0.0
 40
1
 41
1
  0
VERTEX
  8
0
 10
212.056
 20
96.5306
 30
0.0
 40
1
 41
1
  0
VERTEX
  8
0
 10
212.306
 20
96.115
 30
0.0
 40
1
 41
1
  0
VERTEX
  8
0
 10
212.5
 20
95.6704
 30
0.0
 40
1
 41
1
  0
VERTEX
  8
0
 10
212.635
 20
95.204
 30
0.0
 40
1
 41
1
  0
VERTEX
  8
0
 10
212.708
 20
94.7242
 30
0.0
 40
1
 41
1
  0
VERTEX
  8
0
 10
212.718
 20
94.2389
 30
0.0
 40
1
 41
1
  0
VERTEX
  8
0
 10
212.664
 20
93.7567
 30
0.0
 40
1
 41
1
  0
VERTEX
  8
0
 10
212.664
 20
28.0618
 30
0.0
 40
1
 41
1
  0
VERTEX
  8
0
 10
212.638
 20
27.6703
 30
0.0
 40
1
 41
1
  0
VERTEX
  8
0
 10
212.561
 20
27.2854
 30
0.0
 40
1
 41
1
  0
VERTEX
  8
0
 10
212.435
 20
26.9138
 30
0.0
 40
1
 41
1
  0
VERTEX
  8
0
 10
212.261
 20
26.5618
 30
0.0
 40
1
 41
1
  0
VERTEX
  8
0
 10
212.043
 20
26.2356
 30
0.0
 40
1
 41
1
  0
VERTEX
  8
0
 10
211.785
 20
25.9406
 30
0.0
 40
1
 41
1
  0
VERTEX
  8
0
 10
211.49
 20
25.6818
 30
0.0
 40
1
 41
1
  0
VERTEX
  8
0
 10
211.164
 20
25.4638
 30
0.0
 40
1
 41
1
  0
VERTEX
  8
0
 10
210.811
 20
25.2901
 30
0.0
 40
1
 41
1
  0
VERTEX
  8
0
 10
210.44
 20
25.164
 30
0.0
 40
1
 41
1
  0
VERTEX
  8
0
 10
210.056
 20
25.0875
 30
0.0
 40
1
 41
1
  0
VERTEX
  8
0
 10
209.664
 20
25.0618
 30
0.0
 40
1
 41
1
  0
VERTEX
  8
0
 10
132.103
 20
25.0618
 30
0.0
 40
1
 41
1
  0
VERTEX
  8
0
 10
121.465
 20
25.354
 30
0.0
 40
1
 41
1
  0
VERTEX
  8
0
 10
110.834
 20
25.8367
 30
0.0
 40
1
 41
1
  0
VERTEX
  8
0
 10
100.213
 20
26.5094
 30
0.0
 40
1
 41
1
  0
VERTEX
  8
0
 10
89.6057
 20
27.3722
 30
0.0
 40
1
 41
1
  0
VERTEX
  8
0
 10
79.0157
 20
28.4249
 30
0.0
 40
1
 41
1
  0
VERTEX
  8
0
 10
68.4462
 20
29.6667
 30
0.0
 40
1
 41
1
  0
VERTEX
  8
0
 10
57.9008
 20
31.0976
 30
0.0
 40
1
 41
1
  0
VERTEX
  8
0
 10
47.3825
 20
32.7171
 30
0.0
 40
1
 41
1
  0
VERTEX
  8
0
 10
36.895
 20
34.5246
 30
0.0
 40
1
 41
1
  0
VERTEX
  8
0
 10
26.4415
 20
36.5194
 30
0.0
 40
1
 41
1
  0
VERTEX
  8
0
 10
16.0254
 20
38.7011
 30
0.0
 40
1
 41
1
  0
VERTEX
  8
0
 10
5.65001
 20
41.0689
 30
0.0
 40
1
 41
1
  0
VERTEX
  8
0
 10
0.438585
 20
80.7279
 30
0.0
 40
1
 41
1
  0
VERTEX
  8
0
 10
30.2474
 20
84.6524
 30
0.0
 40
1
 41
1
  0
VERTEX
  8
0
 10
30.6133
 20
82.8128
 30
0.0
 40
1
 41
1
  0
VERTEX
  8
0
 10
31.5383
 20
80.0878
 30
0.0
 40
1
 41
1
  0
SEQEND
 8
0
  0
POLYLINE
  8
0
 62
     0
 66
     1
 10
0
 20
0
 30
0.0
 70
     1
 40
72
 41
72
  0
VERTEX
  8
0
 10
247.356
 20
163.883
 30
0.0
 40
1
 41
1
  0
VERTEX
  8
0
 10
247.356
 20
141.883
 30
0.0
 40
1
 41
1
  0
VERTEX
  8
0
 10
247.713
 20
139.165
 30
0.0
 40
1
 41
1
  0
VERTEX
  8
0
 10
247.787
 20
138.688
 30
0.0
 40
1
 41
1
  0
VERTEX
  8
0
 10
248.894
 20
136.181
 30
0.0
 40
1
 41
1
  0
VERTEX
  8
0
 10
250.612
 20
134.046
 30
0.0
 40
1
 41
1
  0
VERTEX
  8
0
 10
252.825
 20
132.429
 30
0.0
 40
1
 41
1
  0
VERTEX
  8
0
 10
255.381
 20
131.44
 30
0.0
 40
1
 41
1
  0
VERTEX
  8
0
 10
258.104
 20
131.145
 30
0.0
 40
1
 41
1
  0
VERTEX
  8
0
 10
260.813
 20
131.566
 30
0.0
 40
1
 41
1
  0
VERTEX
  8
0
 10
263.319
 20
132.673
 30
0.0
 40
1
 41
1
  0
VERTEX
  8
0
 10
265.454
 20
134.391
 30
0.0
 40
1
 41
1
  0
VERTEX
  8
0
 10
267.071
 20
136.603
 30
0.0
 40
1
 41
1
  0
VERTEX
  8
0
 10
268.061
 20
139.158
 30
0.0
 40
1
 41
1
  0
VERTEX
  8
0
 10
268.356
 20
141.883
 30
0.0
 40
1
 41
1
  0
VERTEX
  8
0
 10
268.356
 20
163.883
 30
0.0
 40
1
 41
1
  0
VERTEX
  8
0
 10
268.381
 20
164.275
 30
0.0
 40
1
 41
1
  0
VERTEX
  8
0
 10
268.457
 20
164.66
 30
0.0
 40
1
 41
1
  0
VERTEX
  8
0
 10
268.583
 20
165.032
 30
0.0
 40
1
 41
1
  0
VERTEX
  8
0
 10
268.757
 20
165.383
 30
0.0
 40
1
 41
1
  0
VERTEX
  8
0
 10
268.975
 20
165.71
 30
0.0
 40
1
 41
1
  0
VERTEX
  8
0
 10
269.233
 20
166.004
 30
0.0
 40
1
 41
1
  0
VERTEX
  8
0
 10
269.529
 20
166.264
 30
0.0
 40
1
 41
1
  0
VERTEX
  8
0
 10
269.856
 20
166.482
 30
0.0
 40
1
 41
1
  0
VERTEX
  8
0
 10
270.207
 20
166.656
 30
0.0
 40
1
 41
1
  0
VERTEX
  8
0
 10
270.579
 20
166.781
 30
0.0
 40
1
 41
1
  0
VERTEX
  8
0
 10
270.964
 20
166.857
 30
0.0
 40
1
 41
1
  0
VERTEX
  8
0
 10
271.356
 20
166.883
 30
0.0
 40
1
 41
1
  0
VERTEX
  8
0
 10
354.41
 20
166.883
 30
0.0
 40
1
 41
1
  0
VERTEX
  8
0
 10
362.999
 20
166.618
 30
0.0
 40
1
 41
1
  0
VERTEX
  8
0
 10
371.554
 20
165.824
 30
0.0
 40
1
 41
1
  0
VERTEX
  8
0
 10
380.046
 20
164.501
 30
0.0
 40
1
 41
1
  0
VERTEX
  8
0
 10
388.438
 20
162.658
 30
0.0
 40
1
 41
1
  0
VERTEX
  8
0
 10
396.701
 20
160.301
 30
0.0
 40
1
 41
1
  0
VERTEX
  8
0
 10
404.803
 20
157.438
 30
0.0
 40
1
 41
1
  0
VERTEX
  8
0
 10
412.713
 20
154.081
 30
0.0
 40
1
 41
1
  0
VERTEX
  8
0
 10
420.4
 20
150.24
 30
0.0
 40
1
 41
1
  0
VERTEX
  8
0
 10
427.836
 20
145.933
 30
0.0
 40
1
 41
1
  0
VERTEX
  8
0
 10
434.992
 20
141.176
 30
0.0
 40
1
 41
1
  0
VERTEX
  8
0
 10
441.84
 20
135.986
 30
0.0
 40
1
 41
1
  0
VERTEX
  8
0
 10
448.356
 20
130.383
 30
0.0
 40
1
 41
1
  0
VERTEX
  8
0
 10
448.356
 20
96.8832
 30
0.0
 40
1
 41
1
  0
VERTEX
  8
0
 10
418.356
 20
96.8832
 30
0.0
 40
1
 41
1
  0
VERTEX
  8
0
 10
418.356
 20
100.883
 30
0.0
 40
1
 41
1
  0
VERTEX
  8
0
 10
416.183
 20
102.908
 30
0.0
 40
1
 41
1
  0
VERTEX
  8
0
 10
413.947
 20
104.863
 30
0.0
 40
1
 41
1
  0
VERTEX
  8
0
 10
411.65
 20
106.745
 30
0.0
 40
1
 41
1
  0
VERTEX
  8
0
 10
409.294
 20
108.553
 30
0.0
 40
1
 41
1
  0
VERTEX
  8
0
 10
406.882
 20
110.285
 30
0.0
 40
1
 41
1
  0
VERTEX
  8
0
 10
404.417
 20
111.939
 30
0.0
 40
1
 41
1
  0
VERTEX
  8
0
 10
401.899
 20
113.514
 30
0.0
 40
1
 41
1
  0
VERTEX
  8
0
 10
399.331
 20
115.007
 30
0.0
 40
1
 41
1
  0
VERTEX
  8
0
 10
396.718
 20
116.417
 30
0.0
 40
1
 41
1
  0
VERTEX
  8
0
 10
394.061
 20
117.744
 30
0.0
 40
1
 41
1
  0
VERTEX
  8
0
 10
391.362
 20
118.985
 30
0.0
 40
1
 41
1
  0
VERTEX
  8
0
 10
388.626
 20
120.139
 30
0.0
 40
1
 41
1
  0
VERTEX
  8
0
 10
385.856
 20
121.205
 30
0.0
 40
1
 41
1
  0
VERTEX
  8
0
 10
383.051
 20
122.182
 30
0.0
 40
1
 41
1
  0
VERTEX
  8
0
 10
380.217
 20
123.069
 30
0.0
 40
1
 41
1
  0
VERTEX
  8
0
 10
377.356
 20
123.865
 30
0.0
 40
1
 41
1
  0
VERTEX
  8
0
 10
374.471
 20
124.57
 30
0.0
 40
1
 41
1
  0
VERTEX
  8
0
 10
371.565
 20
125.182
 30
0.0
 40
1
 41
1
  0
VERTEX
  8
0
 10
368.642
 20
125.7
 30
0.0
 40
1
 41
1
  0
VERTEX
  8
0
 10
365.701
 20
126.126
 30
0.0
 40
1
 41
1
  0
VERTEX
  8
0
 10
362.751
 20
126.457
 30
0.0
 40
1
 41
1
  0
VERTEX
  8
0
 10
359.79
 20
126.694
 30
0.0
 40
1
 41
1
  0
VERTEX
  8
0
 10
356.825
 20
126.836
 30
0.0
 40
1
 41
1
  0
VERTEX
  8
0
 10
353.856
 20
126.883
 30
0.0
 40
1
 41
1
  0
VERTEX
  8
0
 10
349.808
 20
126.618
 30
0.0
 40
1
 41
1
  0
VERTEX
  8
0
 10
345.832
 20
125.827
 30
0.0
 40
1
 41
1
  0
VERTEX
  8
0
 10
341.992
 20
124.524
 30
0.0
 40
1
 41
1
  0
VERTEX
  8
0
 10
338.356
 20
122.73
 30
0.0
 40
1
 41
1
  0
VERTEX
  8
0
 10
334.983
 20
120.477
 30
0.0
 40
1
 41
1
  0
VERTEX
  8
0
 10
331.935
 20
117.804
 30
0.0
 40
1
 41
1
  0
VERTEX
  8
0
 10
329.261
 20
114.755
 30
0.0
 40
1
 41
1
  0
VERTEX
  8
0
 10
327.008
 20
111.383
 30
0.0
 40
1
 41
1
  0
VERTEX
  8
0
 10
325.215
 20
107.746
 30
0.0
 40
1
 41
1
  0
VERTEX
  8
0
 10
323.911
 20
103.907
 30
0.0
 40
1
 41
1
  0
VERTEX
  8
0
 10
323.121
 20
99.9296
 30
0.0
 40
1
 41
1
  0
VERTEX
  8
0
 10
322.921
 20
96.8832
 30
0.0
 40
1
 41
1
  0
VERTEX
  8
0
 10
242.711
 20
96.8832
 30
0.0
 40
1
 41
1
  0
VERTEX
  8
0
 10
238.64
 20
97.7815
 30
0.0
 40
1
 41
1
  0
VERTEX
  8
0
 10
234.701
 20
99.1518
 30
0.0
 40
1
 41
1
  0
VERTEX
  8
0
 10
230.953
 20
100.975
 30
0.0
 40
1
 41
1
  0
VERTEX
  8
0
 10
227.443
 20
103.226
 30
0.0
 40
1
 41
1
  0
VERTEX
  8
0
 10
224.221
 20
105.873
 30
0.0
 40
1
 41
1
  0
VERTEX
  8
0
 10
221.333
 20
108.881
 30
0.0
 40
1
 41
1
  0
VERTEX
  8
0
 10
218.818
 20
112.207
 30
0.0
 40
1
 41
1
  0
VERTEX
  8
0
 10
216.711
 20
115.805
 30
0.0
 40
1
 41
1
  0
VERTEX
  8
0
 10
215.042
 20
119.626
 30
0.0
 40
1
 41
1
  0
VERTEX
  8
0
 10
213.833
 20
123.616
 30
0.0
 40
1
 41
1
  0
VERTEX
  8
0
 10
213.1
 20
127.721
 30
0.0
 40
1
 41
1
  0
VERTEX
  8
0
 10
212.856
 20
131.883
 30
0.0
 40
1
 41
1
  0
VERTEX
  8
0
 10
212.856
 20
163.883
 30
0.0
 40
1
 41
1
  0
VERTEX
  8
0
 10
212.957
 20
164.66
 30
0.0
 40
1
 41
1
  0
VERTEX
  8
0
 10
213.257
 20
165.383
 30
0.0
 40
1
 41
1
  0
VERTEX
  8
0
 10
213.733
 20
166.004
 30
0.0
 40
1
 41
1
  0
VERTEX
  8
0
 10
214.356
 20
166.482
 30
0.0
 40
1
 41
1
  0
VERTEX
  8
0
 10
215.079
 20
166.781
 30
0.0
 40
1
 41
1
  0
VERTEX
  8
0
 10
215.856
 20
166.883
 30
0.0
 40
1
 41
1
  0
VERTEX
  8
0
 10
244.356
 20
166.883
 30
0.0
 40
1
 41
1
  0
VERTEX
  8
0
 10
244.747
 20
166.857
 30
0.0
 40
1
 41
1
  0
VERTEX
  8
0
 10
245.132
 20
166.781
 30
0.0
 40
1
 41
1
  0
VERTEX
  8
0
 10
245.503
 20
166.656
 30
0.0
 40
1
 41
1
  0
VERTEX
  8
0
 10
245.856
 20
166.482
 30
0.0
 40
1
 41
1
  0
VERTEX
  8
0
 10
246.182
 20
166.264
 30
0.0
 40
1
 41
1
  0
VERTEX
  8
0
 10
246.476
 20
166.004
 30
0.0
 40
1
 41
1
  0
VERTEX
  8
0
 10
246.735
 20
165.71
 30
0.0
 40
1
 41
1
  0
VERTEX
  8
0
 10
246.953
 20
165.383
 30
0.0
 40
1
 41
1
  0
VERTEX
  8
0
 10
247.126
 20
165.032
 30
0.0
 40
1
 41
1
  0
VERTEX
  8
0
 10
247.253
 20
164.66
 30
0.0
 40
1
 41
1
  0
VERTEX
  8
0
 10
247.329
 20
164.275
 30
0.0
 40
1
 41
1
  0
VERTEX
  8
0
 10
247.356
 20
163.883
 30
0.0
 40
1
 41
1
  0
SEQEND
 8
0
  0
POLYLINE
  8
0
 62
     0
 66
     1
 10
0
 20
0
 30
0.0
 40
72
 41
72
  0
VERTEX
  8
0
 10
317.528
 20
49.2222
 30
0.0
 40
1
 41
1
  0
VERTEX
  8
0
 10
297.582
 20
49.2222
 30
0.0
 40
1
 41
1
  0
VERTEX
  8
0
 10
297.582
 20
79.2222
 30
0.0
 40
1
 41
1
  0
VERTEX
  8
0
 10
317.582
 20
79.2222
 30
0.0
 40
1
 41
1
  0
VERTEX
  8
0
 10
318.083
 20
80.8758
 30
0.0
 40
1
 41
1
  0
VERTEX
  8
0
 10
318.635
 20
82.5129
 30
0.0
 40
1
 41
1
  0
VERTEX
  8
0
 10
319.239
 20
84.1319
 30
0.0
 40
1
 41
1
  0
VERTEX
  8
0
 10
319.893
 20
85.7311
 30
0.0
 40
1
 41
1
  0
VERTEX
  8
0
 10
320.597
 20
87.309
 30
0.0
 40
1
 41
1
  0
VERTEX
  8
0
 10
321.35
 20
88.864
 30
0.0
 40
1
 41
1
  0
VERTEX
  8
0
 10
322.151
 20
90.3946
 30
0.0
 40
1
 41
1
  0
VERTEX
  8
0
 10
323.001
 20
91.8993
 30
0.0
 40
1
 41
1
  0
VERTEX
  8
0
 10
323.897
 20
93.3765
 30
0.0
 40
1
 41
1
  0
VERTEX
  8
0
 10
324.839
 20
94.8247
 30
0.0
 40
1
 41
1
  0
VERTEX
  8
0
 10
325.826
 20
96.2428
 30
0.0
 40
1
 41
1
  0
VERTEX
  8
0
 10
326.858
 20
97.629
 30
0.0
 40
1
 41
1
  0
VERTEX
  8
0
 10
327.932
 20
98.9824
 30
0.0
 40
1
 41
1
  0
VERTEX
  8
0
 10
329.049
 20
100.301
 30
0.0
 40
1
 41
1
  0
VERTEX
  8
0
 10
330.206
 20
101.584
 30
0.0
 40
1
 41
1
  0
VERTEX
  8
0
 10
331.403
 20
102.83
 30
0.0
 40
1
 41
1
  0
VERTEX
  8
0
 10
332.638
 20
104.038
 30
0.0
 40
1
 41
1
  0
VERTEX
  8
0
 10
333.911
 20
105.207
 30
0.0
 40
1
 41
1
  0
VERTEX
  8
0
 10
335.219
 20
106.335
 30
0.0
 40
1
 41
1
  0
VERTEX
  8
0
 10
336.563
 20
107.421
 30
0.0
 40
1
 41
1
  0
VERTEX
  8
0
 10
337.94
 20
108.465
 30
0.0
 40
1
 41
1
  0
VERTEX
  8
0
 10
339.349
 20
109.464
 30
0.0
 40
1
 41
1
  0
VERTEX
  8
0
 10
340.789
 20
110.419
 30
0.0
 40
1
 41
1
  0
VERTEX
  8
0
 10
342.258
 20
111.329
 30
0.0
 40
1
 41
1
  0
VERTEX
  8
0
 10
343.756
 20
112.192
 30
0.0
 40
1
 41
1
  0
VERTEX
  8
0
 10
345.279
 20
113.007
 30
0.0
 40
1
 41
1
  0
VERTEX
  8
0
 10
346.826
 20
113.774
 30
0.0
 40
1
 41
1
  0
VERTEX
  8
0
 10
348.399
 20
114.492
 30
0.0
 40
1
 41
1
  0
VERTEX
  8
0
 10
349.992
 20
115.16
 30
0.0
 40
1
 41
1
  0
VERTEX
  8
0
 10
351.606
 20
115.778
 30
0.0
 40
1
 41
1
  0
VERTEX
  8
0
 10
353.237
 20
116.345
 30
0.0
 40
1
 41
1
  0
VERTEX
  8
0
 10
354.886
 20
116.86
 30
0.0
 40
1
 41
1
  0
VERTEX
  8
0
 10
356.551
 20
117.324
 30
0.0
 40
1
 41
1
  0
VERTEX
  8
0
 10
358.229
 20
117.735
 30
0.0
 40
1
 41
1
  0
VERTEX
  8
0
 10
359.919
 20
118.093
 30
0.0
 40
1
 41
1
  0
VERTEX
  8
0
 10
361.621
 20
118.397
 30
0.0
 40
1
 41
1
  0
VERTEX
  8
0
 10
363.329
 20
118.648
 30
0.0
 40
1
 41
1
  0
VERTEX
  8
0
 10
365.046
 20
118.846
 30
0.0
 40
1
 41
1
  0
VERTEX
  8
0
 10
366.768
 20
118.989
 30
0.0
 40
1
 41
1
  0
VERTEX
  8
0
 10
368.493
 20
119.078
 30
0.0
 40
1
 41
1
  0
VERTEX
  8
0
 10
370.221
 20
119.113
 30
0.0
 40
1
 41
1
  0
VERTEX
  8
0
 10
371.949
 20
119.093
 30
0.0
 40
1
 41
1
  0
VERTEX
  8
0
 10
373.675
 20
119.02
 30
0.0
 40
1
 41
1
  0
VERTEX
  8
0
 10
375.399
 20
118.892
 30
0.0
 40
1
 41
1
  0
VERTEX
  8
0
 10
377.117
 20
118.71
 30
0.0
 40
1
 41
1
  0
VERTEX
  8
0
 10
378.828
 20
118.474
 30
0.0
 40
1
 41
1
  0
VERTEX
  8
0
 10
380.531
 20
118.184
 30
0.0
 40
1
 41
1
  0
VERTEX
  8
0
 10
382.225
 20
117.842
 30
0.0
 40
1
 41
1
  0
VERTEX
  8
0
 10
383.907
 20
117.446
 30
0.0
 40
1
 41
1
  0
VERTEX
  8
0
 10
385.575
 20
116.997
 30
0.0
 40
1
 41
1
  0
VERTEX
  8
0
 10
387.229
 20
116.497
 30
0.0
 40
1
 41
1
  0
VERTEX
  8
0
 10
388.865
 20
115.944
 30
0.0
 40
1
 41
1
  0
VERTEX
  8
0
 10
390.485
 20
115.341
 30
0.0
 40
1
 41
1
  0
VERTEX
  8
0
 10
392.085
 20
114.687
 30
0.0
 40
1
 41
1
  0
VERTEX
  8
0
 10
393.662
 20
113.983
 30
0.0
 40
1
 41
1
  0
VERTEX
  8
0
 10
395.217
 20
113.229
 30
0.0
 40
1
 41
1
  0
VERTEX
  8
0
 10
396.747
 20
112.428
 30
0.0
 40
1
 41
1
  0
VERTEX
  8
0
 10
398.253
 20
111.578
 30
0.0
 40
1
 41
1
  0
VERTEX
  8
0
 10
399.729
 20
110.682
 30
0.0
 40
1
 41
1
  0
VERTEX
  8
0
 10
401.178
 20
109.74
 30
0.0
 40
1
 41
1
  0
VERTEX
  8
0
 10
402.596
 20
108.753
 30
0.0
 40
1
 41
1
  0
VERTEX
  8
0
 10
403.982
 20
107.722
 30
0.0
 40
1
 41
1
  0
VERTEX
  8
0
 10
405.335
 20
106.647
 30
0.0
 40
1
 41
1
  0
VERTEX
  8
0
 10
406.654
 20
105.531
 30
0.0
 40
1
 41
1
  0
VERTEX
  8
0
 10
407.938
 20
104.374
 30
0.0
 40
1
 41
1
  0
VERTEX
  8
0
 10
409.183
 20
103.177
 30
0.0
 40
1
 41
1
  0
VERTEX
  8
0
 10
410.392
 20
101.942
 30
0.0
 40
1
 41
1
  0
VERTEX
  8
0
 10
411.56
 20
100.669
 30
0.0
 40
1
 41
1
  0
VERTEX
  8
0
 10
412.688
 20
99.36
 30
0.0
 40
1
 41
1
  0
VERTEX
  8
0
 10
413.774
 20
98.0164
 30
0.0
 40
1
 41
1
  0
VERTEX
  8
0
 10
414.818
 20
96.6394
 30
0.0
 40
1
 41
1
  0
VERTEX
  8
0
 10
415.817
 20
95.2301
 30
0.0
 40
1
 41
1
  0
VERTEX
  8
0
 10
416.772
 20
93.7903
 30
0.0
 40
1
 41
1
  0
VERTEX
  8
0
 10
417.682
 20
92.3212
 30
0.0
 40
1
 41
1
  0
VERTEX
  8
0
 10
418.544
 20
90.8242
 30
0.0
 40
1
 41
1
  0
VERTEX
  8
0
 10
419.36
 20
89.3008
 30
0.0
 40
1
 41
1
  0
VERTEX
  8
0
 10
420.126
 20
87.7526
 30
0.0
 40
1
 41
1
  0
VERTEX
  8
0
 10
420.844
 20
86.1811
 30
0.0
 40
1
 41
1
  0
VERTEX
  8
0
 10
421.513
 20
84.5878
 30
0.0
 40
1
 41
1
  0
VERTEX
  8
0
 10
422.131
 20
82.9742
 30
0.0
 40
1
 41
1
  0
VERTEX
  8
0
 10
422.699
 20
81.3421
 30
0.0
 40
1
 41
1
  0
VERTEX
  8
0
 10
423.214
 20
79.6929
 30
0.0
 40
1
 41
1
  0
VERTEX
  8
0
 10
443.214
 20
79.6929
 30
0.0
 40
1
 41
1
  0
VERTEX
  8
0
 10
443.214
 20
49.6929
 30
0.0
 40
1
 41
1
  0
VERTEX
  8
0
 10
423.535
 20
49.6929
 30
0.0
 40
1
 41
1
  0
SEQEND
 8
0
  0
POLYLINE
  8
0
 62
     0
 66
     1
 10
0
 20
0
 30
0.0
 70
     1
 40
72
 41
72
  0
VERTEX
  8
0
 10
389.392
 20
23.2865
 30
0.0
 40
1
 41
1
  0
VERTEX
  8
0
 10
391.085
 20
24.1147
 30
0.0
 40
1
 41
1
  0
VERTEX
  8
0
 10
392.742
 20
25.0133
 30
0.0
 40
1
 41
1
  0
VERTEX
  8
0
 10
394.36
 20
25.9804
 30
0.0
 40
1
 41
1
  0
VERTEX
  8
0
 10
395.935
 20
27.0144
 30
0.0
 40
1
 41
1
  0
VERTEX
  8
0
 10
397.467
 20
28.1135
 30
0.0
 40
1
 41
1
  0
VERTEX
  8
0
 10
398.95
 20
29.2757
 30
0.0
 40
1
 41
1
  0
VERTEX
  8
0
 10
400.385
 20
30.499
 30
0.0
 40
1
 41
1
  0
VERTEX
  8
0
 10
401.765
 20
31.7814
 30
0.0
 40
1
 41
1
  0
VERTEX
  8
0
 10
403.092
 20
33.1204
 30
0.0
 40
1
 41
1
  0
VERTEX
  8
0
 10
404.361
 20
34.5138
 30
0.0
 40
1
 41
1
  0
VERTEX
  8
0
 10
405.571
 20
35.9592
 30
0.0
 40
1
 41
1
  0
VERTEX
  8
0
 10
406.719
 20
37.4539
 30
0.0
 40
1
 41
1
  0
VERTEX
  8
0
 10
407.804
 20
38.9954
 30
0.0
 40
1
 41
1
  0
VERTEX
  8
0
 10
408.822
 20
40.581
 30
0.0
 40
1
 41
1
  0
VERTEX
  8
0
 10
409.775
 20
42.2078
 30
0.0
 40
1
 41
1
  0
VERTEX
  8
0
 10
410.657
 20
43.8731
 30
0.0
 40
1
 41
1
  0
VERTEX
  8
0
 10
411.469
 20
45.5739
 30
0.0
 40
1
 41
1
  0
VERTEX
  8
0
 10
412.21
 20
47.3072
 30
0.0
 40
1
 41
1
  0
VERTEX
  8
0
 10
412.878
 20
49.07
 30
0.0
 40
1
 41
1
  0
VERTEX
  8
0
 10
413.469
 20
50.8592
 30
0.0
 40
1
 41
1
  0
VERTEX
  8
0
 10
413.987
 20
52.6717
 30
0.0
 40
1
 41
1
  0
VERTEX
  8
0
 10
414.428
 20
54.5042
 30
0.0
 40
1
 41
1
  0
VERTEX
  8
0
 10
414.792
 20
56.3535
 30
0.0
 40
1
 41
1
  0
VERTEX
  8
0
 10
415.078
 20
58.2165
 30
0.0
 40
1
 41
1
  0
VERTEX
  8
0
 10
415.286
 20
60.0897
 30
0.0
 40
1
 41
1
  0
VERTEX
  8
0
 10
415.415
 20
61.9701
 30
0.0
 40
1
 41
1
  0
VERTEX
  8
0
 10
415.465
 20
63.8543
 30
0.0
 40
1
 41
1
  0
VERTEX
  8
0
 10
415.436
 20
65.7389
 30
0.0
 40
1
 41
1
  0
VERTEX
  8
0
 10
415.329
 20
67.6207
 30
0.0
 40
1
 41
1
  0
VERTEX
  8
0
 10
415.143
 20
69.4963
 30
0.0
 40
1
 41
1
  0
VERTEX
  8
0
 10
414.878
 20
71.3624
 30
0.0
 40
1
 41
1
  0
VERTEX
  8
0
 10
414.536
 20
73.2158
 30
0.0
 40
1
 41
1
  0
VERTEX
  8
0
 10
414.117
 20
75.0533
 30
0.0
 40
1
 41
1
  0
VERTEX
  8
0
 10
413.619
 20
76.8715
 30
0.0
 40
1
 41
1
  0
VERTEX
  8
0
 10
413.047
 20
78.6675
 30
0.0
 40
1
 41
1
  0
VERTEX
  8
0
 10
412.4
 20
80.4378
 30
0.0
 40
1
 41
1
  0
VERTEX
  8
0
 10
411.681
 20
82.1796
 30
0.0
 40
1
 41
1
  0
VERTEX
  8
0
 10
410.888
 20
83.8896
 30
0.0
 40
1
 41
1
  0
VERTEX
  8
0
 10
410.024
 20
85.5649
 30
0.0
 40
1
 41
1
  0
VERTEX
  8
0
 10
409.09
 20
87.2026
 30
0.0
 40
1
 41
1
  0
VERTEX
  8
0
 10
408.09
 20
88.7999
 30
0.0
 40
1
 41
1
  0
VERTEX
  8
0
 10
407.024
 20
90.3536
 30
0.0
 40
1
 41
1
  0
VERTEX
  8
0
 10
405.893
 20
91.8615
 30
0.0
 40
1
 41
1
  0
VERTEX
  8
0
 10
404.7
 20
93.3207
 30
0.0
 40
1
 41
1
  0
VERTEX
  8
0
 10
403.446
 20
94.7286
 30
0.0
 40
1
 41
1
  0
VERTEX
  8
0
 10
402.135
 20
96.0828
 30
0.0
 40
1
 41
1
  0
VERTEX
  8
0
 10
400.769
 20
97.381
 30
0.0
 40
1
 41
1
  0
VERTEX
  8
0
 10
399.349
 20
98.6207
 30
0.0
 40
1
 41
1
  0
VERTEX
  8
0
 10
397.879
 20
99.7999
 30
0.0
 40
1
 41
1
  0
VERTEX
  8
0
 10
396.36
 20
100.917
 30
0.0
 40
1
 41
1
  0
VERTEX
  8
0
 10
394.796
 20
101.969
 30
0.0
 40
1
 41
1
  0
VERTEX
  8
0
 10
393.19
 20
102.954
 30
0.0
 40
1
 41
1
  0
VERTEX
  8
0
 10
391.543
 20
103.872
 30
0.0
 40
1
 41
1
  0
VERTEX
  8
0
 10
389.86
 20
104.719
 30
0.0
 40
1
 41
1
  0
VERTEX
  8
0
 10
388.143
 20
105.496
 30
0.0
 40
1
 41
1
  0
VERTEX
  8
0
 10
386.394
 20
106.2
 30
0.0
 40
1
 41
1
  0
VERTEX
  8
0
 10
384.618
 20
106.83
 30
0.0
 40
1
 41
1
  0
VERTEX
  8
0
 10
382.817
 20
107.385
 30
0.0
 40
1
 41
1
  0
VERTEX
  8
0
 10
380.994
 20
107.864
 30
0.0
 40
1
 41
1
  0
VERTEX
  8
0
 10
379.153
 20
108.267
 30
0.0
 40
1
 41
1
  0
VERTEX
  8
0
 10
377.296
 20
108.592
 30
0.0
 40
1
 41
1
  0
VERTEX
  8
0
 10
375.428
 20
108.839
 30
0.0
 40
1
 41
1
  0
VERTEX
  8
0
 10
373.55
 20
109.007
 30
0.0
 40
1
 41
1
  0
VERTEX
  8
0
 10
371.667
 20
109.097
 30
0.0
 40
1
 41
1
  0
VERTEX
  8
0
 10
369.782
 20
109.108
 30
0.0
 40
1
 41
1
  0
VERTEX
  8
0
 10
367.899
 20
109.04
 30
0.0
 40
1
 41
1
  0
VERTEX
  8
0
 10
366.019
 20
108.893
 30
0.0
 40
1
 41
1
  0
VERTEX
  8
0
 10
364.149
 20
108.668
 30
0.0
 40
1
 41
1
  0
VERTEX
  8
0
 10
362.289
 20
108.364
 30
0.0
 40
1
 41
1
  0
VERTEX
  8
0
 10
360.443
 20
107.983
 30
0.0
 40
1
 41
1
  0
VERTEX
  8
0
 10
358.614
 20
107.524
 30
0.0
 40
1
 41
1
  0
VERTEX
  8
0
 10
356.807
 20
106.99
 30
0.0
 40
1
 41
1
  0
VERTEX
  8
0
 10
355.024
 20
106.38
 30
0.0
 40
1
 41
1
  0
VERTEX
  8
0
 10
353.267
 20
105.697
 30
0.0
 40
1
 41
1
  0
VERTEX
  8
0
 10
351.54
 20
104.94
 30
0.0
 40
1
 41
1
  0
VERTEX
  8
0
 10
349.847
 20
104.112
 30
0.0
 40
1
 41
1
  0
VERTEX
  8
0
 10
348.19
 20
103.213
 30
0.0
 40
1
 41
1
  0
VERTEX
  8
0
 10
346.572
 20
102.246
 30
0.0
 40
1
 41
1
  0
VERTEX
  8
0
 10
344.997
 20
101.212
 30
0.0
 40
1
 41
1
  0
VERTEX
  8
0
 10
343.465
 20
100.113
 30
0.0
 40
1
 41
1
  0
VERTEX
  8
0
 10
341.982
 20
98.9507
 30
0.0
 40
1
 41
1
  0
VERTEX
  8
0
 10
340.549
 20
97.7274
 30
0.0
 40
1
 41
1
  0
VERTEX
  8
0
 10
339.167
 20
96.445
 30
0.0
 40
1
 41
1
  0
VERTEX
  8
0
 10
337.84
 20
95.106
 30
0.0
 40
1
 41
1
  0
VERTEX
  8
0
 10
336.571
 20
93.7126
 30
0.0
 40
1
 41
1
  0
VERTEX
  8
0
 10
335.361
 20
92.2672
 30
0.0
 40
1
 41
1
  0
VERTEX
  8
0
 10
334.213
 20
90.7725
 30
0.0
 40
1
 41
1
  0
VERTEX
  8
0
 10
333.129
 20
89.231
 30
0.0
 40
1
 41
1
  0
VERTEX
  8
0
 10
332.11
 20
87.6454
 30
0.0
 40
1
 41
1
  0
VERTEX
  8
0
 10
331.158
 20
86.0186
 30
0.0
 40
1
 41
1
  0
VERTEX
  8
0
 10
330.275
 20
84.3533
 30
0.0
 40
1
 41
1
  0
VERTEX
  8
0
 10
329.463
 20
82.6525
 30
0.0
 40
1
 41
1
  0
VERTEX
  8
0
 10
328.722
 20
80.9192
 30
0.0
 40
1
 41
1
  0
VERTEX
  8
0
 10
328.056
 20
79.1564
 30
0.0
 40
1
 41
1
  0
VERTEX
  8
0
 10
327.463
 20
77.3672
 30
0.0
 40
1
 41
1
  0
VERTEX
  8
0
 10
326.944
 20
75.5549
 30
0.0
 40
1
 41
1
  0
VERTEX
  8
0
 10
326.504
 20
73.7222
 30
0.0
 40
1
 41
1
  0
VERTEX
  8
0
 10
326.14
 20
71.8729
 30
0.0
 40
1
 41
1
  0
VERTEX
  8
0
 10
325.854
 20
70.0099
 30
0.0
 40
1
 41
1
  0
VERTEX
  8
0
 10
325.646
 20
68.1367
 30
0.0
 40
1
 41
1
  0
VERTEX
  8
0
 10
325.517
 20
66.2563
 30
0.0
 40
1
 41
1
  0
VERTEX
  8
0
 10
325.467
 20
64.3721
 30
0.0
 40
1
 41
1
  0
VERTEX
  8
0
 10
325.496
 20
62.4875
 30
0.0
 40
1
 41
1
  0
VERTEX
  8
0
 10
325.603
 20
60.6057
 30
0.0
 40
1
 41
1
  0
VERTEX
  8
0
 10
325.789
 20
58.7301
 30
0.0
 40
1
 41
1
  0
VERTEX
  8
0
 10
326.054
 20
56.864
 30
0.0
 40
1
 41
1
  0
VERTEX
  8
0
 10
326.396
 20
55.0106
 30
0.0
 40
1
 41
1
  0
VERTEX
  8
0
 10
326.817
 20
53.1731
 30
0.0
 40
1
 41
1
  0
VERTEX
  8
0
 10
327.313
 20
51.3549
 30
0.0
 40
1
 41
1
  0
VERTEX
  8
0
 10
327.885
 20
49.5589
 30
0.0
 40
1
 41
1
  0
VERTEX
  8
0
 10
328.532
 20
47.7886
 30
0.0
 40
1
 41
1
  0
VERTEX
  8
0
 10
329.251
 20
46.0468
 30
0.0
 40
1
 41
1
  0
VERTEX
  8
0
 10
330.044
 20
44.3368
 30
0.0
 40
1
 41
1
  0
VERTEX
  8
0
 10
330.908
 20
42.6615
 30
0.0
 40
1
 41
1
  0
VERTEX
  8
0
 10
331.842
 20
41.0237
 30
0.0
 40
1
 41
1
  0
VERTEX
  8
0
 10
332.842
 20
39.4265
 30
0.0
 40
1
 41
1
  0
VERTEX
  8
0
 10
333.908
 20
37.8728
 30
0.0
 40
1
 41
1
  0
VERTEX
  8
0
 10
335.04
 20
36.3649
 30
0.0
 40
1
 41
1
  0
VERTEX
  8
0
 10
336.233
 20
34.9057
 30
0.0
 40
1
 41
1
  0
VERTEX
  8
0
 10
337.486
 20
33.4978
 30
0.0
 40
1
 41
1
  0
VERTEX
  8
0
 10
338.797
 20
32.1436
 30
0.0
 40
1
 41
1
  0
VERTEX
  8
0
 10
340.164
 20
30.8454
 30
0.0
 40
1
 41
1
  0
VERTEX
  8
0
 10
341.583
 20
29.6057
 30
0.0
 40
1
 41
1
  0
VERTEX
  8
0
 10
343.053
 20
28.4265
 30
0.0
 40
1
 41
1
  0
VERTEX
  8
0
 10
344.572
 20
27.3099
 30
0.0
 40
1
 41
1
  0
VERTEX
  8
0
 10
346.136
 20
26.2578
 30
0.0
 40
1
 41
1
  0
VERTEX
  8
0
 10
347.742
 20
25.2721
 30
0.0
 40
1
 41
1
  0
VERTEX
  8
0
 10
349.389
 20
24.3547
 30
0.0
 40
1
 41
1
  0
VERTEX
  8
0
 10
351.072
 20
23.5069
 30
0.0
 40
1
 41
1
  0
VERTEX
  8
0
 10
352.789
 20
22.7304
 30
0.0
 40
1
 41
1
  0
VERTEX
  8
0
 10
354.537
 20
22.0264
 30
0.0
 40
1
 41
1
  0
VERTEX
  8
0
 10
356.314
 20
21.3964
 30
0.0
 40
1
 41
1
  0
VERTEX
  8
0
 10
358.115
 20
20.8412
 30
0.0
 40
1
 41
1
  0
VERTEX
  8
0
 10
359.939
 20
20.3619
 30
0.0
 40
1
 41
1
  0
VERTEX
  8
0
 10
361.779
 20
19.9596
 30
0.0
 40
1
 41
1
  0
VERTEX
  8
0
 10
363.636
 20
19.6344
 30
0.0
 40
1
 41
1
  0
VERTEX
  8
0
 10
365.506
 20
19.3875
 30
0.0
 40
1
 41
1
  0
VERTEX
  8
0
 10
367.382
 20
19.219
 30
0.0
 40
1
 41
1
  0
VERTEX
  8
0
 10
369.265
 20
19.1292
 30
0.0
 40
1
 41
1
  0
VERTEX
  8
0
 10
371.15
 20
19.1183
 30
0.0
 40
1
 41
1
  0
VERTEX
  8
0
 10
373.033
 20
19.1865
 30
0.0
 40
1
 41
1
  0
VERTEX
  8
0
 10
374.912
 20
19.3333
 30
0.0
 40
1
 41
1
  0
VERTEX
  8
0
 10
376.783
 20
19.5589
 30
0.0
 40
1
 41
1
  0
VERTEX
  8
0
 10
378.644
 20
19.8625
 30
0.0
 40
1
 41
1
  0
VERTEX
  8
0
 10
380.49
 20
20.2438
 30
0.0
 40
1
 41
1
  0
VERTEX
  8
0
 10
382.318
 20
20.7019
 30
0.0
 40
1
 41
1
  0
VERTEX
  8
0
 10
384.125
 20
21.2364
 30
0.0
 40
1
 41
1
  0
VERTEX
  8
0
 10
385.908
 20
21.846
 30
0.0
 40
1
 41
1
  0
VERTEX
  8
0
 10
387.665
 20
22.5297
 30
0.0
 40
1
 41
1
  0
VERTEX
  8
0
 10
389.392
 20
23.2865
 30
0.0
 40
1
 41
1
  0
SEQEND
 8
0
  0
POLYLINE
  8
0
 62
     0
 66
     1
 10
0
 20
0
 30
0.0
 70
     1
 40
72
 41
72
  0
VERTEX
  8
0
 10
243.263
 20
227.385
 30
0.0
 40
1
 41
1
  0
VERTEX
  8
0
 10
242.896
 20
229.224
 30
0.0
 40
1
 41
1
  0
VERTEX
  8
0
 10
213.087
 20
225.3
 30
0.0
 40
1
 41
1
  0
VERTEX
  8
0
 10
218.299
 20
185.64
 30
0.0
 40
1
 41
1
  0
VERTEX
  8
0
 10
228.674
 20
183.272
 30
0.0
 40
1
 41
1
  0
VERTEX
  8
0
 10
239.09
 20
181.092
 30
0.0
 40
1
 41
1
  0
VERTEX
  8
0
 10
249.543
 20
179.096
 30
0.0
 40
1
 41
1
  0
VERTEX
  8
0
 10
260.031
 20
177.289
 30
0.0
 40
1
 41
1
  0
VERTEX
  8
0
 10
270.549
 20
175.669
 30
0.0
 40
1
 41
1
  0
VERTEX
  8
0
 10
281.094
 20
174.239
 30
0.0
 40
1
 41
1
  0
VERTEX
  8
0
 10
291.664
 20
172.997
 30
0.0
 40
1
 41
1
  0
VERTEX
  8
0
 10
302.254
 20
171.944
 30
0.0
 40
1
 41
1
  0
VERTEX
  8
0
 10
312.861
 20
171.081
 30
0.0
 40
1
 41
1
  0
VERTEX
  8
0
 10
323.482
 20
170.408
 30
0.0
 40
1
 41
1
  0
VERTEX
  8
0
 10
334.114
 20
169.926
 30
0.0
 40
1
 41
1
  0
VERTEX
  8
0
 10
344.751
 20
169.633
 30
0.0
 40
1
 41
1
  0
VERTEX
  8
0
 10
422.313
 20
169.633
 30
0.0
 40
1
 41
1
  0
VERTEX
  8
0
 10
422.704
 20
169.66
 30
0.0
 40
1
 41
1
  0
VERTEX
  8
0
 10
423.089
 20
169.736
 30
0.0
 40
1
 41
1
  0
VERTEX
  8
0
 10
423.46
 20
169.862
 30
0.0
 40
1
 41
1
  0
VERTEX
  8
0
 10
423.813
 20
170.036
 30
0.0
 40
1
 41
1
  0
VERTEX
  8
0
 10
424.139
 20
170.254
 30
0.0
 40
1
 41
1
  0
VERTEX
  8
0
 10
424.433
 20
170.513
 30
0.0
 40
1
 41
1
  0
VERTEX
  8
0
 10
424.692
 20
170.807
 30
0.0
 40
1
 41
1
  0
VERTEX
  8
0
 10
424.91
 20
171.133
 30
0.0
 40
1
 41
1
  0
VERTEX
  8
0
 10
425.083
 20
171.486
 30
0.0
 40
1
 41
1
  0
VERTEX
  8
0
 10
425.21
 20
171.857
 30
0.0
 40
1
 41
1
  0
VERTEX
  8
0
 10
425.286
 20
172.242
 30
0.0
 40
1
 41
1
  0
VERTEX
  8
0
 10
425.313
 20
172.633
 30
0.0
 40
1
 41
1
  0
VERTEX
  8
0
 10
425.313
 20
238.328
 30
0.0
 40
1
 41
1
  0
VERTEX
  8
0
 10
425.367
 20
238.811
 30
0.0
 40
1
 41
1
  0
VERTEX
  8
0
 10
425.357
 20
239.296
 30
0.0
 40
1
 41
1
  0
VERTEX
  8
0
 10
425.283
 20
239.776
 30
0.0
 40
1
 41
1
  0
VERTEX
  8
0
 10
425.149
 20
240.242
 30
0.0
 40
1
 41
1
  0
VERTEX
  8
0
 10
424.954
 20
240.686
 30
0.0
 40
1
 41
1
  0
VERTEX
  8
0
 10
424.704
 20
241.103
 30
0.0
 40
1
 41
1
  0
VERTEX
  8
0
 10
424.401
 20
241.482
 30
0.0
 40
1
 41
1
  0
VERTEX
  8
0
 10
424.051
 20
241.818
 30
0.0
 40
1
 41
1
  0
VERTEX
  8
0
 10
423.66
 20
242.106
 30
0.0
 40
1
 41
1
  0
VERTEX
  8
0
 10
423.235
 20
242.34
 30
0.0
 40
1
 41
1
  0
VERTEX
  8
0
 10
422.783
 20
242.517
 30
0.0
 40
1
 41
1
  0
VERTEX
  8
0
 10
422.313
 20
242.633
 30
0.0
 40
1
 41
1
  0
VERTEX
  8
0
 10
344.751
 20
242.633
 30
0.0
 40
1
 41
1
  0
VERTEX
  8
0
 10
315.008
 20
238.718
 30
0.0
 40
1
 41
1
  0
VERTEX
  8
0
 10
315.531
 20
234.751
 30
0.0
 40
1
 41
1
  0
VERTEX
  8
0
 10
313.889
 20
233.182
 30
0.0
 40
1
 41
1
  0
VERTEX
  8
0
 10
312.207
 20
231.657
 30
0.0
 40
1
 41
1
  0
VERTEX
  8
0
 10
310.483
 20
230.176
 30
0.0
 40
1
 41
1
  0
VERTEX
  8
0
 10
308.721
 20
228.744
 30
0.0
 40
1
 41
1
  0
VERTEX
  8
0
 10
306.921
 20
227.36
 30
0.0
 40
1
 41
1
  0
VERTEX
  8
0
 10
305.083
 20
226.024
 30
0.0
 40
1
 41
1
  0
VERTEX
  8
0
 10
303.211
 20
224.737
 30
0.0
 40
1
 41
1
  0
VERTEX
  8
0
 10
301.306
 20
223.503
 30
0.0
 40
1
 41
1
  0
VERTEX
  8
0
 10
299.367
 20
222.319
 30
0.0
 40
1
 41
1
  0
VERTEX
  8
0
 10
297.397
 20
221.189
 30
0.0
 40
1
 41
1
  0
VERTEX
  8
0
 10
295.397
 20
220.111
 30
0.0
 40
1
 41
1
  0
VERTEX
  8
0
 10
293.369
 20
219.089
 30
0.0
 40
1
 41
1
  0
VERTEX
  8
0
 10
291.315
 20
218.119
 30
0.0
 40
1
 41
1
  0
VERTEX
  8
0
 10
289.235
 20
217.207
 30
0.0
 40
1
 41
1
  0
VERTEX
  8
0
 10
287.132
 20
216.351
 30
0.0
 40
1
 41
1
  0
VERTEX
  8
0
 10
285.006
 20
215.551
 30
0.0
 40
1
 41
1
  0
VERTEX
  8
0
 10
282.858
 20
214.81
 30
0.0
 40
1
 41
1
  0
VERTEX
  8
0
 10
280.693
 20
214.126
 30
0.0
 40
1
 41
1
  0
VERTEX
  8
0
 10
278.51
 20
213.501
 30
0.0
 40
1
 41
1
  0
VERTEX
  8
0
 10
276.31
 20
212.935
 30
0.0
 40
1
 41
1
  0
VERTEX
  8
0
 10
274.096
 20
212.428
 30
0.0
 40
1
 41
1
  0
VERTEX
  8
0
 10
271.869
 20
211.981
 30
0.0
 40
1
 41
1
  0
VERTEX
  8
0
 10
269.632
 20
211.593
 30
0.0
 40
1
 41
1
  0
VERTEX
  8
0
 10
267.383
 20
211.267
 30
0.0
 40
1
 41
1
  0
VERTEX
  8
0
 10
264.513
 20
211.079
 30
0.0
 40
1
 41
1
  0
VERTEX
  8
0
 10
261.64
 20
211.267
 30
0.0
 40
1
 41
1
  0
VERTEX
  8
0
 10
258.818
 20
211.828
 30
0.0
 40
1
 41
1
  0
VERTEX
  8
0
 10
256.093
 20
212.753
 30
0.0
 40
1
 41
1
  0
VERTEX
  8
0
 10
253.513
 20
214.026
 30
0.0
 40
1
 41
1
  0
VERTEX
  8
0
 10
251.119
 20
215.625
 30
0.0
 40
1
 41
1
  0
VERTEX
  8
0
 10
248.956
 20
217.522
 30
0.0
 40
1
 41
1
  0
VERTEX
  8
0
 10
247.058
 20
219.686
 30
0.0
 40
1
 41
1
  0
VERTEX
  8
0
 10
245.46
 20
222.079
 30
0.0
 40
1
 41
1
  0
VERTEX
  8
0
 10
244.188
 20
224.66
 30
0.0
 40
1
 41
1
  0
VERTEX
  8
0
 10
243.263
 20
227.385
 30
0.0
 40
1
 41
1
  0
SEQEND
 8
0
  0
POLYLINE
  8
0
 62
     0
 66
     1
 10
0
 20
0
 30
0.0
 70
     1
 40
72
 41
72
  0
VERTEX
  8
0
 10
453.36
 20
44.5
 30
0.0
 40
1
 41
1
  0
VERTEX
  8
0
 10
475.36
 20
44.5
 30
0.0
 40
1
 41
1
  0
VERTEX
  8
0
 10
478.078
 20
44.8578
 30
0.0
 40
1
 41
1
  0
VERTEX
  8
0
 10
478.556
 20
44.9321
 30
0.0
 40
1
 41
1
  0
VERTEX
  8
0
 10
481.061
 20
46.0392
 30
0.0
 40
1
 41
1
  0
VERTEX
  8
0
 10
483.196
 20
47.7575
 30
0.0
 40
1
 41
1
  0
VERTEX
  8
0
 10
484.814
 20
49.9696
 30
0.0
 40
1
 41
1
  0
VERTEX
  8
0
 10
485.803
 20
52.525
 30
0.0
 40
1
 41
1
  0
VERTEX
  8
0
 10
486.097
 20
55.2494
 30
0.0
 40
1
 41
1
  0
VERTEX
  8
0
 10
485.676
 20
57.9574
 30
0.0
 40
1
 41
1
  0
VERTEX
  8
0
 10
484.569
 20
60.464
 30
0.0
 40
1
 41
1
  0
VERTEX
  8
0
 10
482.851
 20
62.5987
 30
0.0
 40
1
 41
1
  0
VERTEX
  8
0
 10
480.639
 20
64.216
 30
0.0
 40
1
 41
1
  0
VERTEX
  8
0
 10
478.085
 20
65.2056
 30
0.0
 40
1
 41
1
  0
VERTEX
  8
0
 10
475.36
 20
65.5
 30
0.0
 40
1
 41
1
  0
VERTEX
  8
0
 10
453.36
 20
65.5
 30
0.0
 40
1
 41
1
  0
VERTEX
  8
0
 10
452.968
 20
65.5257
 30
0.0
 40
1
 41
1
  0
VERTEX
  8
0
 10
452.583
 20
65.6022
 30
0.0
 40
1
 41
1
  0
VERTEX
  8
0
 10
452.211
 20
65.7283
 30
0.0
 40
1
 41
1
  0
VERTEX
  8
0
 10
451.86
 20
65.9019
 30
0.0
 40
1
 41
1
  0
VERTEX
  8
0
 10
451.533
 20
66.12
 30
0.0
 40
1
 41
1
  0
VERTEX
  8
0
 10
451.239
 20
66.3788
 30
0.0
 40
1
 41
1
  0
VERTEX
  8
0
 10
450.979
 20
66.6737
 30
0.0
 40
1
 41
1
  0
VERTEX
  8
0
 10
450.761
 20
67
 30
0.0
 40
1
 41
1
  0
VERTEX
  8
0
 10
450.588
 20
67.3519
 30
0.0
 40
1
 41
1
  0
VERTEX
  8
0
 10
450.463
 20
67.7235
 30
0.0
 40
1
 41
1
  0
VERTEX
  8
0
 10
450.385
 20
68.1083
 30
0.0
 40
1
 41
1
  0
VERTEX
  8
0
 10
450.36
 20
68.5
 30
0.0
 40
1
 41
1
  0
VERTEX
  8
0
 10
450.36
 20
151.554
 30
0.0
 40
1
 41
1
  0
VERTEX
  8
0
 10
450.625
 20
160.143
 30
0.0
 40
1
 41
1
  0
VERTEX
  8
0
 10
451.419
 20
168.7
 30
0.0
 40
1
 41
1
  0
VERTEX
  8
0
 10
452.742
 20
177.19
 30
0.0
 40
1
 41
1
  0
VERTEX
  8
0
 10
454.585
 20
185.583
 30
0.0
 40
1
 41
1
  0
VERTEX
  8
0
 10
456.942
 20
193.846
 30
0.0
 40
1
 41
1
  0
VERTEX
  8
0
 10
459.806
 20
201.949
 30
0.0
 40
1
 41
1
  0
VERTEX
  8
0
 10
463.162
 20
209.858
 30
0.0
 40
1
 41
1
  0
VERTEX
  8
0
 10
467.003
 20
217.544
 30
0.0
 40
1
 41
1
  0
VERTEX
  8
0
 10
471.31
 20
224.981
 30
0.0
 40
1
 41
1
  0
VERTEX
  8
0
 10
476.067
 20
232.136
 30
0.0
 40
1
 41
1
  0
VERTEX
  8
0
 10
481.257
 20
238.985
 30
0.0
 40
1
 41
1
  0
VERTEX
  8
0
 10
486.86
 20
245.5
 30
0.0
 40
1
 41
1
  0
VERTEX
  8
0
 10
520.36
 20
245.5
 30
0.0
 40
1
 41
1
  0
VERTEX
  8
0
 10
520.36
 20
215.5
 30
0.0
 40
1
 41
1
  0
VERTEX
  8
0
 10
516.36
 20
215.5
 30
0.0
 40
1
 41
1
  0
VERTEX
  8
0
 10
514.335
 20
213.328
 30
0.0
 40
1
 41
1
  0
VERTEX
  8
0
 10
512.379
 20
211.092
 30
0.0
 40
1
 41
1
  0
VERTEX
  8
0
 10
510.497
 20
208.796
 30
0.0
 40
1
 41
1
  0
VERTEX
  8
0
 10
508.689
 20
206.44
 30
0.0
 40
1
 41
1
  0
VERTEX
  8
0
 10
506.957
 20
204.028
 30
0.0
 40
1
 41
1
  0
VERTEX
  8
0
 10
505.304
 20
201.561
 30
0.0
 40
1
 41
1
  0
VERTEX
  8
0
 10
503.729
 20
199.043
 30
0.0
 40
1
 41
1
  0
VERTEX
  8
0
 10
502.236
 20
196.476
 30
0.0
 40
1
 41
1
  0
VERTEX
  8
0
 10
500.825
 20
193.862
 30
0.0
 40
1
 41
1
  0
VERTEX
  8
0
 10
499.499
 20
191.206
 30
0.0
 40
1
 41
1
  0
VERTEX
  8
0
 10
498.258
 20
188.508
 30
0.0
 40
1
 41
1
  0
VERTEX
  8
0
 10
497.104
 20
185.772
 30
0.0
 40
1
 41
1
  0
VERTEX
  8
0
 10
496.037
 20
183
 30
0.0
 40
1
 41
1
  0
VERTEX
  8
0
 10
495.061
 20
180.196
 30
0.0
 40
1
 41
1
  0
VERTEX
  8
0
 10
494.174
 20
177.361
 30
0.0
 40
1
 41
1
  0
VERTEX
  8
0
 10
493.378
 20
174.5
 30
0.0
 40
1
 41
1
  0
VERTEX
  8
0
 10
492.674
 20
171.615
 30
0.0
 40
1
 41
1
  0
VERTEX
  8
0
 10
492.061
 20
168.71
 30
0.0
 40
1
 41
1
  0
VERTEX
  8
0
 10
491.543
 20
165.786
 30
0.0
 40
1
 41
1
  0
VERTEX
  8
0
 10
491.117
 20
162.847
 30
0.0
 40
1
 41
1
  0
VERTEX
  8
0
 10
490.786
 20
159.896
 30
0.0
 40
1
 41
1
  0
VERTEX
  8
0
 10
490.549
 20
156.936
 30
0.0
 40
1
 41
1
  0
VERTEX
  8
0
 10
490.407
 20
153.969
 30
0.0
 40
1
 41
1
  0
VERTEX
  8
0
 10
490.36
 20
151
 30
0.0
 40
1
 41
1
  0
VERTEX
  8
0
 10
490.625
 20
146.954
 30
0.0
 40
1
 41
1
  0
VERTEX
  8
0
 10
491.415
 20
142.976
 30
0.0
 40
1
 41
1
  0
VERTEX
  8
0
 10
492.719
 20
139.138
 30
0.0
 40
1
 41
1
  0
VERTEX
  8
0
 10
494.512
 20
135.5
 30
0.0
 40
1
 41
1
  0
VERTEX
  8
0
 10
496.765
 20
132.128
 30
0.0
 40
1
 41
1
  0
VERTEX
  8
0
 10
499.439
 20
129.08
 30
0.0
 40
1
 41
1
  0
VERTEX
  8
0
 10
502.488
 20
126.406
 30
0.0
 40
1
 41
1
  0
VERTEX
  8
0
 10
505.86
 20
124.153
 30
0.0
 40
1
 41
1
  0
VERTEX
  8
0
 10
509.496
 20
122.36
 30
0.0
 40
1
 41
1
  0
VERTEX
  8
0
 10
513.336
 20
121.056
 30
0.0
 40
1
 41
1
  0
VERTEX
  8
0
 10
517.314
 20
120.265
 30
0.0
 40
1
 41
1
  0
VERTEX
  8
0
 10
520.36
 20
120.066
 30
0.0
 40
1
 41
1
  0
VERTEX
  8
0
 10
520.36
 20
39.8565
 30
0.0
 40
1
 41
1
  0
VERTEX
  8
0
 10
519.461
 20
35.7849
 30
0.0
 40
1
 41
1
  0
VERTEX
  8
0
 10
518.092
 20
31.8469
 30
0.0
 40
1
 41
1
  0
VERTEX
  8
0
 10
516.268
 20
28.0969
 30
0.0
 40
1
 41
1
  0
VERTEX
  8
0
 10
514.017
 20
24.5872
 30
0.0
 40
1
 41
1
  0
VERTEX
  8
0
 10
511.369
 20
21.3661
 30
0.0
 40
1
 41
1
  0
VERTEX
  8
0
 10
508.363
 20
18.4782
 30
0.0
 40
1
 41
1
  0
VERTEX
  8
0
 10
505.036
 20
15.9633
 30
0.0
 40
1
 41
1
  0
VERTEX
  8
0
 10
501.438
 20
13.8566
 30
0.0
 40
1
 41
1
  0
VERTEX
  8
0
 10
497.617
 20
12.187
 30
0.0
 40
1
 41
1
  0
VERTEX
  8
0
 10
493.626
 20
10.9777
 30
0.0
 40
1
 41
1
  0
VERTEX
  8
0
 10
489.522
 20
10.2453
 30
0.0
 40
1
 41
1
  0
VERTEX
  8
0
 10
485.36
 20
10
 30
0.0
 40
1
 41
1
  0
VERTEX
  8
0
 10
453.36
 20
10
 30
0.0
 40
1
 41
1
  0
VERTEX
  8
0
 10
452.583
 20
10.1022
 30
0.0
 40
1
 41
1
  0
VERTEX
  8
0
 10
451.86
 20
10.4019
 30
0.0
 40
1
 41
1
  0
VERTEX
  8
0
 10
451.239
 20
10.8787
 30
0.0
 40
1
 41
1
  0
VERTEX
  8
0
 10
450.761
 20
11.5
 30
0.0
 40
1
 41
1
  0
VERTEX
  8
0
 10
450.463
 20
12.2235
 30
0.0
 40
1
 41
1
  0
VERTEX
  8
0
 10
450.36
 20
13
 30
0.0
 40
1
 41
1
  0
VERTEX
  8
0
 10
450.36
 20
41.5
 30
0.0
 40
1
 41
1
  0
VERTEX
  8
0
 10
450.385
 20
41.8917
 30
0.0
 40
1
 41
1
  0
VERTEX
  8
0
 10
450.463
 20
42.2765
 30
0.0
 40
1
 41
1
  0
VERTEX
  8
0
 10
450.588
 20
42.6481
 30
0.0
 40
1
 41
1
  0
VERTEX
  8
0
 10
450.761
 20
43
 30
0.0
 40
1
 41
1
  0
VERTEX
  8
0
 10
450.979
 20
43.3263
 30
0.0
 40
1
 41
1
  0
VERTEX
  8
0
 10
451.239
 20
43.6213
 30
0.0
 40
1
 41
1
  0
VERTEX
  8
0
 10
451.533
 20
43.88
 30
0.0
 40
1
 41
1
  0
VERTEX
  8
0
 10
451.86
 20
44.0981
 30
0.0
 40
1
 41
1
  0
VERTEX
  8
0
 10
452.211
 20
44.2717
 30
0.0
 40
1
 41
1
  0
VERTEX
  8
0
 10
452.583
 20
44.3978
 30
0.0
 40
1
 41
1
  0
VERTEX
  8
0
 10
452.968
 20
44.4743
 30
0.0
 40
1
 41
1
  0
VERTEX
  8
0
 10
453.36
 20
44.5
 30
0.0
 40
1
 41
1
  0
SEQEND
 8
0
  0
POLYLINE
  8
0
 62
     0
 66
     1
 10
0
 20
0
 30
0.0
 70
     1
 40
72
 41
72
  0
VERTEX
  8
0
 10
625.175
 20
161.718
 30
0.0
 40
1
 41
1
  0
VERTEX
  8
0
 10
624.91
 20
163.074
 30
0.0
 40
1
 41
1
  0
VERTEX
  8
0
 10
624.485
 20
164.388
 30
0.0
 40
1
 41
1
  0
VERTEX
  8
0
 10
623.906
 20
165.64
 30
0.0
 40
1
 41
1
  0
VERTEX
  8
0
 10
623.182
 20
166.815
 30
0.0
 40
1
 41
1
  0
VERTEX
  8
0
 10
622.321
 20
167.896
 30
0.0
 40
1
 41
1
  0
VERTEX
  8
0
 10
621.339
 20
168.865
 30
0.0
 40
1
 41
1
  0
VERTEX
  8
0
 10
620.247
 20
169.711
 30
0.0
 40
1
 41
1
  0
VERTEX
  8
0
 10
619.063
 20
170.419
 30
0.0
 40
1
 41
1
  0
VERTEX
  8
0
 10
617.801
 20
170.982
 30
0.0
 40
1
 41
1
  0
VERTEX
  8
0
 10
616.482
 20
171.389
 30
0.0
 40
1
 41
1
  0
VERTEX
  8
0
 10
615.124
 20
171.636
 30
0.0
 40
1
 41
1
  0
VERTEX
  8
0
 10
613.744
 20
171.718
 30
0.0
 40
1
 41
1
  0
VERTEX
  8
0
 10
516.246
 20
171.718
 30
0.0
 40
1
 41
1
  0
VERTEX
  8
0
 10
512.364
 20
172.229
 30
0.0
 40
1
 41
1
  0
VERTEX
  8
0
 10
508.746
 20
173.728
 30
0.0
 40
1
 41
1
  0
VERTEX
  8
0
 10
505.64
 20
176.111
 30
0.0
 40
1
 41
1
  0
VERTEX
  8
0
 10
503.256
 20
179.218
 30
0.0
 40
1
 41
1
  0
VERTEX
  8
0
 10
501.757
 20
182.836
 30
0.0
 40
1
 41
1
  0
VERTEX
  8
0
 10
501.246
 20
186.718
 30
0.0
 40
1
 41
1
  0
VERTEX
  8
0
 10
501.757
 20
190.6
 30
0.0
 40
1
 41
1
  0
VERTEX
  8
0
 10
503.256
 20
194.218
 30
0.0
 40
1
 41
1
  0
VERTEX
  8
0
 10
505.64
 20
197.325
 30
0.0
 40
1
 41
1
  0
VERTEX
  8
0
 10
508.746
 20
199.708
 30
0.0
 40
1
 41
1
  0
VERTEX
  8
0
 10
512.364
 20
201.207
 30
0.0
 40
1
 41
1
  0
VERTEX
  8
0
 10
516.246
 20
201.718
 30
0.0
 40
1
 41
1
  0
VERTEX
  8
0
 10
664.193
 20
201.718
 30
0.0
 40
1
 41
1
  0
VERTEX
  8
0
 10
664.193
 20
171.718
 30
0.0
 40
1
 41
1
  0
VERTEX
  8
0
 10
668.179
 20
141.985
 30
0.0
 40
1
 41
1
  0
VERTEX
  8
0
 10
664.214
 20
141.462
 30
0.0
 40
1
 41
1
  0
VERTEX
  8
0
 10
663.121
 20
139.471
 30
0.0
 40
1
 41
1
  0
VERTEX
  8
0
 10
662.083
 20
137.45
 30
0.0
 40
1
 41
1
  0
VERTEX
  8
0
 10
661.1
 20
135.403
 30
0.0
 40
1
 41
1
  0
VERTEX
  8
0
 10
660.172
 20
133.33
 30
0.0
 40
1
 41
1
  0
VERTEX
  8
0
 10
659.301
 20
131.233
 30
0.0
 40
1
 41
1
  0
VERTEX
  8
0
 10
658.486
 20
129.113
 30
0.0
 40
1
 41
1
  0
VERTEX
  8
0
 10
657.729
 20
126.971
 30
0.0
 40
1
 41
1
  0
VERTEX
  8
0
 10
657.029
 20
124.811
 30
0.0
 40
1
 41
1
  0
VERTEX
  8
0
 10
656.387
 20
122.632
 30
0.0
 40
1
 41
1
  0
VERTEX
  8
0
 10
655.806
 20
120.436
 30
0.0
 40
1
 41
1
  0
VERTEX
  8
0
 10
655.282
 20
118.226
 30
0.0
 40
1
 41
1
  0
VERTEX
  8
0
 10
654.819
 20
116.003
 30
0.0
 40
1
 41
1
  0
VERTEX
  8
0
 10
654.415
 20
113.768
 30
0.0
 40
1
 41
1
  0
VERTEX
  8
0
 10
654.072
 20
111.523
 30
0.0
 40
1
 41
1
  0
VERTEX
  8
0
 10
653.79
 20
109.269
 30
0.0
 40
1
 41
1
  0
VERTEX
  8
0
 10
653.568
 20
107.008
 30
0.0
 40
1
 41
1
  0
VERTEX
  8
0
 10
653.407
 20
104.743
 30
0.0
 40
1
 41
1
  0
VERTEX
  8
0
 10
653.307
 20
102.474
 30
0.0
 40
1
 41
1
  0
VERTEX
  8
0
 10
653.268
 20
100.203
 30
0.0
 40
1
 41
1
  0
VERTEX
  8
0
 10
653.29
 20
97.9318
 30
0.0
 40
1
 41
1
  0
VERTEX
  8
0
 10
653.374
 20
95.6621
 30
0.0
 40
1
 41
1
  0
VERTEX
  8
0
 10
653.518
 20
93.3954
 30
0.0
 40
1
 41
1
  0
VERTEX
  8
0
 10
653.724
 20
91.1335
 30
0.0
 40
1
 41
1
  0
VERTEX
  8
0
 10
653.989
 20
88.8779
 30
0.0
 40
1
 41
1
  0
VERTEX
  8
0
 10
654.551
 20
86.0556
 30
0.0
 40
1
 41
1
  0
VERTEX
  8
0
 10
655.476
 20
83.3304
 30
0.0
 40
1
 41
1
  0
VERTEX
  8
0
 10
656.749
 20
80.7494
 30
0.0
 40
1
 41
1
  0
VERTEX
  8
0
 10
658.347
 20
78.3568
 30
0.0
 40
1
 41
1
  0
VERTEX
  8
0
 10
660.244
 20
76.1932
 30
0.0
 40
1
 41
1
  0
VERTEX
  8
0
 10
662.408
 20
74.2957
 30
0.0
 40
1
 41
1
  0
VERTEX
  8
0
 10
664.801
 20
72.6969
 30
0.0
 40
1
 41
1
  0
VERTEX
  8
0
 10
667.382
 20
71.4242
 30
0.0
 40
1
 41
1
  0
VERTEX
  8
0
 10
670.107
 20
70.4992
 30
0.0
 40
1
 41
1
  0
VERTEX
  8
0
 10
672.929
 20
69.9378
 30
0.0
 40
1
 41
1
  0
VERTEX
  8
0
 10
675.801
 20
69.7494
 30
0.0
 40
1
 41
1
  0
VERTEX
  8
0
 10
677.672
 20
69.8722
 30
0.0
 40
1
 41
1
  0
VERTEX
  8
0
 10
681.597
 20
40.0633
 30
0.0
 40
1
 41
1
  0
VERTEX
  8
0
 10
645.914
 20
35.3733
 30
0.0
 40
1
 41
1
  0
VERTEX
  8
0
 10
645.157
 20
35.2662
 30
0.0
 40
1
 41
1
  0
VERTEX
  8
0
 10
644.767
 20
35.2371
 30
0.0
 40
1
 41
1
  0
VERTEX
  8
0
 10
644.376
 20
35.2592
 30
0.0
 40
1
 41
1
  0
VERTEX
  8
0
 10
643.992
 20
35.3325
 30
0.0
 40
1
 41
1
  0
VERTEX
  8
0
 10
643.619
 20
35.4556
 30
0.0
 40
1
 41
1
  0
VERTEX
  8
0
 10
643.268
 20
35.6261
 30
0.0
 40
1
 41
1
  0
VERTEX
  8
0
 10
642.94
 20
35.8415
 30
0.0
 40
1
 41
1
  0
VERTEX
  8
0
 10
642.644
 20
36.0979
 30
0.0
 40
1
 41
1
  0
VERTEX
  8
0
 10
642.386
 20
36.3908
 30
0.0
 40
1
 41
1
  0
VERTEX
  8
0
 10
642.167
 20
36.7153
 30
0.0
 40
1
 41
1
  0
VERTEX
  8
0
 10
641.992
 20
37.0657
 30
0.0
 40
1
 41
1
  0
VERTEX
  8
0
 10
641.865
 20
37.4358
 30
0.0
 40
1
 41
1
  0
VERTEX
  8
0
 10
641.787
 20
37.8194
 30
0.0
 40
1
 41
1
  0
VERTEX
  8
0
 10
625.175
 20
161.718
 30
0.0
 40
1
 41
1
  0
SEQEND
 8
0
  0
POLYLINE
  8
0
 62
     0
 66
     1
 10
0
 20
0
 30
0.0
 70
     1
 40
72
 41
72
  0
VERTEX
  8
0
 10
518.661
 20
187.365
 30
0.0
 40
1
 41
1
  0
VERTEX
  8
0
 10
518.411
 20
187.968
 30
0.0
 40
1
 41
1
  0
VERTEX
  8
0
 10
518.014
 20
188.486
 30
0.0
 40
1
 41
1
  0
VERTEX
  8
0
 10
517.496
 20
188.883
 30
0.0
 40
1
 41
1
  0
VERTEX
  8
0
 10
516.893
 20
189.133
 30
0.0
 40
1
 41
1
  0
VERTEX
  8
0
 10
516.246
 20
189.218
 30
0.0
 40
1
 41
1
  0
VERTEX
  8
0
 10
515.599
 20
189.133
 30
0.0
 40
1
 41
1
  0
VERTEX
  8
0
 10
514.996
 20
188.883
 30
0.0
 40
1
 41
1
  0
VERTEX
  8
0
 10
514.479
 20
188.486
 30
0.0
 40
1
 41
1
  0
VERTEX
  8
0
 10
514.081
 20
187.968
 30
0.0
 40
1
 41
1
  0
VERTEX
  8
0
 10
513.832
 20
187.365
 30
0.0
 40
1
 41
1
  0
VERTEX
  8
0
 10
513.746
 20
186.718
 30
0.0
 40
1
 41
1
  0
VERTEX
  8
0
 10
513.832
 20
186.071
 30
0.0
 40
1
 41
1
  0
VERTEX
  8
0
 10
514.081
 20
185.468
 30
0.0
 40
1
 41
1
  0
VERTEX
  8
0
 10
514.479
 20
184.95
 30
0.0
 40
1
 41
1
  0
VERTEX
  8
0
 10
514.996
 20
184.553
 30
0.0
 40
1
 41
1
  0
VERTEX
  8
0
 10
515.599
 20
184.304
 30
0.0
 40
1
 41
1
  0
VERTEX
  8
0
 10
516.246
 20
184.218
 30
0.0
 40
1
 41
1
  0
VERTEX
  8
0
 10
516.893
 20
184.304
 30
0.0
 40
1
 41
1
  0
VERTEX
  8
0
 10
517.496
 20
184.553
 30
0.0
 40
1
 41
1
  0
VERTEX
  8
0
 10
518.014
 20
184.95
 30
0.0
 40
1
 41
1
  0
VERTEX
  8
0
 10
518.411
 20
185.468
 30
0.0
 40
1
 41
1
  0
VERTEX
  8
0
 10
518.661
 20
186.071
 30
0.0
 40
1
 41
1
  0
VERTEX
  8
0
 10
518.746
 20
186.718
 30
0.0
 40
1
 41
1
  0
VERTEX
  8
0
 10
518.661
 20
187.365
 30
0.0
 40
1
 41
1
  0
SEQEND
 8
0
  0
POLYLINE
  8
0
 62
     0
 66
     1
 10
0
 20
0
 30
0.0
 70
     1
 40
72
 41
72
  0
VERTEX
  8
0
 10
696.853
 20
127.112
 30
0.0
 40
1
 41
1
  0
VERTEX
  8
0
 10
698.126
 20
124.531
 30
0.0
 40
1
 41
1
  0
VERTEX
  8
0
 10
699.725
 20
122.138
 30
0.0
 40
1
 41
1
  0
VERTEX
  8
0
 10
701.622
 20
119.975
 30
0.0
 40
1
 41
1
  0
VERTEX
  8
0
 10
703.786
 20
118.077
 30
0.0
 40
1
 41
1
  0
VERTEX
  8
0
 10
706.179
 20
116.479
 30
0.0
 40
1
 41
1
  0
VERTEX
  8
0
 10
708.76
 20
115.206
 30
0.0
 40
1
 41
1
  0
VERTEX
  8
0
 10
711.485
 20
114.281
 30
0.0
 40
1
 41
1
  0
VERTEX
  8
0
 10
714.307
 20
113.719
 30
0.0
 40
1
 41
1
  0
VERTEX
  8
0
 10
717.179
 20
113.531
 30
0.0
 40
1
 41
1
  0
VERTEX
  8
0
 10
719.05
 20
113.654
 30
0.0
 40
1
 41
1
  0
VERTEX
  8
0
 10
722.975
 20
83.845
 30
0.0
 40
1
 41
1
  0
VERTEX
  8
0
 10
687.292
 20
79.155
 30
0.0
 40
1
 41
1
  0
VERTEX
  8
0
 10
686.535
 20
79.0479
 30
0.0
 40
1
 41
1
  0
VERTEX
  8
0
 10
686.144
 20
79.0186
 30
0.0
 40
1
 41
1
  0
VERTEX
  8
0
 10
685.753
 20
79.0408
 30
0.0
 40
1
 41
1
  0
VERTEX
  8
0
 10
685.369
 20
79.114
 30
0.0
 40
1
 41
1
  0
VERTEX
  8
0
 10
684.997
 20
79.2371
 30
0.0
 40
1
 41
1
  0
VERTEX
  8
0
 10
684.644
 20
79.4078
 30
0.0
 40
1
 41
1
  0
VERTEX
  8
0
 10
684.318
 20
79.6232
 30
0.0
 40
1
 41
1
  0
VERTEX
  8
0
 10
684.022
 20
79.8796
 30
0.0
 40
1
 41
1
  0
VERTEX
  8
0
 10
683.762
 20
80.1725
 30
0.0
 40
1
 41
1
  0
VERTEX
  8
0
 10
683.544
 20
80.4969
 30
0.0
 40
1
 41
1
  0
VERTEX
  8
0
 10
683.369
 20
80.8472
 30
0.0
 40
1
 41
1
  0
VERTEX
  8
0
 10
683.243
 20
81.2175
 30
0.0
 40
1
 41
1
  0
VERTEX
  8
0
 10
683.165
 20
81.6013
 30
0.0
 40
1
 41
1
  0
VERTEX
  8
0
 10
666.553
 20
205.5
 30
0.0
 40
1
 41
1
  0
VERTEX
  8
0
 10
666.287
 20
206.856
 30
0.0
 40
1
 41
1
  0
VERTEX
  8
0
 10
665.863
 20
208.168
 30
0.0
 40
1
 41
1
  0
VERTEX
  8
0
 10
665.283
 20
209.422
 30
0.0
 40
1
 41
1
  0
VERTEX
  8
0
 10
664.558
 20
210.597
 30
0.0
 40
1
 41
1
  0
VERTEX
  8
0
 10
663.699
 20
211.678
 30
0.0
 40
1
 41
1
  0
VERTEX
  8
0
 10
662.717
 20
212.647
 30
0.0
 40
1
 41
1
  0
VERTEX
  8
0
 10
661.624
 20
213.493
 30
0.0
 40
1
 41
1
  0
VERTEX
  8
0
 10
660.439
 20
214.201
 30
0.0
 40
1
 41
1
  0
VERTEX
  8
0
 10
659.178
 20
214.764
 30
0.0
 40
1
 41
1
  0
VERTEX
  8
0
 10
657.86
 20
215.171
 30
0.0
 40
1
 41
1
  0
VERTEX
  8
0
 10
656.5
 20
215.418
 30
0.0
 40
1
 41
1
  0
VERTEX
  8
0
 10
655.122
 20
215.5
 30
0.0
 40
1
 41
1
  0
VERTEX
  8
0
 10
557.624
 20
215.5
 30
0.0
 40
1
 41
1
  0
VERTEX
  8
0
 10
553.742
 20
216.011
 30
0.0
 40
1
 41
1
  0
VERTEX
  8
0
 10
550.124
 20
217.51
 30
0.0
 40
1
 41
1
  0
VERTEX
  8
0
 10
547.017
 20
219.893
 30
0.0
 40
1
 41
1
  0
VERTEX
  8
0
 10
544.633
 20
223
 30
0.0
 40
1
 41
1
  0
VERTEX
  8
0
 10
543.135
 20
226.618
 30
0.0
 40
1
 41
1
  0
VERTEX
  8
0
 10
542.624
 20
230.5
 30
0.0
 40
1
 41
1
  0
VERTEX
  8
0
 10
543.135
 20
234.382
 30
0.0
 40
1
 41
1
  0
VERTEX
  8
0
 10
544.633
 20
238
 30
0.0
 40
1
 41
1
  0
VERTEX
  8
0
 10
547.017
 20
241.107
 30
0.0
 40
1
 41
1
  0
VERTEX
  8
0
 10
550.124
 20
243.49
 30
0.0
 40
1
 41
1
  0
VERTEX
  8
0
 10
553.742
 20
244.989
 30
0.0
 40
1
 41
1
  0
VERTEX
  8
0
 10
557.624
 20
245.5
 30
0.0
 40
1
 41
1
  0
VERTEX
  8
0
 10
705.569
 20
245.5
 30
0.0
 40
1
 41
1
  0
VERTEX
  8
0
 10
705.569
 20
215.5
 30
0.0
 40
1
 41
1
  0
VERTEX
  8
0
 10
709.557
 20
185.767
 30
0.0
 40
1
 41
1
  0
VERTEX
  8
0
 10
705.59
 20
185.244
 30
0.0
 40
1
 41
1
  0
VERTEX
  8
0
 10
704.499
 20
183.253
 30
0.0
 40
1
 41
1
  0
VERTEX
  8
0
 10
703.461
 20
181.232
 30
0.0
 40
1
 41
1
  0
VERTEX
  8
0
 10
702.478
 20
179.185
 30
0.0
 40
1
 41
1
  0
VERTEX
  8
0
 10
701.55
 20
177.111
 30
0.0
 40
1
 41
1
  0
VERTEX
  8
0
 10
700.679
 20
175.014
 30
0.0
 40
1
 41
1
  0
VERTEX
  8
0
 10
699.864
 20
172.894
 30
0.0
 40
1
 41
1
  0
VERTEX
  8
0
 10
699.106
 20
170.753
 30
0.0
 40
1
 41
1
  0
VERTEX
  8
0
 10
698.407
 20
168.592
 30
0.0
 40
1
 41
1
  0
VERTEX
  8
0
 10
697.765
 20
166.414
 30
0.0
 40
1
 41
1
  0
VERTEX
  8
0
 10
697.183
 20
164.218
 30
0.0
 40
1
 41
1
  0
VERTEX
  8
0
 10
696.66
 20
162.008
 30
0.0
 40
1
 41
1
  0
VERTEX
  8
0
 10
696.196
 20
159.785
 30
0.0
 40
1
 41
1
  0
VERTEX
  8
0
 10
695.793
 20
157.549
 30
0.0
 40
1
 41
1
  0
VERTEX
  8
0
 10
695.45
 20
155.304
 30
0.0
 40
1
 41
1
  0
VERTEX
  8
0
 10
695.167
 20
153.05
 30
0.0
 40
1
 41
1
  0
VERTEX
  8
0
 10
694.946
 20
150.79
 30
0.0
 40
1
 41
1
  0
VERTEX
  8
0
 10
694.785
 20
148.525
 30
0.0
 40
1
 41
1
  0
VERTEX
  8
0
 10
694.685
 20
146.256
 30
0.0
 40
1
 41
1
  0
VERTEX
  8
0
 10
694.646
 20
143.985
 30
0.0
 40
1
 41
1
  0
VERTEX
  8
0
 10
694.668
 20
141.714
 30
0.0
 40
1
 41
1
  0
VERTEX
  8
0
 10
694.751
 20
139.443
 30
0.0
 40
1
 41
1
  0
VERTEX
  8
0
 10
694.896
 20
137.177
 30
0.0
 40
1
 41
1
  0
VERTEX
  8
0
 10
695.101
 20
134.915
 30
0.0
 40
1
 41
1
  0
VERTEX
  8
0
 10
695.367
 20
132.66
 30
0.0
 40
1
 41
1
  0
VERTEX
  8
0
 10
695.928
 20
129.837
 30
0.0
 40
1
 41
1
  0
VERTEX
  8
0
 10
696.853
 20
127.112
 30
0.0
 40
1
 41
1
  0
SEQEND
 8
0
  0
POLYLINE
  8
0
 62
     0
 66
     1
 10
0
 20
0
 30
0.0
 70
     1
 40
72
 41
72
  0
VERTEX
  8
0
 10
560.039
 20
229.853
 30
0.0
 40
1
 41
1
  0
VERTEX
  8
0
 10
560.124
 20
230.5
 30
0.0
 40
1
 41
1
  0
VERTEX
  8
0
 10
560.039
 20
231.147
 30
0.0
 40
1
 41
1
  0
VERTEX
  8
0
 10
559.789
 20
231.75
 30
0.0
 40
1
 41
1
  0
VERTEX
  8
0
 10
559.392
 20
232.268
 30
0.0
 40
1
 41
1
  0
VERTEX
  8
0
 10
558.874
 20
232.665
 30
0.0
 40
1
 41
1
  0
VERTEX
  8
0
 10
558.271
 20
232.915
 30
0.0
 40
1
 41
1
  0
VERTEX
  8
0
 10
557.624
 20
233
 30
0.0
 40
1
 41
1
  0
VERTEX
  8
0
 10
556.976
 20
232.915
 30
0.0
 40
1
 41
1
  0
VERTEX
  8
0
 10
556.374
 20
232.665
 30
0.0
 40
1
 41
1
  0
VERTEX
  8
0
 10
555.856
 20
232.268
 30
0.0
 40
1
 41
1
  0
VERTEX
  8
0
 10
555.458
 20
231.75
 30
0.0
 40
1
 41
1
  0
VERTEX
  8
0
 10
555.208
 20
231.147
 30
0.0
 40
1
 41
1
  0
VERTEX
  8
0
 10
555.124
 20
230.5
 30
0.0
 40
1
 41
1
  0
VERTEX
  8
0
 10
555.208
 20
229.853
 30
0.0
 40
1
 41
1
  0
VERTEX
  8
0
 10
555.458
 20
229.25
 30
0.0
 40
1
 41
1
  0
VERTEX
  8
0
 10
555.856
 20
228.732
 30
0.0
 40
1
 41
1
  0
VERTEX
  8
0
 10
556.374
 20
228.335
 30
0.0
 40
1
 41
1
  0
VERTEX
  8
0
 10
556.976
 20
228.085
 30
0.0
 40
1
 41
1
  0
VERTEX
  8
0
 10
557.624
 20
228
 30
0.0
 40
1
 41
1
  0
VERTEX
  8
0
 10
558.271
 20
228.085
 30
0.0
 40
1
 41
1
  0
VERTEX
  8
0
 10
558.874
 20
228.335
 30
0.0
 40
1
 41
1
  0
VERTEX
  8
0
 10
559.392
 20
228.732
 30
0.0
 40
1
 41
1
  0
VERTEX
  8
0
 10
559.789
 20
229.25
 30
0.0
 40
1
 41
1
  0
VERTEX
  8
0
 10
560.039
 20
229.853
 30
0.0
 40
1
 41
1
  0
SEQEND
 8
0
  0
POLYLINE
  8
0
 62
     0
 66
     1
 10
0
 20
0
 30
0.0
 40
72
 41
72
  0
VERTEX
  8
0
 10
844.342
 20
200.504
 30
0.0
 40
1
 41
1
  0
VERTEX
  8
0
 10
843.831
 20
204.386
 30
0.0
 40
1
 41
1
  0
VERTEX
  8
0
 10
842.332
 20
208.004
 30
0.0
 40
1
 41
1
  0
VERTEX
  8
0
 10
839.947
 20
211.11
 30
0.0
 40
1
 41
1
  0
VERTEX
  8
0
 10
836.842
 20
213.494
 30
0.0
 40
1
 41
1
  0
VERTEX
  8
0
 10
833.224
 20
214.993
 30
0.0
 40
1
 41
1
  0
VERTEX
  8
0
 10
829.342
 20
215.504
 30
0.0
 40
1
 41
1
  0
VERTEX
  8
0
 10
825.458
 20
214.993
 30
0.0
 40
1
 41
1
  0
VERTEX
  8
0
 10
821.842
 20
213.494
 30
0.0
 40
1
 41
1
  0
VERTEX
  8
0
 10
818.735
 20
211.11
 30
0.0
 40
1
 41
1
  0
VERTEX
  8
0
 10
816.351
 20
208.004
 30
0.0
 40
1
 41
1
  0
VERTEX
  8
0
 10
814.853
 20
204.386
 30
0.0
 40
1
 41
1
  0
VERTEX
  8
0
 10
814.342
 20
200.504
 30
0.0
 40
1
 41
1
  0
VERTEX
  8
0
 10
814.342
 20
103.005
 30
0.0
 40
1
 41
1
  0
VERTEX
  8
0
 10
814.258
 20
101.627
 30
0.0
 40
1
 41
1
  0
VERTEX
  8
0
 10
814.012
 20
100.268
 30
0.0
 40
1
 41
1
  0
VERTEX
  8
0
 10
813.604
 20
98.9489
 30
0.0
 40
1
 41
1
  0
VERTEX
  8
0
 10
813.043
 20
97.6878
 30
0.0
 40
1
 41
1
  0
VERTEX
  8
0
 10
812.333
 20
96.5029
 30
0.0
 40
1
 41
1
  0
VERTEX
  8
0
 10
811.489
 20
95.4112
 30
0.0
 40
1
 41
1
  0
VERTEX
  8
0
 10
810.518
 20
94.4283
 30
0.0
 40
1
 41
1
  0
VERTEX
  8
0
 10
809.439
 20
93.5685
 30
0.0
 40
1
 41
1
  0
VERTEX
  8
0
 10
808.264
 20
92.8438
 30
0.0
 40
1
 41
1
  0
VERTEX
  8
0
 10
807.01
 20
92.2647
 30
0.0
 40
1
 41
1
  0
VERTEX
  8
0
 10
805.696
 20
91.8396
 30
0.0
 40
1
 41
1
  0
VERTEX
  8
0
 10
804.342
 20
91.5746
 30
0.0
 40
1
 41
1
  0
VERTEX
  8
0
 10
680.443
 20
74.9621
 30
0.0
 40
1
 41
1
  0
VERTEX
  8
0
 10
680.058
 20
74.8846
 30
0.0
 40
1
 41
1
  0
VERTEX
  8
0
 10
679.689
 20
74.7576
 30
0.0
 40
1
 41
1
  0
VERTEX
  8
0
 10
679.338
 20
74.5831
 30
0.0
 40
1
 41
1
  0
VERTEX
  8
0
 10
679.014
 20
74.3642
 30
0.0
 40
1
 41
1
  0
VERTEX
  8
0
 10
678.721
 20
74.1047
 30
0.0
 40
1
 41
1
  0
VERTEX
  8
0
 10
678.464
 20
73.8089
 30
0.0
 40
1
 41
1
  0
VERTEX
  8
0
 10
678.249
 20
73.4821
 30
0.0
 40
1
 41
1
  0
VERTEX
  8
0
 10
678.078
 20
73.1299
 30
0.0
 40
1
 41
1
  0
VERTEX
  8
0
 10
677.956
 20
72.7583
 30
0.0
 40
1
 41
1
  0
VERTEX
  8
0
 10
677.882
 20
72.3739
 30
0.0
 40
1
 41
1
  0
VERTEX
  8
0
 10
677.86
 20
71.9832
 30
0.0
 40
1
 41
1
  0
VERTEX
  8
0
 10
677.889
 20
71.5928
 30
0.0
 40
1
 41
1
  0
VERTEX
  8
0
 10
677.996
 20
70.8361
 30
0.0
 40
1
 41
1
  0
VERTEX
  8
0
 10
682.686
 20
35.1525
 30
0.0
 40
1
 41
1
  0
VERTEX
  8
0
 10
712.494
 20
39.0769
 30
0.0
 40
1
 41
1
  0
VERTEX
  8
0
 10
712.372
 20
40.9485
 30
0.0
 40
1
 41
1
  0
VERTEX
  8
0
 10
712.561
 20
43.82
 30
0.0
 40
1
 41
1
  0
VERTEX
  8
0
 10
713.122
 20
46.6425
 30
0.0
 40
1
 41
1
  0
VERTEX
  8
0
 10
714.047
 20
49.3675
 30
0.0
 40
1
 41
1
  0
VERTEX
  8
0
 10
715.319
 20
51.9485
 30
0.0
 40
1
 41
1
  0
VERTEX
  8
0
 10
716.918
 20
54.3413
 30
0.0
 40
1
 41
1
  0
VERTEX
  8
0
 10
718.817
 20
56.5047
 30
0.0
 40
1
 41
1
  0
VERTEX
  8
0
 10
720.979
 20
58.4022
 30
0.0
 40
1
 41
1
  0
VERTEX
  8
0
 10
723.372
 20
60.001
 30
0.0
 40
1
 41
1
  0
VERTEX
  8
0
 10
725.953
 20
61.2737
 30
0.0
 40
1
 41
1
  0
VERTEX
  8
0
 10
728.678
 20
62.1989
 30
0.0
 40
1
 41
1
  0
VERTEX
  8
0
 10
731.501
 20
62.7603
 30
0.0
 40
1
 41
1
  0
VERTEX
  8
0
 10
733.757
 20
63.0264
 30
0.0
 40
1
 41
1
  0
VERTEX
  8
0
 10
736.018
 20
63.2317
 30
0.0
 40
1
 41
1
  0
VERTEX
  8
0
 10
738.285
 20
63.3761
 30
0.0
 40
1
 41
1
  0
VERTEX
  8
0
 10
740.554
 20
63.4594
 30
0.0
 40
1
 41
1
  0
VERTEX
  8
0
 10
742.826
 20
63.4817
 30
0.0
 40
1
 41
1
  0
VERTEX
  8
0
 10
745.097
 20
63.4429
 30
0.0
 40
1
 41
1
  0
VERTEX
  8
0
 10
747.365
 20
63.3429
 30
0.0
 40
1
 41
1
  0
VERTEX
  8
0
 10
749.632
 20
63.1819
 30
0.0
 40
1
 41
1
  0
VERTEX
  8
0
 10
751.892
 20
62.9601
 30
0.0
 40
1
 41
1
  0
VERTEX
  8
0
 10
754.146
 20
62.6775
 30
0.0
 40
1
 41
1
  0
VERTEX
  8
0
 10
756.39
 20
62.3343
 30
0.0
 40
1
 41
1
  0
VERTEX
  8
0
 10
758.625
 20
61.9308
 30
0.0
 40
1
 41
1
  0
VERTEX
  8
0
 10
760.849
 20
61.4675
 30
0.0
 40
1
 41
1
  0
VERTEX
  8
0
 10
763.06
 20
60.9443
 30
0.0
 40
1
 41
1
  0
VERTEX
  8
0
 10
765.254
 20
60.3619
 30
0.0
 40
1
 41
1
  0
VERTEX
  8
0
 10
767.433
 20
59.7207
 30
0.0
 40
1
 41
1
  0
VERTEX
  8
0
 10
769.594
 20
59.0211
 30
0.0
 40
1
 41
1
  0
VERTEX
  8
0
 10
771.735
 20
58.2636
 30
0.0
 40
1
 41
1
  0
VERTEX
  8
0
 10
773.856
 20
57.4488
 30
0.0
 40
1
 41
1
  0
VERTEX
  8
0
 10
775.953
 20
56.5771
 30
0.0
 40
1
 41
1
  0
VERTEX
  8
0
 10
778.026
 20
55.6494
 30
0.0
 40
1
 41
1
  0
VERTEX
  8
0
 10
780.074
 20
54.6663
 30
0.0
 40
1
 41
1
  0
VERTEX
  8
0
 10
782.093
 20
53.6283
 30
0.0
 40
1
 41
1
  0
VERTEX
  8
0
 10
784.085
 20
52.5364
 30
0.0
 40
1
 41
1
  0
VERTEX
  8
0
 10
784.607
 20
48.5707
 30
0.0
 40
1
 41
1
  0
VERTEX
  8
0
 10
814.342
 20
52.5574
 30
0.0
 40
1
 41
1
  0
VERTEX
  8
0
 10
844.342
 20
52.5574
 30
0.0
 40
1
 41
1
  0
VERTEX
  8
0
 10
844.342
 20
245.157
 30
0.0
 40
1
 41
1
  0
SEQEND
 8
0
  0
POLYLINE
  8
0
 62
     0
 66
     1
 10
0
 20
0
 30
0.0
 70
     1
 40
72
 41
72
  0
VERTEX
  8
0
 10
829.989
 20
198.089
 30
0.0
 40
1
 41
1
  0
VERTEX
  8
0
 10
830.592
 20
198.339
 30
0.0
 40
1
 41
1
  0
VERTEX
  8
0
 10
831.108
 20
198.736
 30
0.0
 40
1
 41
1
  0
VERTEX
  8
0
 10
831.507
 20
199.254
 30
0.0
 40
1
 41
1
  0
VERTEX
  8
0
 10
831.756
 20
199.857
 30
0.0
 40
1
 41
1
  0
VERTEX
  8
0
 10
831.842
 20
200.504
 30
0.0
 40
1
 41
1
  0
VERTEX
  8
0
 10
831.756
 20
201.15
 30
0.0
 40
1
 41
1
  0
VERTEX
  8
0
 10
831.507
 20
201.754
 30
0.0
 40
1
 41
1
  0
VERTEX
  8
0
 10
831.108
 20
202.271
 30
0.0
 40
1
 41
1
  0
VERTEX
  8
0
 10
830.592
 20
202.668
 30
0.0
 40
1
 41
1
  0
VERTEX
  8
0
 10
829.989
 20
202.918
 30
0.0
 40
1
 41
1
  0
VERTEX
  8
0
 10
829.342
 20
203.004
 30
0.0
 40
1
 41
1
  0
VERTEX
  8
0
 10
828.694
 20
202.918
 30
0.0
 40
1
 41
1
  0
VERTEX
  8
0
 10
828.092
 20
202.668
 30
0.0
 40
1
 41
1
  0
VERTEX
  8
0
 10
827.574
 20
202.271
 30
0.0
 40
1
 41
1
  0
VERTEX
  8
0
 10
827.176
 20
201.754
 30
0.0
 40
1
 41
1
  0
VERTEX
  8
0
 10
826.926
 20
201.15
 30
0.0
 40
1
 41
1
  0
VERTEX
  8
0
 10
826.842
 20
200.504
 30
0.0
 40
1
 41
1
  0
VERTEX
  8
0
 10
826.926
 20
199.857
 30
0.0
 40
1
 41
1
  0
VERTEX
  8
0
 10
827.176
 20
199.254
 30
0.0
 40
1
 41
1
  0
VERTEX
  8
0
 10
827.574
 20
198.736
 30
0.0
 40
1
 41
1
  0
VERTEX
  8
0
 10
828.092
 20
198.339
 30
0.0
 40
1
 41
1
  0
VERTEX
  8
0
 10
828.694
 20
198.089
 30
0.0
 40
1
 41
1
  0
VERTEX
  8
0
 10
829.342
 20
198.004
 30
0.0
 40
1
 41
1
  0
VERTEX
  8
0
 10
829.989
 20
198.089
 30
0.0
 40
1
 41
1
  0
SEQEND
 8
0
  0
POLYLINE
  8
0
 62
     0
 66
     1
 10
0
 20
0
 30
0.0
 70
     1
 40
72
 41
72
  0
VERTEX
  8
0
 10
542.99
 20
169.233
 30
0.0
 40
1
 41
1
  0
VERTEX
  8
0
 10
543.747
 20
169.34
 30
0.0
 40
1
 41
1
  0
VERTEX
  8
0
 10
544.137
 20
169.369
 30
0.0
 40
1
 41
1
  0
VERTEX
  8
0
 10
544.528
 20
169.347
 30
0.0
 40
1
 41
1
  0
VERTEX
  8
0
 10
544.912
 20
169.274
 30
0.0
 40
1
 41
1
  0
VERTEX
  8
0
 10
545.283
 20
169.151
 30
0.0
 40
1
 41
1
  0
VERTEX
  8
0
 10
545.636
 20
168.981
 30
0.0
 40
1
 41
1
  0
VERTEX
  8
0
 10
545.963
 20
168.765
 30
0.0
 40
1
 41
1
  0
VERTEX
  8
0
 10
546.258
 20
168.508
 30
0.0
 40
1
 41
1
  0
VERTEX
  8
0
 10
546.518
 20
168.215
 30
0.0
 40
1
 41
1
  0
VERTEX
  8
0
 10
546.738
 20
167.892
 30
0.0
 40
1
 41
1
  0
VERTEX
  8
0
 10
546.911
 20
167.54
 30
0.0
 40
1
 41
1
  0
VERTEX
  8
0
 10
547.039
 20
167.171
 30
0.0
 40
1
 41
1
  0
VERTEX
  8
0
 10
547.115
 20
166.786
 30
0.0
 40
1
 41
1
  0
VERTEX
  8
0
 10
563.728
 20
42.8879
 30
0.0
 40
1
 41
1
  0
VERTEX
  8
0
 10
563.993
 20
41.5329
 30
0.0
 40
1
 41
1
  0
VERTEX
  8
0
 10
564.418
 20
40.2193
 30
0.0
 40
1
 41
1
  0
VERTEX
  8
0
 10
564.997
 20
38.966
 30
0.0
 40
1
 41
1
  0
VERTEX
  8
0
 10
565.722
 20
37.7907
 30
0.0
 40
1
 41
1
  0
VERTEX
  8
0
 10
566.582
 20
36.7106
 30
0.0
 40
1
 41
1
  0
VERTEX
  8
0
 10
567.565
 20
35.7408
 30
0.0
 40
1
 41
1
  0
VERTEX
  8
0
 10
568.657
 20
34.8956
 30
0.0
 40
1
 41
1
  0
VERTEX
  8
0
 10
569.842
 20
34.1868
 30
0.0
 40
1
 41
1
  0
VERTEX
  8
0
 10
571.103
 20
33.6247
 30
0.0
 40
1
 41
1
  0
VERTEX
  8
0
 10
572.422
 20
33.2174
 30
0.0
 40
1
 41
1
  0
VERTEX
  8
0
 10
573.781
 20
32.9706
 30
0.0
 40
1
 41
1
  0
VERTEX
  8
0
 10
575.158
 20
32.8879
 30
0.0
 40
1
 41
1
  0
VERTEX
  8
0
 10
672.657
 20
32.8879
 30
0.0
 40
1
 41
1
  0
VERTEX
  8
0
 10
676.54
 20
32.3768
 30
0.0
 40
1
 41
1
  0
VERTEX
  8
0
 10
680.157
 20
30.8783
 30
0.0
 40
1
 41
1
  0
VERTEX
  8
0
 10
683.264
 20
28.4946
 30
0.0
 40
1
 41
1
  0
VERTEX
  8
0
 10
685.647
 20
25.3879
 30
0.0
 40
1
 41
1
  0
VERTEX
  8
0
 10
687.146
 20
21.7703
 30
0.0
 40
1
 41
1
  0
VERTEX
  8
0
 10
687.657
 20
17.8879
 30
0.0
 40
1
 41
1
  0
VERTEX
  8
0
 10
687.146
 20
14.0057
 30
0.0
 40
1
 41
1
  0
VERTEX
  8
0
 10
685.647
 20
10.388
 30
0.0
 40
1
 41
1
  0
VERTEX
  8
0
 10
683.264
 20
7.28136
 30
0.0
 40
1
 41
1
  0
VERTEX
  8
0
 10
680.157
 20
4.89757
 30
0.0
 40
1
 41
1
  0
VERTEX
  8
0
 10
676.54
 20
3.39908
 30
0.0
 40
1
 41
1
  0
VERTEX
  8
0
 10
672.657
 20
2.88797
 30
0.0
 40
1
 41
1
  0
VERTEX
  8
0
 10
524.711
 20
2.88797
 30
0.0
 40
1
 41
1
  0
VERTEX
  8
0
 10
524.711
 20
32.8879
 30
0.0
 40
1
 41
1
  0
VERTEX
  8
0
 10
520.725
 20
62.6219
 30
0.0
 40
1
 41
1
  0
VERTEX
  8
0
 10
524.69
 20
63.144
 30
0.0
 40
1
 41
1
  0
VERTEX
  8
0
 10
525.782
 20
65.1357
 30
0.0
 40
1
 41
1
  0
VERTEX
  8
0
 10
526.819
 20
67.1558
 30
0.0
 40
1
 41
1
  0
VERTEX
  8
0
 10
527.803
 20
69.2033
 30
0.0
 40
1
 41
1
  0
VERTEX
  8
0
 10
528.731
 20
71.2764
 30
0.0
 40
1
 41
1
  0
VERTEX
  8
0
 10
529.603
 20
73.3738
 30
0.0
 40
1
 41
1
  0
VERTEX
  8
0
 10
530.418
 20
75.4937
 30
0.0
 40
1
 41
1
  0
VERTEX
  8
0
 10
531.175
 20
77.635
 30
0.0
 40
1
 41
1
  0
VERTEX
  8
0
 10
531.875
 20
79.7958
 30
0.0
 40
1
 41
1
  0
VERTEX
  8
0
 10
532.515
 20
81.9746
 30
0.0
 40
1
 41
1
  0
VERTEX
  8
0
 10
533.099
 20
84.1699
 30
0.0
 40
1
 41
1
  0
VERTEX
  8
0
 10
533.621
 20
86.3801
 30
0.0
 40
1
 41
1
  0
VERTEX
  8
0
 10
534.085
 20
88.6036
 30
0.0
 40
1
 41
1
  0
VERTEX
  8
0
 10
534.488
 20
90.8388
 30
0.0
 40
1
 41
1
  0
VERTEX
  8
0
 10
534.832
 20
93.0839
 30
0.0
 40
1
 41
1
  0
VERTEX
  8
0
 10
535.114
 20
95.3375
 30
0.0
 40
1
 41
1
  0
VERTEX
  8
0
 10
535.336
 20
97.5979
 30
0.0
 40
1
 41
1
  0
VERTEX
  8
0
 10
535.497
 20
99.8633
 30
0.0
 40
1
 41
1
  0
VERTEX
  8
0
 10
535.597
 20
102.133
 30
0.0
 40
1
 41
1
  0
VERTEX
  8
0
 10
535.636
 20
104.403
 30
0.0
 40
1
 41
1
  0
VERTEX
  8
0
 10
535.614
 20
106.674
 30
0.0
 40
1
 41
1
  0
VERTEX
  8
0
 10
535.531
 20
108.944
 30
0.0
 40
1
 41
1
  0
VERTEX
  8
0
 10
535.386
 20
111.211
 30
0.0
 40
1
 41
1
  0
VERTEX
  8
0
 10
535.181
 20
113.473
 30
0.0
 40
1
 41
1
  0
VERTEX
  8
0
 10
534.914
 20
115.728
 30
0.0
 40
1
 41
1
  0
VERTEX
  8
0
 10
534.353
 20
118.551
 30
0.0
 40
1
 41
1
  0
VERTEX
  8
0
 10
533.428
 20
121.276
 30
0.0
 40
1
 41
1
  0
VERTEX
  8
0
 10
532.154
 20
123.857
 30
0.0
 40
1
 41
1
  0
VERTEX
  8
0
 10
530.556
 20
126.25
 30
0.0
 40
1
 41
1
  0
VERTEX
  8
0
 10
528.658
 20
128.413
 30
0.0
 40
1
 41
1
  0
VERTEX
  8
0
 10
526.494
 20
130.311
 30
0.0
 40
1
 41
1
  0
VERTEX
  8
0
 10
524.103
 20
131.909
 30
0.0
 40
1
 41
1
  0
VERTEX
  8
0
 10
521.521
 20
133.182
 30
0.0
 40
1
 41
1
  0
VERTEX
  8
0
 10
518.796
 20
134.107
 30
0.0
 40
1
 41
1
  0
VERTEX
  8
0
 10
515.974
 20
134.669
 30
0.0
 40
1
 41
1
  0
VERTEX
  8
0
 10
513.103
 20
134.857
 30
0.0
 40
1
 41
1
  0
VERTEX
  8
0
 10
511.231
 20
134.734
 30
0.0
 40
1
 41
1
  0
VERTEX
  8
0
 10
507.307
 20
164.543
 30
0.0
 40
1
 41
1
  0
VERTEX
  8
0
 10
542.99
 20
169.233
 30
0.0
 40
1
 41
1
  0
SEQEND
 8
0
  0
POLYLINE
  8
0
 62
     0
 66
     1
 10
0
 20
0
 30
0.0
 70
     1
 40
72
 41
72
  0
VERTEX
  8
0
 10
670.243
 20
17.241
 30
0.0
 40
1
 41
1
  0
VERTEX
  8
0
 10
670.492
 20
16.6379
 30
0.0
 40
1
 41
1
  0
VERTEX
  8
0
 10
670.889
 20
16.1201
 30
0.0
 40
1
 41
1
  0
VERTEX
  8
0
 10
671.407
 20
15.7229
 30
0.0
 40
1
 41
1
  0
VERTEX
  8
0
 10
672.01
 20
15.4732
 30
0.0
 40
1
 41
1
  0
VERTEX
  8
0
 10
672.657
 20
15.3879
 30
0.0
 40
1
 41
1
  0
VERTEX
  8
0
 10
673.304
 20
15.4732
 30
0.0
 40
1
 41
1
  0
VERTEX
  8
0
 10
673.907
 20
15.7229
 30
0.0
 40
1
 41
1
  0
VERTEX
  8
0
 10
674.425
 20
16.1201
 30
0.0
 40
1
 41
1
  0
VERTEX
  8
0
 10
674.822
 20
16.6379
 30
0.0
 40
1
 41
1
  0
VERTEX
  8
0
 10
675.072
 20
17.241
 30
0.0
 40
1
 41
1
  0
VERTEX
  8
0
 10
675.157
 20
17.8879
 30
0.0
 40
1
 41
1
  0
VERTEX
  8
0
 10
675.072
 20
18.535
 30
0.0
 40
1
 41
1
  0
VERTEX
  8
0
 10
674.822
 20
19.1379
 30
0.0
 40
1
 41
1
  0
VERTEX
  8
0
 10
674.425
 20
19.6557
 30
0.0
 40
1
 41
1
  0
VERTEX
  8
0
 10
673.907
 20
20.0531
 30
0.0
 40
1
 41
1
  0
VERTEX
  8
0
 10
673.304
 20
20.3028
 30
0.0
 40
1
 41
1
  0
VERTEX
  8
0
 10
672.657
 20
20.3879
 30
0.0
 40
1
 41
1
  0
VERTEX
  8
0
 10
672.01
 20
20.3028
 30
0.0
 40
1
 41
1
  0
VERTEX
  8
0
 10
671.407
 20
20.0531
 30
0.0
 40
1
 41
1
  0
VERTEX
  8
0
 10
670.889
 20
19.6557
 30
0.0
 40
1
 41
1
  0
VERTEX
  8
0
 10
670.492
 20
19.1379
 30
0.0
 40
1
 41
1
  0
VERTEX
  8
0
 10
670.243
 20
18.535
 30
0.0
 40
1
 41
1
  0
VERTEX
  8
0
 10
670.157
 20
17.8879
 30
0.0
 40
1
 41
1
  0
VERTEX
  8
0
 10
670.243
 20
17.241
 30
0.0
 40
1
 41
1
  0
SEQEND
 8
0
  0
POLYLINE
  8
0
 62
     0
 66
     1
 10
0
 20
0
 30
0.0
 40
72
 41
72
  0
VERTEX
  8
0
 10
844.342
 20
115.157
 30
0.0
 40
1
 41
1
  0
VERTEX
  8
0
 10
939.151
 20
115.157
 30
0.0
 40
1
 41
1
  0
VERTEX
  8
0
 10
941.351
 20
115.446
 30
0.0
 40
1
 41
1
  0
VERTEX
  8
0
 10
943.401
 20
116.296
 30
0.0
 40
1
 41
1
  0
VERTEX
  8
0
 10
945.163
 20
117.646
 30
0.0
 40
1
 41
1
  0
VERTEX
  8
0
 10
946.514
 20
119.407
 30
0.0
 40
1
 41
1
  0
VERTEX
  8
0
 10
947.363
 20
121.457
 30
0.0
 40
1
 41
1
  0
VERTEX
  8
0
 10
947.651
 20
123.657
 30
0.0
 40
1
 41
1
  0
VERTEX
  8
0
 10
947.363
 20
125.857
 30
0.0
 40
1
 41
1
  0
VERTEX
  8
0
 10
946.514
 20
127.907
 30
0.0
 40
1
 41
1
  0
VERTEX
  8
0
 10
945.163
 20
129.667
 30
0.0
 40
1
 41
1
  0
VERTEX
  8
0
 10
943.401
 20
131.018
 30
0.0
 40
1
 41
1
  0
VERTEX
  8
0
 10
941.351
 20
131.867
 30
0.0
 40
1
 41
1
  0
VERTEX
  8
0
 10
912.511
 20
135.678
 30
0.0
 40
1
 41
1
  0
VERTEX
  8
0
 10
910.654
 20
136.003
 30
0.0
 40
1
 41
1
  0
VERTEX
  8
0
 10
908.814
 20
136.406
 30
0.0
 40
1
 41
1
  0
VERTEX
  8
0
 10
906.99
 20
136.885
 30
0.0
 40
1
 41
1
  0
VERTEX
  8
0
 10
905.189
 20
137.44
 30
0.0
 40
1
 41
1
  0
VERTEX
  8
0
 10
903.412
 20
138.07
 30
0.0
 40
1
 41
1
  0
VERTEX
  8
0
 10
901.665
 20
138.774
 30
0.0
 40
1
 41
1
  0
VERTEX
  8
0
 10
899.947
 20
139.55
 30
0.0
 40
1
 41
1
  0
VERTEX
  8
0
 10
898.264
 20
140.399
 30
0.0
 40
1
 41
1
  0
VERTEX
  8
0
 10
896.618
 20
141.315
 30
0.0
 40
1
 41
1
  0
VERTEX
  8
0
 10
895.011
 20
142.301
 30
0.0
 40
1
 41
1
  0
VERTEX
  8
0
 10
893.447
 20
143.353
 30
0.0
 40
1
 41
1
  0
VERTEX
  8
0
 10
891.929
 20
144.469
 30
0.0
 40
1
 41
1
  0
VERTEX
  8
0
 10
890.458
 20
145.649
 30
0.0
 40
1
 41
1
  0
VERTEX
  8
0
 10
889.039
 20
146.889
 30
0.0
 40
1
 41
1
  0
VERTEX
  8
0
 10
887.672
 20
148.188
 30
0.0
 40
1
 41
1
  0
VERTEX
  8
0
 10
886.361
 20
149.542
 30
0.0
 40
1
 41
1
  0
VERTEX
  8
0
 10
885.108
 20
150.949
 30
0.0
 40
1
 41
1
  0
VERTEX
  8
0
 10
883.915
 20
152.408
 30
0.0
 40
1
 41
1
  0
VERTEX
  8
0
 10
882.783
 20
153.917
 30
0.0
 40
1
 41
1
  0
VERTEX
  8
0
 10
881.717
 20
155.469
 30
0.0
 40
1
 41
1
  0
VERTEX
  8
0
 10
880.717
 20
157.067
 30
0.0
 40
1
 41
1
  0
VERTEX
  8
0
 10
879.783
 20
158.706
 30
0.0
 40
1
 41
1
  0
VERTEX
  8
0
 10
878.919
 20
160.381
 30
0.0
 40
1
 41
1
  0
VERTEX
  8
0
 10
878.126
 20
162.09
 30
0.0
 40
1
 41
1
  0
VERTEX
  8
0
 10
877.407
 20
163.832
 30
0.0
 40
1
 41
1
  0
VERTEX
  8
0
 10
876.76
 20
165.603
 30
0.0
 40
1
 41
1
  0
VERTEX
  8
0
 10
876.188
 20
167.399
 30
0.0
 40
1
 41
1
  0
VERTEX
  8
0
 10
875.692
 20
169.217
 30
0.0
 40
1
 41
1
  0
VERTEX
  8
0
 10
875.271
 20
171.054
 30
0.0
 40
1
 41
1
  0
VERTEX
  8
0
 10
874.929
 20
172.907
 30
0.0
 40
1
 41
1
  0
VERTEX
  8
0
 10
874.664
 20
174.774
 30
0.0
 40
1
 41
1
  0
VERTEX
  8
0
 10
874.478
 20
176.649
 30
0.0
 40
1
 41
1
  0
VERTEX
  8
0
 10
874.371
 20
178.531
 30
0.0
 40
1
 41
1
  0
VERTEX
  8
0
 10
874.346
 20
180.157
 30
0.0
 40
1
 41
1
  0
VERTEX
  8
0
 10
874.371
 20
181.782
 30
0.0
 40
1
 41
1
  0
VERTEX
  8
0
 10
874.478
 20
183.664
 30
0.0
 40
1
 41
1
  0
VERTEX
  8
0
 10
874.664
 20
185.54
 30
0.0
 40
1
 41
1
  0
VERTEX
  8
0
 10
874.929
 20
187.406
 30
0.0
 40
1
 41
1
  0
VERTEX
  8
0
 10
875.271
 20
189.26
 30
0.0
 40
1
 41
1
  0
VERTEX
  8
0
 10
875.692
 20
191.097
 30
0.0
 40
1
 41
1
  0
VERTEX
  8
0
 10
876.188
 20
192.915
 30
0.0
 40
1
 41
1
  0
VERTEX
  8
0
 10
876.76
 20
194.711
 30
0.0
 40
1
 41
1
  0
VERTEX
  8
0
 10
877.407
 20
196.482
 30
0.0
 40
1
 41
1
  0
VERTEX
  8
0
 10
878.126
 20
198.224
 30
0.0
 40
1
 41
1
  0
VERTEX
  8
0
 10
878.919
 20
199.933
 30
0.0
 40
1
 41
1
  0
VERTEX
  8
0
 10
879.783
 20
201.608
 30
0.0
 40
1
 41
1
  0
VERTEX
  8
0
 10
880.717
 20
203.246
 30
0.0
 40
1
 41
1
  0
VERTEX
  8
0
 10
881.717
 20
204.843
 30
0.0
 40
1
 41
1
  0
VERTEX
  8
0
 10
882.783
 20
206.397
 30
0.0
 40
1
 41
1
  0
VERTEX
  8
0
 10
883.915
 20
207.906
 30
0.0
 40
1
 41
1
  0
VERTEX
  8
0
 10
885.108
 20
209.364
 30
0.0
 40
1
 41
1
  0
VERTEX
  8
0
 10
886.361
 20
210.772
 30
0.0
 40
1
 41
1
  0
VERTEX
  8
0
 10
887.672
 20
212.126
 30
0.0
 40
1
 41
1
  0
VERTEX
  8
0
 10
889.039
 20
213.425
 30
0.0
 40
1
 41
1
  0
VERTEX
  8
0
 10
890.458
 20
214.664
 30
0.0
 40
1
 41
1
  0
VERTEX
  8
0
 10
891.929
 20
215.843
 30
0.0
 40
1
 41
1
  0
VERTEX
  8
0
 10
893.447
 20
216.96
 30
0.0
 40
1
 41
1
  0
VERTEX
  8
0
 10
895.011
 20
218.013
 30
0.0
 40
1
 41
1
  0
VERTEX
  8
0
 10
896.618
 20
218.997
 30
0.0
 40
1
 41
1
  0
VERTEX
  8
0
 10
898.264
 20
219.915
 30
0.0
 40
1
 41
1
  0
VERTEX
  8
0
 10
899.947
 20
220.763
 30
0.0
 40
1
 41
1
  0
VERTEX
  8
0
 10
901.665
 20
221.539
 30
0.0
 40
1
 41
1
  0
VERTEX
  8
0
 10
903.412
 20
222.243
 30
0.0
 40
1
 41
1
  0
VERTEX
  8
0
 10
905.189
 20
222.874
 30
0.0
 40
1
 41
1
  0
VERTEX
  8
0
 10
906.99
 20
223.429
 30
0.0
 40
1
 41
1
  0
VERTEX
  8
0
 10
908.814
 20
223.908
 30
0.0
 40
1
 41
1
  0
VERTEX
  8
0
 10
910.654
 20
224.31
 30
0.0
 40
1
 41
1
  0
VERTEX
  8
0
 10
912.511
 20
224.636
 30
0.0
 40
1
 41
1
  0
VERTEX
  8
0
 10
941.351
 20
228.446
 30
0.0
 40
1
 41
1
  0
VERTEX
  8
0
 10
943.401
 20
229.296
 30
0.0
 40
1
 41
1
  0
VERTEX
  8
0
 10
945.163
 20
230.646
 30
0.0
 40
1
 41
1
  0
VERTEX
  8
0
 10
946.514
 20
232.407
 30
0.0
 40
1
 41
1
  0
VERTEX
  8
0
 10
947.363
 20
234.457
 30
0.0
 40
1
 41
1
  0
VERTEX
  8
0
 10
947.651
 20
236.657
 30
0.0
 40
1
 41
1
  0
VERTEX
  8
0
 10
947.363
 20
238.857
 30
0.0
 40
1
 41
1
  0
VERTEX
  8
0
 10
946.514
 20
240.907
 30
0.0
 40
1
 41
1
  0
VERTEX
  8
0
 10
945.163
 20
242.667
 30
0.0
 40
1
 41
1
  0
VERTEX
  8
0
 10
943.401
 20
244.018
 30
0.0
 40
1
 41
1
  0
VERTEX
  8
0
 10
941.351
 20
244.867
 30
0.0
 40
1
 41
1
  0
VERTEX
  8
0
 10
939.151
 20
245.157
 30
0.0
 40
1
 41
1
  0
VERTEX
  8
0
 10
844.342
 20
245.157
 30
0.0
 40
1
 41
1
  0
SEQEND
 8
0
  0
POLYLINE
  8
0
 62
     0
 66
     1
 10
0
 20
0
 30
0.0
 70
     1
 40
72
 41
72
  0
VERTEX
  8
0
 10
939.151
 20
234.157
 30
0.0
 40
1
 41
1
  0
VERTEX
  8
0
 10
939.799
 20
234.242
 30
0.0
 40
1
 41
1
  0
VERTEX
  8
0
 10
940.401
 20
234.492
 30
0.0
 40
1
 41
1
  0
VERTEX
  8
0
 10
940.919
 20
234.889
 30
0.0
 40
1
 41
1
  0
VERTEX
  8
0
 10
941.317
 20
235.407
 30
0.0
 40
1
 41
1
  0
VERTEX
  8
0
 10
941.567
 20
236.01
 30
0.0
 40
1
 41
1
  0
VERTEX
  8
0
 10
941.651
 20
236.657
 30
0.0
 40
1
 41
1
  0
VERTEX
  8
0
 10
941.567
 20
237.304
 30
0.0
 40
1
 41
1
  0
VERTEX
  8
0
 10
941.317
 20
237.907
 30
0.0
 40
1
 41
1
  0
VERTEX
  8
0
 10
940.919
 20
238.425
 30
0.0
 40
1
 41
1
  0
VERTEX
  8
0
 10
940.401
 20
238.822
 30
0.0
 40
1
 41
1
  0
VERTEX
  8
0
 10
939.799
 20
239.071
 30
0.0
 40
1
 41
1
  0
VERTEX
  8
0
 10
939.151
 20
239.157
 30
0.0
 40
1
 41
1
  0
VERTEX
  8
0
 10
938.506
 20
239.071
 30
0.0
 40
1
 41
1
  0
VERTEX
  8
0
 10
937.901
 20
238.822
 30
0.0
 40
1
 41
1
  0
VERTEX
  8
0
 10
937.385
 20
238.425
 30
0.0
 40
1
 41
1
  0
VERTEX
  8
0
 10
936.988
 20
237.907
 30
0.0
 40
1
 41
1
  0
VERTEX
  8
0
 10
936.738
 20
237.304
 30
0.0
 40
1
 41
1
  0
VERTEX
  8
0
 10
936.651
 20
236.657
 30
0.0
 40
1
 41
1
  0
VERTEX
  8
0
 10
936.738
 20
236.01
 30
0.0
 40
1
 41
1
  0
VERTEX
  8
0
 10
936.988
 20
235.407
 30
0.0
 40
1
 41
1
  0
VERTEX
  8
0
 10
937.385
 20
234.889
 30
0.0
 40
1
 41
1
  0
VERTEX
  8
0
 10
937.901
 20
234.492
 30
0.0
 40
1
 41
1
  0
VERTEX
  8
0
 10
938.506
 20
234.242
 30
0.0
 40
1
 41
1
  0
VERTEX
  8
0
 10
939.151
 20
234.157
 30
0.0
 40
1
 41
1
  0
SEQEND
 8
0
  0
POLYLINE
  8
0
 62
     0
 66
     1
 10
0
 20
0
 30
0.0
 70
     1
 40
72
 41
72
  0
VERTEX
  8
0
 10
939.799
 20
126.072
 30
0.0
 40
1
 41
1
  0
VERTEX
  8
0
 10
939.151
 20
126.157
 30
0.0
 40
1
 41
1
  0
VERTEX
  8
0
 10
938.506
 20
126.072
 30
0.0
 40
1
 41
1
  0
VERTEX
  8
0
 10
937.901
 20
125.822
 30
0.0
 40
1
 41
1
  0
VERTEX
  8
0
 10
937.385
 20
125.424
 30
0.0
 40
1
 41
1
  0
VERTEX
  8
0
 10
936.988
 20
124.907
 30
0.0
 40
1
 41
1
  0
VERTEX
  8
0
 10
936.738
 20
124.304
 30
0.0
 40
1
 41
1
  0
VERTEX
  8
0
 10
936.651
 20
123.657
 30
0.0
 40
1
 41
1
  0
VERTEX
  8
0
 10
936.738
 20
123.01
 30
0.0
 40
1
 41
1
  0
VERTEX
  8
0
 10
936.988
 20
122.407
 30
0.0
 40
1
 41
1
  0
VERTEX
  8
0
 10
937.385
 20
121.889
 30
0.0
 40
1
 41
1
  0
VERTEX
  8
0
 10
937.901
 20
121.492
 30
0.0
 40
1
 41
1
  0
VERTEX
  8
0
 10
938.506
 20
121.242
 30
0.0
 40
1
 41
1
  0
VERTEX
  8
0
 10
939.151
 20
121.157
 30
0.0
 40
1
 41
1
  0
VERTEX
  8
0
 10
939.799
 20
121.242
 30
0.0
 40
1
 41
1
  0
VERTEX
  8
0
 10
940.401
 20
121.492
 30
0.0
 40
1
 41
1
  0
VERTEX
  8
0
 10
940.919
 20
121.889
 30
0.0
 40
1
 41
1
  0
VERTEX
  8
0
 10
941.317
 20
122.407
 30
0.0
 40
1
 41
1
  0
VERTEX
  8
0
 10
941.567
 20
123.01
 30
0.0
 40
1
 41
1
  0
VERTEX
  8
0
 10
941.651
 20
123.657
 30
0.0
 40
1
 41
1
  0
VERTEX
  8
0
 10
941.567
 20
124.304
 30
0.0
 40
1
 41
1
  0
VERTEX
  8
0
 10
941.317
 20
124.907
 30
0.0
 40
1
 41
1
  0
VERTEX
  8
0
 10
940.919
 20
125.424
 30
0.0
 40
1
 41
1
  0
VERTEX
  8
0
 10
940.401
 20
125.822
 30
0.0
 40
1
 41
1
  0
VERTEX
  8
0
 10
939.799
 20
126.072
 30
0.0
 40
1
 41
1
  0
SEQEND
 8
0
  0
POLYLINE
  8
0
 62
     0
 66
     1
 10
0
 20
0
 30
0.0
 70
     1
 40
72
 41
72
  0
VERTEX
  8
0
 10
266.876
 20
86.6665
 30
0.0
 40
1
 41
1
  0
VERTEX
  8
0
 10
269.274
 20
85.9117
 30
0.0
 40
1
 41
1
  0
VERTEX
  8
0
 10
271.618
 20
85.0076
 30
0.0
 40
1
 41
1
  0
VERTEX
  8
0
 10
273.901
 20
83.9582
 30
0.0
 40
1
 41
1
  0
VERTEX
  8
0
 10
276.114
 20
82.7675
 30
0.0
 40
1
 41
1
  0
VERTEX
  8
0
 10
278.247
 20
81.4403
 30
0.0
 40
1
 41
1
  0
VERTEX
  8
0
 10
280.294
 20
79.9815
 30
0.0
 40
1
 41
1
  0
VERTEX
  8
0
 10
282.244
 20
78.3974
 30
0.0
 40
1
 41
1
  0
VERTEX
  8
0
 10
284.092
 20
76.6938
 30
0.0
 40
1
 41
1
  0
VERTEX
  8
0
 10
285.828
 20
74.8775
 30
0.0
 40
1
 41
1
  0
VERTEX
  8
0
 10
287.447
 20
72.9557
 30
0.0
 40
1
 41
1
  0
VERTEX
  8
0
 10
288.943
 20
70.9363
 30
0.0
 40
1
 41
1
  0
VERTEX
  8
0
 10
290.308
 20
68.8267
 30
0.0
 40
1
 41
1
  0
VERTEX
  8
0
 10
291.539
 20
66.6357
 30
0.0
 40
1
 41
1
  0
VERTEX
  8
0
 10
292.629
 20
64.3717
 30
0.0
 40
1
 41
1
  0
VERTEX
  8
0
 10
293.575
 20
62.0437
 30
0.0
 40
1
 41
1
  0
VERTEX
  8
0
 10
294.374
 20
59.661
 30
0.0
 40
1
 41
1
  0
VERTEX
  8
0
 10
295.019
 20
57.2328
 30
0.0
 40
1
 41
1
  0
VERTEX
  8
0
 10
295.513
 20
54.7688
 30
0.0
 40
1
 41
1
  0
VERTEX
  8
0
 10
295.85
 20
52.2786
 30
0.0
 40
1
 41
1
  0
VERTEX
  8
0
 10
296.031
 20
49.7722
 30
0.0
 40
1
 41
1
  0
VERTEX
  8
0
 10
296.053
 20
47.2594
 30
0.0
 40
1
 41
1
  0
VERTEX
  8
0
 10
295.918
 20
44.7503
 30
0.0
 40
1
 41
1
  0
VERTEX
  8
0
 10
295.625
 20
42.2544
 30
0.0
 40
1
 41
1
  0
VERTEX
  8
0
 10
295.176
 20
39.7819
 30
0.0
 40
1
 41
1
  0
VERTEX
  8
0
 10
294.574
 20
37.3425
 30
0.0
 40
1
 41
1
  0
VERTEX
  8
0
 10
293.819
 20
34.9457
 30
0.0
 40
1
 41
1
  0
VERTEX
  8
0
 10
292.915
 20
32.6011
 30
0.0
 40
1
 41
1
  0
VERTEX
  8
0
 10
291.865
 20
30.3179
 30
0.0
 40
1
 41
1
  0
VERTEX
  8
0
 10
290.675
 20
28.105
 30
0.0
 40
1
 41
1
  0
VERTEX
  8
0
 10
289.347
 20
25.9714
 30
0.0
 40
1
 41
1
  0
VERTEX
  8
0
 10
287.889
 20
23.9251
 30
0.0
 40
1
 41
1
  0
VERTEX
  8
0
 10
286.304
 20
21.9747
 30
0.0
 40
1
 41
1
  0
VERTEX
  8
0
 10
284.601
 20
20.1275
 30
0.0
 40
1
 41
1
  0
VERTEX
  8
0
 10
282.785
 20
18.3908
 30
0.0
 40
1
 41
1
  0
VERTEX
  8
0
 10
280.862
 20
16.7717
 30
0.0
 40
1
 41
1
  0
VERTEX
  8
0
 10
278.843
 20
15.2765
 30
0.0
 40
1
 41
1
  0
VERTEX
  8
0
 10
276.735
 20
13.911
 30
0.0
 40
1
 41
1
  0
VERTEX
  8
0
 10
274.543
 20
12.6806
 30
0.0
 40
1
 41
1
  0
VERTEX
  8
0
 10
272.279
 20
11.5902
 30
0.0
 40
1
 41
1
  0
VERTEX
  8
0
 10
269.951
 20
10.6442
 30
0.0
 40
1
 41
1
  0
VERTEX
  8
0
 10
267.568
 20
9.84619
 30
0.0
 40
1
 41
1
  0
VERTEX
  8
0
 10
265.14
 20
9.19937
 30
0.0
 40
1
 41
1
  0
VERTEX
  8
0
 10
262.676
 20
8.70632
 30
0.0
 40
1
 41
1
  0
VERTEX
  8
0
 10
260.186
 20
8.36897
 30
0.0
 40
1
 41
1
  0
VERTEX
  8
0
 10
257.679
 20
8.18858
 30
0.0
 40
1
 41
1
  0
VERTEX
  8
0
 10
255.167
 20
8.16596
 30
0.0
 40
1
 41
1
  0
VERTEX
  8
0
 10
252.657
 20
8.30117
 30
0.0
 40
1
 41
1
  0
VERTEX
  8
0
 10
250.161
 20
8.59364
 30
0.0
 40
1
 41
1
  0
VERTEX
  8
0
 10
247.689
 20
9.04226
 30
0.0
 40
1
 41
1
  0
VERTEX
  8
0
 10
245.25
 20
9.64529
 30
0.0
 40
1
 41
1
  0
VERTEX
  8
0
 10
242.853
 20
10.4002
 30
0.0
 40
1
 41
1
  0
VERTEX
  8
0
 10
240.508
 20
11.3042
 30
0.0
 40
1
 41
1
  0
VERTEX
  8
0
 10
238.225
 20
12.3536
 30
0.0
 40
1
 41
1
  0
VERTEX
  8
0
 10
236.013
 20
13.5443
 30
0.0
 40
1
 41
1
  0
VERTEX
  8
0
 10
233.879
 20
14.8717
 30
0.0
 40
1
 41
1
  0
VERTEX
  8
0
 10
231.832
 20
16.3303
 30
0.0
 40
1
 41
1
  0
VERTEX
  8
0
 10
229.882
 20
17.9146
 30
0.0
 40
1
 41
1
  0
VERTEX
  8
0
 10
228.035
 20
19.6182
 30
0.0
 40
1
 41
1
  0
VERTEX
  8
0
 10
226.299
 20
21.4344
 30
0.0
 40
1
 41
1
  0
VERTEX
  8
0
 10
224.679
 20
23.3561
 30
0.0
 40
1
 41
1
  0
VERTEX
  8
0
 10
223.183
 20
25.3757
 30
0.0
 40
1
 41
1
  0
VERTEX
  8
0
 10
221.818
 20
27.4851
 30
0.0
 40
1
 41
1
  0
VERTEX
  8
0
 10
220.587
 20
29.6762
 30
0.0
 40
1
 41
1
  0
VERTEX
  8
0
 10
219.497
 20
31.9401
 30
0.0
 40
1
 41
1
  0
VERTEX
  8
0
 10
218.551
 20
34.2682
 30
0.0
 40
1
 41
1
  0
VERTEX
  8
0
 10
217.754
 20
36.651
 30
0.0
 40
1
 41
1
  0
VERTEX
  8
0
 10
217.107
 20
39.0792
 30
0.0
 40
1
 41
1
  0
VERTEX
  8
0
 10
216.614
 20
41.5432
 30
0.0
 40
1
 41
1
  0
VERTEX
  8
0
 10
216.276
 20
44.0332
 30
0.0
 40
1
 41
1
  0
VERTEX
  8
0
 10
216.096
 20
46.5396
 30
0.0
 40
1
 41
1
  0
VERTEX
  8
0
 10
216.074
 20
49.0524
 30
0.0
 40
1
 41
1
  0
VERTEX
  8
0
 10
216.208
 20
51.5617
 30
0.0
 40
1
 41
1
  0
VERTEX
  8
0
 10
216.501
 20
54.0574
 30
0.0
 40
1
 41
1
  0
VERTEX
  8
0
 10
216.95
 20
56.5299
 30
0.0
 40
1
 41
1
  0
VERTEX
  8
0
 10
217.553
 20
58.9693
 30
0.0
 40
1
 41
1
  0
VERTEX
  8
0
 10
218.307
 20
61.3661
 30
0.0
 40
1
 41
1
  0
VERTEX
  8
0
 10
219.211
 20
63.7107
 30
0.0
 40
1
 41
1
  0
VERTEX
  8
0
 10
220.261
 20
65.994
 30
0.0
 40
1
 41
1
  0
VERTEX
  8
0
 10
221.451
 20
68.2068
 30
0.0
 40
1
 41
1
  0
VERTEX
  8
0
 10
222.779
 20
70.3406
 30
0.0
 40
1
 41
1
  0
VERTEX
  8
0
 10
224.237
 20
72.3867
 30
0.0
 40
1
 41
1
  0
VERTEX
  8
0
 10
225.822
 20
74.3372
 30
0.0
 40
1
 41
1
  0
VERTEX
  8
0
 10
227.525
 20
76.1844
 30
0.0
 40
1
 41
1
  0
VERTEX
  8
0
 10
229.342
 20
77.921
 30
0.0
 40
1
 41
1
  0
VERTEX
  8
0
 10
231.264
 20
79.5401
 30
0.0
 40
1
 41
1
  0
VERTEX
  8
0
 10
233.283
 20
81.0354
 30
0.0
 40
1
 41
1
  0
VERTEX
  8
0
 10
235.393
 20
82.401
 30
0.0
 40
1
 41
1
  0
VERTEX
  8
0
 10
237.583
 20
83.6313
 30
0.0
 40
1
 41
1
  0
VERTEX
  8
0
 10
239.847
 20
84.7217
 30
0.0
 40
1
 41
1
  0
VERTEX
  8
0
 10
242.175
 20
85.6676
 30
0.0
 40
1
 41
1
  0
VERTEX
  8
0
 10
244.558
 20
86.4657
 30
0.0
 40
1
 41
1
  0
VERTEX
  8
0
 10
246.986
 20
87.1125
 30
0.0
 40
1
 41
1
  0
VERTEX
  8
0
 10
249.45
 20
87.6056
 30
0.0
 40
1
 41
1
  0
VERTEX
  8
0
 10
251.94
 20
87.9429
 30
0.0
 40
1
 41
1
  0
VERTEX
  8
0
 10
254.447
 20
88.1233
 30
0.0
 40
1
 41
1
  0
VERTEX
  8
0
 10
256.96
 20
88.1458
 30
0.0
 40
1
 41
1
  0
VERTEX
  8
0
 10
259.469
 20
88.0107
 30
0.0
 40
1
 41
1
  0
VERTEX
  8
0
 10
261.965
 20
87.7182
 30
0.0
 40
1
 41
1
  0
VERTEX
  8
0
 10
264.438
 20
87.2696
 30
0.0
 40
1
 41
1
  0
VERTEX
  8
0
 10
266.876
 20
86.6665
 30
0.0
 40
1
 41
1
  0
SEQEND
 8
0
  0
POLYLINE
  8
0
 62
     0
 66
     1
 10
0
 20
0
 30
0.0
 70
     1
 40
72
 41
72
  0
VERTEX
  8
0
 10
258.185
 20
50.2772
 30
0.0
 40
1
 41
1
  0
VERTEX
  8
0
 10
257.564
 20
50.754
 30
0.0
 40
1
 41
1
  0
VERTEX
  8
0
 10
256.84
 20
51.0538
 30
0.0
 40
1
 41
1
  0
VERTEX
  8
0
 10
256.064
 20
51.156
 30
0.0
 40
1
 41
1
  0
VERTEX
  8
0
 10
255.286
 20
51.0538
 30
0.0
 40
1
 41
1
  0
VERTEX
  8
0
 10
254.564
 20
50.754
 30
0.0
 40
1
 41
1
  0
VERTEX
  8
0
 10
253.942
 20
50.2772
 30
0.0
 40
1
 41
1
  0
VERTEX
  8
0
 10
253.465
 20
49.656
 30
0.0
 40
1
 41
1
  0
VERTEX
  8
0
 10
253.165
 20
48.9324
 30
0.0
 40
1
 41
1
  0
VERTEX
  8
0
 10
253.064
 20
48.156
 30
0.0
 40
1
 41
1
  0
VERTEX
  8
0
 10
253.165
 20
47.3794
 30
0.0
 40
1
 41
1
  0
VERTEX
  8
0
 10
253.465
 20
46.656
 30
0.0
 40
1
 41
1
  0
VERTEX
  8
0
 10
253.942
 20
46.0346
 30
0.0
 40
1
 41
1
  0
VERTEX
  8
0
 10
254.564
 20
45.5578
 30
0.0
 40
1
 41
1
  0
VERTEX
  8
0
 10
255.286
 20
45.2582
 30
0.0
 40
1
 41
1
  0
VERTEX
  8
0
 10
256.064
 20
45.156
 30
0.0
 40
1
 41
1
  0
VERTEX
  8
0
 10
256.84
 20
45.2582
 30
0.0
 40
1
 41
1
  0
VERTEX
  8
0
 10
257.564
 20
45.5578
 30
0.0
 40
1
 41
1
  0
VERTEX
  8
0
 10
258.185
 20
46.0346
 30
0.0
 40
1
 41
1
  0
VERTEX
  8
0
 10
258.661
 20
46.656
 30
0.0
 40
1
 41
1
  0
VERTEX
  8
0
 10
258.961
 20
47.3794
 30
0.0
 40
1
 41
1
  0
VERTEX
  8
0
 10
259.064
 20
48.156
 30
0.0
 40
1
 41
1
  0
VERTEX
  8
0
 10
258.961
 20
48.9324
 30
0.0
 40
1
 41
1
  0
VERTEX
  8
0
 10
258.661
 20
49.656
 30
0.0
 40
1
 41
1
  0
VERTEX
  8
0
 10
258.185
 20
50.2772
 30
0.0
 40
1
 41
1
  0
SEQEND
 8
0
  0
POLYLINE
  8
0
 62
     0
 66
     1
 10
0
 20
0
 30
0.0
 70
     1
 40
72
 41
72
  0
VERTEX
  8
0
 10
920.103
 20
215.344
 30
0.0
 40
1
 41
1
  0
VERTEX
  8
0
 10
977.103
 20
215.344
 30
0.0
 40
1
 41
1
  0
VERTEX
  8
0
 10
977.879
 20
215.243
 30
0.0
 40
1
 41
1
  0
VERTEX
  8
0
 10
978.603
 20
214.943
 30
0.0
 40
1
 41
1
  0
VERTEX
  8
0
 10
979.224
 20
214.467
 30
0.0
 40
1
 41
1
  0
VERTEX
  8
0
 10
979.701
 20
213.844
 30
0.0
 40
1
 41
1
  0
VERTEX
  8
0
 10
980
 20
213.121
 30
0.0
 40
1
 41
1
  0
VERTEX
  8
0
 10
980.103
 20
212.344
 30
0.0
 40
1
 41
1
  0
VERTEX
  8
0
 10
980.103
 20
62.845
 30
0.0
 40
1
 41
1
  0
VERTEX
  8
0
 10
980
 20
62.0685
 30
0.0
 40
1
 41
1
  0
VERTEX
  8
0
 10
979.701
 20
61.345
 30
0.0
 40
1
 41
1
  0
VERTEX
  8
0
 10
979.224
 20
60.7236
 30
0.0
 40
1
 41
1
  0
VERTEX
  8
0
 10
978.603
 20
60.2468
 30
0.0
 40
1
 41
1
  0
VERTEX
  8
0
 10
977.879
 20
59.9472
 30
0.0
 40
1
 41
1
  0
VERTEX
  8
0
 10
977.103
 20
59.845
 30
0.0
 40
1
 41
1
  0
VERTEX
  8
0
 10
920.103
 20
59.845
 30
0.0
 40
1
 41
1
  0
VERTEX
  8
0
 10
920.103
 20
89.9104
 30
0.0
 40
1
 41
1
  0
VERTEX
  8
0
 10
923.149
 20
90.1101
 30
0.0
 40
1
 41
1
  0
VERTEX
  8
0
 10
927.126
 20
90.9013
 30
0.0
 40
1
 41
1
  0
VERTEX
  8
0
 10
930.965
 20
92.2047
 30
0.0
 40
1
 41
1
  0
VERTEX
  8
0
 10
934.603
 20
93.9982
 30
0.0
 40
1
 41
1
  0
VERTEX
  8
0
 10
937.974
 20
96.251
 30
0.0
 40
1
 41
1
  0
VERTEX
  8
0
 10
941.022
 20
98.9246
 30
0.0
 40
1
 41
1
  0
VERTEX
  8
0
 10
943.697
 20
101.973
 30
0.0
 40
1
 41
1
  0
VERTEX
  8
0
 10
945.95
 20
105.345
 30
0.0
 40
1
 41
1
  0
VERTEX
  8
0
 10
947.743
 20
108.982
 30
0.0
 40
1
 41
1
  0
VERTEX
  8
0
 10
949.046
 20
112.822
 30
0.0
 40
1
 41
1
  0
VERTEX
  8
0
 10
949.837
 20
116.799
 30
0.0
 40
1
 41
1
  0
VERTEX
  8
0
 10
950.103
 20
120.845
 30
0.0
 40
1
 41
1
  0
VERTEX
  8
0
 10
950.056
 20
123.814
 30
0.0
 40
1
 41
1
  0
VERTEX
  8
0
 10
949.913
 20
126.781
 30
0.0
 40
1
 41
1
  0
VERTEX
  8
0
 10
949.676
 20
129.741
 30
0.0
 40
1
 41
1
  0
VERTEX
  8
0
 10
949.344
 20
132.692
 30
0.0
 40
1
 41
1
  0
VERTEX
  8
0
 10
948.919
 20
135.631
 30
0.0
 40
1
 41
1
  0
VERTEX
  8
0
 10
948.401
 20
138.555
 30
0.0
 40
1
 41
1
  0
VERTEX
  8
0
 10
947.789
 20
141.461
 30
0.0
 40
1
 41
1
  0
VERTEX
  8
0
 10
947.085
 20
144.346
 30
0.0
 40
1
 41
1
  0
VERTEX
  8
0
 10
946.289
 20
147.207
 30
0.0
 40
1
 41
1
  0
VERTEX
  8
0
 10
945.401
 20
150.04
 30
0.0
 40
1
 41
1
  0
VERTEX
  8
0
 10
944.424
 20
152.844
 30
0.0
 40
1
 41
1
  0
VERTEX
  8
0
 10
943.358
 20
155.617
 30
0.0
 40
1
 41
1
  0
VERTEX
  8
0
 10
942.204
 20
158.353
 30
0.0
 40
1
 41
1
  0
VERTEX
  8
0
 10
940.964
 20
161.051
 30
0.0
 40
1
 41
1
  0
VERTEX
  8
0
 10
939.637
 20
163.708
 30
0.0
 40
1
 41
1
  0
VERTEX
  8
0
 10
938.226
 20
166.321
 30
0.0
 40
1
 41
1
  0
VERTEX
  8
0
 10
936.733
 20
168.888
 30
0.0
 40
1
 41
1
  0
VERTEX
  8
0
 10
935.158
 20
171.406
 30
0.0
 40
1
 41
1
  0
VERTEX
  8
0
 10
933.504
 20
173.872
 30
0.0
 40
1
 41
1
  0
VERTEX
  8
0
 10
931.772
 20
176.285
 30
0.0
 40
1
 41
1
  0
VERTEX
  8
0
 10
929.965
 20
178.64
 30
0.0
 40
1
 41
1
  0
VERTEX
  8
0
 10
928.082
 20
180.938
 30
0.0
 40
1
 41
1
  0
VERTEX
  8
0
 10
926.128
 20
183.172
 30
0.0
 40
1
 41
1
  0
VERTEX
  8
0
 10
924.103
 20
185.344
 30
0.0
 40
1
 41
1
  0
VERTEX
  8
0
 10
920.103
 20
185.344
 30
0.0
 40
1
 41
1
  0
VERTEX
  8
0
 10
920.103
 20
215.344
 30
0.0
 40
1
 41
1
  0
SEQEND
 8
0
  0
POLYLINE
  8
0
 62
     0
 66
     1
 10
0
 20
0
 30
0.0
 70
     1
 40
72
 41
72
  0
VERTEX
  8
0
 10
753.692
 20
35.8886
 30
0.0
 40
1
 41
1
  0
VERTEX
  8
0
 10
754.964
 20
33.3075
 30
0.0
 40
1
 41
1
  0
VERTEX
  8
0
 10
756.563
 20
30.9149
 30
0.0
 40
1
 41
1
  0
VERTEX
  8
0
 10
758.46
 20
28.7513
 30
0.0
 40
1
 41
1
  0
VERTEX
  8
0
 10
760.624
 20
26.8539
 30
0.0
 40
1
 41
1
  0
VERTEX
  8
0
 10
763.017
 20
25.255
 30
0.0
 40
1
 41
1
  0
VERTEX
  8
0
 10
765.597
 20
23.9822
 30
0.0
 40
1
 41
1
  0
VERTEX
  8
0
 10
768.322
 20
23.0572
 30
0.0
 40
1
 41
1
  0
VERTEX
  8
0
 10
771.144
 20
22.4958
 30
0.0
 40
1
 41
1
  0
VERTEX
  8
0
 10
774.017
 20
22.3075
 30
0.0
 40
1
 41
1
  0
VERTEX
  8
0
 10
776.887
 20
22.4958
 30
0.0
 40
1
 41
1
  0
VERTEX
  8
0
 10
779.136
 20
22.8225
 30
0.0
 40
1
 41
1
  0
VERTEX
  8
0
 10
781.374
 20
23.2096
 30
0.0
 40
1
 41
1
  0
VERTEX
  8
0
 10
783.6
 20
23.6568
 30
0.0
 40
1
 41
1
  0
VERTEX
  8
0
 10
785.814
 20
24.1638
 30
0.0
 40
1
 41
1
  0
VERTEX
  8
0
 10
788.014
 20
24.73
 30
0.0
 40
1
 41
1
  0
VERTEX
  8
0
 10
790.197
 20
25.3553
 30
0.0
 40
1
 41
1
  0
VERTEX
  8
0
 10
792.364
 20
26.0392
 30
0.0
 40
1
 41
1
  0
VERTEX
  8
0
 10
794.51
 20
26.781
 30
0.0
 40
1
 41
1
  0
VERTEX
  8
0
 10
796.636
 20
27.5804
 30
0.0
 40
1
 41
1
  0
VERTEX
  8
0
 10
798.739
 20
28.4365
 30
0.0
 40
1
 41
1
  0
VERTEX
  8
0
 10
800.819
 20
29.3492
 30
0.0
 40
1
 41
1
  0
VERTEX
  8
0
 10
802.874
 20
30.3174
 30
0.0
 40
1
 41
1
  0
VERTEX
  8
0
 10
804.901
 20
31.3404
 30
0.0
 40
1
 41
1
  0
VERTEX
  8
0
 10
806.901
 20
32.4178
 30
0.0
 40
1
 41
1
  0
VERTEX
  8
0
 10
808.871
 20
33.5485
 30
0.0
 40
1
 41
1
  0
VERTEX
  8
0
 10
810.81
 20
34.7318
 30
0.0
 40
1
 41
1
  0
VERTEX
  8
0
 10
812.715
 20
35.9668
 30
0.0
 40
1
 41
1
  0
VERTEX
  8
0
 10
814.588
 20
37.2528
 30
0.0
 40
1
 41
1
  0
VERTEX
  8
0
 10
816.425
 20
38.5886
 30
0.0
 40
1
 41
1
  0
VERTEX
  8
0
 10
818.225
 20
39.9732
 30
0.0
 40
1
 41
1
  0
VERTEX
  8
0
 10
819.988
 20
41.406
 30
0.0
 40
1
 41
1
  0
VERTEX
  8
0
 10
821.711
 20
42.8856
 30
0.0
 40
1
 41
1
  0
VERTEX
  8
0
 10
823.393
 20
44.411
 30
0.0
 40
1
 41
1
  0
VERTEX
  8
0
 10
825.035
 20
45.9811
 30
0.0
 40
1
 41
1
  0
VERTEX
  8
0
 10
824.512
 20
49.9469
 30
0.0
 40
1
 41
1
  0
VERTEX
  8
0
 10
844.342
 20
52.5574
 30
0.0
 40
1
 41
1
  0
VERTEX
  8
0
 10
847.785
 20
30.7981
 30
0.0
 40
1
 41
1
  0
VERTEX
  8
0
 10
847.821
 20
30.4107
 30
0.0
 40
1
 41
1
  0
VERTEX
  8
0
 10
847.804
 20
30.0222
 30
0.0
 40
1
 41
1
  0
VERTEX
  8
0
 10
847.736
 20
29.6392
 30
0.0
 40
1
 41
1
  0
VERTEX
  8
0
 10
847.618
 20
29.2686
 30
0.0
 40
1
 41
1
  0
VERTEX
  8
0
 10
847.451
 20
28.9171
 30
0.0
 40
1
 41
1
  0
VERTEX
  8
0
 10
847.24
 20
28.5906
 30
0.0
 40
1
 41
1
  0
VERTEX
  8
0
 10
846.988
 20
28.2949
 30
0.0
 40
1
 41
1
  0
VERTEX
  8
0
 10
846.697
 20
28.0354
 30
0.0
 40
1
 41
1
  0
VERTEX
  8
0
 10
846.376
 20
27.8167
 30
0.0
 40
1
 41
1
  0
VERTEX
  8
0
 10
846.029
 20
27.6425
 30
0.0
 40
1
 41
1
  0
VERTEX
  8
0
 10
845.661
 20
27.516
 30
0.0
 40
1
 41
1
  0
VERTEX
  8
0
 10
845.279
 20
27.4393
 30
0.0
 40
1
 41
1
  0
VERTEX
  8
0
 10
828.428
 20
25.2035
 30
0.0
 40
1
 41
1
  0
VERTEX
  8
0
 10
824.292
 20
22.7158
 30
0.0
 40
1
 41
1
  0
VERTEX
  8
0
 10
820.06
 20
20.3944
 30
0.0
 40
1
 41
1
  0
VERTEX
  8
0
 10
815.739
 20
18.2428
 30
0.0
 40
1
 41
1
  0
VERTEX
  8
0
 10
811.336
 20
16.2644
 30
0.0
 40
1
 41
1
  0
VERTEX
  8
0
 10
806.858
 20
14.4624
 30
0.0
 40
1
 41
1
  0
VERTEX
  8
0
 10
802.313
 20
12.8395
 30
0.0
 40
1
 41
1
  0
VERTEX
  8
0
 10
797.706
 20
11.3983
 30
0.0
 40
1
 41
1
  0
VERTEX
  8
0
 10
793.046
 20
10.1412
 30
0.0
 40
1
 41
1
  0
VERTEX
  8
0
 10
788.339
 20
9.07015
 30
0.0
 40
1
 41
1
  0
VERTEX
  8
0
 10
783.593
 20
8.18674
 30
0.0
 40
1
 41
1
  0
VERTEX
  8
0
 10
778.817
 20
7.49246
 30
0.0
 40
1
 41
1
  0
VERTEX
  8
0
 10
774.017
 20
6.98833
 30
0.0
 40
1
 41
1
  0
VERTEX
  8
0
 10
770.936
 20
7.10639
 30
0.0
 40
1
 41
1
  0
VERTEX
  8
0
 10
767.874
 20
7.4599
 30
0.0
 40
1
 41
1
  0
VERTEX
  8
0
 10
764.849
 20
8.04682
 30
0.0
 40
1
 41
1
  0
VERTEX
  8
0
 10
761.876
 20
8.86372
 30
0.0
 40
1
 41
1
  0
VERTEX
  8
0
 10
758.975
 20
9.90571
 30
0.0
 40
1
 41
1
  0
VERTEX
  8
0
 10
756.162
 20
11.1667
 30
0.0
 40
1
 41
1
  0
VERTEX
  8
0
 10
753.454
 20
12.6394
 30
0.0
 40
1
 41
1
  0
VERTEX
  8
0
 10
750.867
 20
14.315
 30
0.0
 40
1
 41
1
  0
VERTEX
  8
0
 10
748.415
 20
16.1837
 30
0.0
 40
1
 41
1
  0
VERTEX
  8
0
 10
746.564
 20
17.834
 30
0.0
 40
1
 41
1
  0
VERTEX
  8
0
 10
715.017
 20
17.834
 30
0.0
 40
1
 41
1
  0
VERTEX
  8
0
 10
714.625
 20
17.8597
 30
0.0
 40
1
 41
1
  0
VERTEX
  8
0
 10
714.24
 20
17.9363
 30
0.0
 40
1
 41
1
  0
VERTEX
  8
0
 10
713.868
 20
18.0624
 30
0.0
 40
1
 41
1
  0
VERTEX
  8
0
 10
713.517
 20
18.236
 30
0.0
 40
1
 41
1
  0
VERTEX
  8
0
 10
713.19
 20
18.454
 30
0.0
 40
1
 41
1
  0
VERTEX
  8
0
 10
712.894
 20
18.7128
 30
0.0
 40
1
 41
1
  0
VERTEX
  8
0
 10
712.636
 20
19.0078
 30
0.0
 40
1
 41
1
  0
VERTEX
  8
0
 10
712.418
 20
19.334
 30
0.0
 40
1
 41
1
  0
VERTEX
  8
0
 10
712.244
 20
19.686
 30
0.0
 40
1
 41
1
  0
VERTEX
  8
0
 10
712.118
 20
20.0575
 30
0.0
 40
1
 41
1
  0
VERTEX
  8
0
 10
712.042
 20
20.4425
 30
0.0
 40
1
 41
1
  0
VERTEX
  8
0
 10
712.017
 20
20.834
 30
0.0
 40
1
 41
1
  0
VERTEX
  8
0
 10
712.017
 20
35.1365
 30
0.0
 40
1
 41
1
  0
VERTEX
  8
0
 10
752.4
 20
40.4532
 30
0.0
 40
1
 41
1
  0
VERTEX
  8
0
 10
753.031
 20
37.834
 30
0.0
 40
1
 41
1
  0
VERTEX
  8
0
 10
753.692
 20
35.8886
 30
0.0
 40
1
 41
1
  0
SEQEND
 8
0
  0
POLYLINE
  8
0
 62
     0
 66
     1
 10
0
 20
0
 30
0.0
 70
     1
 40
72
 41
72
  0
VERTEX
  8
0
 10
595.16
 20
77.804
 30
0.0
 40
1
 41
1
  0
VERTEX
  8
0
 10
592.338
 20
78.3656
 30
0.0
 40
1
 41
1
  0
VERTEX
  8
0
 10
589.613
 20
79.2906
 30
0.0
 40
1
 41
1
  0
VERTEX
  8
0
 10
587.032
 20
80.5633
 30
0.0
 40
1
 41
1
  0
VERTEX
  8
0
 10
584.639
 20
82.1621
 30
0.0
 40
1
 41
1
  0
VERTEX
  8
0
 10
582.475
 20
84.0596
 30
0.0
 40
1
 41
1
  0
VERTEX
  8
0
 10
580.578
 20
86.2232
 30
0.0
 40
1
 41
1
  0
VERTEX
  8
0
 10
578.979
 20
88.6158
 30
0.0
 40
1
 41
1
  0
VERTEX
  8
0
 10
577.707
 20
91.1968
 30
0.0
 40
1
 41
1
  0
VERTEX
  8
0
 10
576.782
 20
93.9219
 30
0.0
 40
1
 41
1
  0
VERTEX
  8
0
 10
576.219
 20
96.7443
 30
0.0
 40
1
 41
1
  0
VERTEX
  8
0
 10
575.954
 20
98.9999
 30
0.0
 40
1
 41
1
  0
VERTEX
  8
0
 10
575.749
 20
101.262
 30
0.0
 40
1
 41
1
  0
VERTEX
  8
0
 10
575.604
 20
103.528
 30
0.0
 40
1
 41
1
  0
VERTEX
  8
0
 10
575.521
 20
105.798
 30
0.0
 40
1
 41
1
  0
VERTEX
  8
0
 10
575.499
 20
108.069
 30
0.0
 40
1
 41
1
  0
VERTEX
  8
0
 10
575.537
 20
110.34
 30
0.0
 40
1
 41
1
  0
VERTEX
  8
0
 10
575.637
 20
112.609
 30
0.0
 40
1
 41
1
  0
VERTEX
  8
0
 10
575.799
 20
114.875
 30
0.0
 40
1
 41
1
  0
VERTEX
  8
0
 10
576.021
 20
117.135
 30
0.0
 40
1
 41
1
  0
VERTEX
  8
0
 10
576.303
 20
119.389
 30
0.0
 40
1
 41
1
  0
VERTEX
  8
0
 10
576.646
 20
121.634
 30
0.0
 40
1
 41
1
  0
VERTEX
  8
0
 10
577.05
 20
123.869
 30
0.0
 40
1
 41
1
  0
VERTEX
  8
0
 10
577.512
 20
126.093
 30
0.0
 40
1
 41
1
  0
VERTEX
  8
0
 10
578.036
 20
128.303
 30
0.0
 40
1
 41
1
  0
VERTEX
  8
0
 10
578.618
 20
130.498
 30
0.0
 40
1
 41
1
  0
VERTEX
  8
0
 10
579.26
 20
132.677
 30
0.0
 40
1
 41
1
  0
VERTEX
  8
0
 10
579.96
 20
134.838
 30
0.0
 40
1
 41
1
  0
VERTEX
  8
0
 10
580.717
 20
136.979
 30
0.0
 40
1
 41
1
  0
VERTEX
  8
0
 10
581.532
 20
139.099
 30
0.0
 40
1
 41
1
  0
VERTEX
  8
0
 10
582.403
 20
141.196
 30
0.0
 40
1
 41
1
  0
VERTEX
  8
0
 10
583.331
 20
143.269
 30
0.0
 40
1
 41
1
  0
VERTEX
  8
0
 10
584.314
 20
145.317
 30
0.0
 40
1
 41
1
  0
VERTEX
  8
0
 10
585.351
 20
147.337
 30
0.0
 40
1
 41
1
  0
VERTEX
  8
0
 10
586.444
 20
149.329
 30
0.0
 40
1
 41
1
  0
VERTEX
  8
0
 10
590.41
 20
149.851
 30
0.0
 40
1
 41
1
  0
VERTEX
  8
0
 10
587.799
 20
169.679
 30
0.0
 40
1
 41
1
  0
VERTEX
  8
0
 10
568.046
 20
166.5
 30
0.0
 40
1
 41
1
  0
VERTEX
  8
0
 10
566.928
 20
161.001
 30
0.0
 40
1
 41
1
  0
VERTEX
  8
0
 10
565.908
 20
155.483
 30
0.0
 40
1
 41
1
  0
VERTEX
  8
0
 10
564.983
 20
149.949
 30
0.0
 40
1
 41
1
  0
VERTEX
  8
0
 10
564.156
 20
144.399
 30
0.0
 40
1
 41
1
  0
VERTEX
  8
0
 10
563.424
 20
138.835
 30
0.0
 40
1
 41
1
  0
VERTEX
  8
0
 10
562.79
 20
133.259
 30
0.0
 40
1
 41
1
  0
VERTEX
  8
0
 10
562.253
 20
127.674
 30
0.0
 40
1
 41
1
  0
VERTEX
  8
0
 10
561.814
 20
122.08
 30
0.0
 40
1
 41
1
  0
VERTEX
  8
0
 10
561.472
 20
116.479
 30
0.0
 40
1
 41
1
  0
VERTEX
  8
0
 10
561.228
 20
110.872
 30
0.0
 40
1
 41
1
  0
VERTEX
  8
0
 10
561.081
 20
105.263
 30
0.0
 40
1
 41
1
  0
VERTEX
  8
0
 10
561.032
 20
99.6518
 30
0.0
 40
1
 41
1
  0
VERTEX
  8
0
 10
561.15
 20
96.5683
 30
0.0
 40
1
 41
1
  0
VERTEX
  8
0
 10
561.504
 20
93.5029
 30
0.0
 40
1
 41
1
  0
VERTEX
  8
0
 10
562.092
 20
90.4736
 30
0.0
 40
1
 41
1
  0
VERTEX
  8
0
 10
562.908
 20
87.4982
 30
0.0
 40
1
 41
1
  0
VERTEX
  8
0
 10
563.951
 20
84.594
 30
0.0
 40
1
 41
1
  0
VERTEX
  8
0
 10
565.214
 20
81.7783
 30
0.0
 40
1
 41
1
  0
VERTEX
  8
0
 10
566.688
 20
79.0674
 30
0.0
 40
1
 41
1
  0
VERTEX
  8
0
 10
568.365
 20
76.4772
 30
0.0
 40
1
 41
1
  0
VERTEX
  8
0
 10
570.236
 20
74.0231
 30
0.0
 40
1
 41
1
  0
VERTEX
  8
0
 10
572.289
 20
71.7193
 30
0.0
 40
1
 41
1
  0
VERTEX
  8
0
 10
574.511
 20
69.5793
 30
0.0
 40
1
 41
1
  0
VERTEX
  8
0
 10
576.892
 20
67.6158
 30
0.0
 40
1
 41
1
  0
VERTEX
  8
0
 10
576.901
 20
40.6158
 30
0.0
 40
1
 41
1
  0
VERTEX
  8
0
 10
576.928
 20
40.2242
 30
0.0
 40
1
 41
1
  0
VERTEX
  8
0
 10
577.004
 20
39.8393
 30
0.0
 40
1
 41
1
  0
VERTEX
  8
0
 10
577.131
 20
39.4678
 30
0.0
 40
1
 41
1
  0
VERTEX
  8
0
 10
577.304
 20
39.1158
 30
0.0
 40
1
 41
1
  0
VERTEX
  8
0
 10
577.522
 20
38.7894
 30
0.0
 40
1
 41
1
  0
VERTEX
  8
0
 10
577.782
 20
38.4944
 30
0.0
 40
1
 41
1
  0
VERTEX
  8
0
 10
578.076
 20
38.2357
 30
0.0
 40
1
 41
1
  0
VERTEX
  8
0
 10
578.403
 20
38.0178
 30
0.0
 40
1
 41
1
  0
VERTEX
  8
0
 10
578.756
 20
37.8443
 30
0.0
 40
1
 41
1
  0
VERTEX
  8
0
 10
579.126
 20
37.7181
 30
0.0
 40
1
 41
1
  0
VERTEX
  8
0
 10
579.511
 20
37.6415
 30
0.0
 40
1
 41
1
  0
VERTEX
  8
0
 10
579.904
 20
37.6158
 30
0.0
 40
1
 41
1
  0
VERTEX
  8
0
 10
599.522
 20
37.6158
 30
0.0
 40
1
 41
1
  0
VERTEX
  8
0
 10
599.914
 20
37.6415
 30
0.0
 40
1
 41
1
  0
VERTEX
  8
0
 10
605.186
 20
37.6158
 30
0.0
 40
1
 41
1
  0
VERTEX
  8
0
 10
599.904
 20
77.7386
 30
0.0
 40
1
 41
1
  0
VERTEX
  8
0
 10
598.032
 20
77.6158
 30
0.0
 40
1
 41
1
  0
VERTEX
  8
0
 10
595.16
 20
77.804
 30
0.0
 40
1
 41
1
  0
SEQEND
 8
0
  0
POLYLINE
  8
0
 62
     0
 66
     1
 10
0
 20
0
 30
0.0
 70
     1
 40
72
 41
72
  0
VERTEX
  8
0
 10
934.235
 20
17.1689
 30
0.0
 40
1
 41
1
  0
VERTEX
  8
0
 10
932.961
 20
19.7499
 30
0.0
 40
1
 41
1
  0
VERTEX
  8
0
 10
931.363
 20
22.1426
 30
0.0
 40
1
 41
1
  0
VERTEX
  8
0
 10
929.465
 20
24.3061
 30
0.0
 40
1
 41
1
  0
VERTEX
  8
0
 10
927.301
 20
26.2036
 30
0.0
 40
1
 41
1
  0
VERTEX
  8
0
 10
924.908
 20
27.8024
 30
0.0
 40
1
 41
1
  0
VERTEX
  8
0
 10
922.328
 20
29.0751
 30
0.0
 40
1
 41
1
  0
VERTEX
  8
0
 10
919.603
 20
30.0001
 30
0.0
 40
1
 41
1
  0
VERTEX
  8
0
 10
916.781
 20
30.5615
 30
0.0
 40
1
 41
1
  0
VERTEX
  8
0
 10
913.908
 20
30.7499
 30
0.0
 40
1
 41
1
  0
VERTEX
  8
0
 10
911.038
 20
30.5615
 30
0.0
 40
1
 41
1
  0
VERTEX
  8
0
 10
908.79
 20
30.2349
 30
0.0
 40
1
 41
1
  0
VERTEX
  8
0
 10
906.551
 20
29.8478
 30
0.0
 40
1
 41
1
  0
VERTEX
  8
0
 10
904.325
 20
29.4006
 30
0.0
 40
1
 41
1
  0
VERTEX
  8
0
 10
902.111
 20
28.8936
 30
0.0
 40
1
 41
1
  0
VERTEX
  8
0
 10
899.911
 20
28.3274
 30
0.0
 40
1
 41
1
  0
VERTEX
  8
0
 10
897.728
 20
27.7021
 30
0.0
 40
1
 41
1
  0
VERTEX
  8
0
 10
895.563
 20
27.0183
 30
0.0
 40
1
 41
1
  0
VERTEX
  8
0
 10
893.415
 20
26.2764
 30
0.0
 40
1
 41
1
  0
VERTEX
  8
0
 10
891.289
 20
25.4771
 30
0.0
 40
1
 41
1
  0
VERTEX
  8
0
 10
889.186
 20
24.6208
 30
0.0
 40
1
 41
1
  0
VERTEX
  8
0
 10
887.106
 20
23.7083
 30
0.0
 40
1
 41
1
  0
VERTEX
  8
0
 10
885.051
 20
22.7401
 30
0.0
 40
1
 41
1
  0
VERTEX
  8
0
 10
883.024
 20
21.7169
 30
0.0
 40
1
 41
1
  0
VERTEX
  8
0
 10
881.024
 20
20.6396
 30
0.0
 40
1
 41
1
  0
VERTEX
  8
0
 10
879.054
 20
19.5089
 30
0.0
 40
1
 41
1
  0
VERTEX
  8
0
 10
877.115
 20
18.3257
 30
0.0
 40
1
 41
1
  0
VERTEX
  8
0
 10
875.21
 20
17.0906
 30
0.0
 40
1
 41
1
  0
VERTEX
  8
0
 10
873.338
 20
15.8047
 30
0.0
 40
1
 41
1
  0
VERTEX
  8
0
 10
871.5
 20
14.4689
 30
0.0
 40
1
 41
1
  0
VERTEX
  8
0
 10
869.7
 20
13.0842
 30
0.0
 40
1
 41
1
  0
VERTEX
  8
0
 10
867.938
 20
11.6515
 30
0.0
 40
1
 41
1
  0
VERTEX
  8
0
 10
866.215
 20
10.1719
 30
0.0
 40
1
 41
1
  0
VERTEX
  8
0
 10
864.532
 20
8.64643
 30
0.0
 40
1
 41
1
  0
VERTEX
  8
0
 10
862.89
 20
7.07628
 30
0.0
 40
1
 41
1
  0
VERTEX
  8
0
 10
863.412
 20
3.11051
 30
0.0
 40
1
 41
1
  0
VERTEX
  8
0
 10
843.585
 20
0.5
 30
0.0
 40
1
 41
1
  0
VERTEX
  8
0
 10
840.14
 20
22.2593
 30
0.0
 40
1
 41
1
  0
VERTEX
  8
0
 10
840.106
 20
22.6467
 30
0.0
 40
1
 41
1
  0
VERTEX
  8
0
 10
840.121
 20
23.0353
 30
0.0
 40
1
 41
1
  0
VERTEX
  8
0
 10
840.189
 20
23.4182
 30
0.0
 40
1
 41
1
  0
VERTEX
  8
0
 10
840.307
 20
23.7888
 30
0.0
 40
1
 41
1
  0
VERTEX
  8
0
 10
840.474
 20
24.1404
 30
0.0
 40
1
 41
1
  0
VERTEX
  8
0
 10
840.685
 20
24.4668
 30
0.0
 40
1
 41
1
  0
VERTEX
  8
0
 10
840.938
 20
24.7625
 30
0.0
 40
1
 41
1
  0
VERTEX
  8
0
 10
841.228
 20
25.0219
 30
0.0
 40
1
 41
1
  0
VERTEX
  8
0
 10
841.549
 20
25.2407
 30
0.0
 40
1
 41
1
  0
VERTEX
  8
0
 10
841.897
 20
25.4149
 30
0.0
 40
1
 41
1
  0
VERTEX
  8
0
 10
842.264
 20
25.5414
 30
0.0
 40
1
 41
1
  0
VERTEX
  8
0
 10
842.646
 20
25.6181
 30
0.0
 40
1
 41
1
  0
VERTEX
  8
0
 10
859.497
 20
27.8539
 30
0.0
 40
1
 41
1
  0
VERTEX
  8
0
 10
863.633
 20
30.3415
 30
0.0
 40
1
 41
1
  0
VERTEX
  8
0
 10
867.865
 20
32.6629
 30
0.0
 40
1
 41
1
  0
VERTEX
  8
0
 10
872.186
 20
34.8146
 30
0.0
 40
1
 41
1
  0
VERTEX
  8
0
 10
876.589
 20
36.7931
 30
0.0
 40
1
 41
1
  0
VERTEX
  8
0
 10
881.067
 20
38.5951
 30
0.0
 40
1
 41
1
  0
VERTEX
  8
0
 10
885.613
 20
40.2179
 30
0.0
 40
1
 41
1
  0
VERTEX
  8
0
 10
890.219
 20
41.659
 30
0.0
 40
1
 41
1
  0
VERTEX
  8
0
 10
894.881
 20
42.9161
 30
0.0
 40
1
 41
1
  0
VERTEX
  8
0
 10
899.586
 20
43.9872
 30
0.0
 40
1
 41
1
  0
VERTEX
  8
0
 10
904.332
 20
44.8707
 30
0.0
 40
1
 41
1
  0
VERTEX
  8
0
 10
909.108
 20
45.565
 30
0.0
 40
1
 41
1
  0
VERTEX
  8
0
 10
913.908
 20
46.069
 30
0.0
 40
1
 41
1
  0
VERTEX
  8
0
 10
916.989
 20
45.951
 30
0.0
 40
1
 41
1
  0
VERTEX
  8
0
 10
920.051
 20
45.5975
 30
0.0
 40
1
 41
1
  0
VERTEX
  8
0
 10
923.078
 20
45.0106
 30
0.0
 40
1
 41
1
  0
VERTEX
  8
0
 10
926.05
 20
44.1937
 30
0.0
 40
1
 41
1
  0
VERTEX
  8
0
 10
928.95
 20
43.1517
 30
0.0
 40
1
 41
1
  0
VERTEX
  8
0
 10
931.762
 20
41.8907
 30
0.0
 40
1
 41
1
  0
VERTEX
  8
0
 10
934.471
 20
40.4181
 30
0.0
 40
1
 41
1
  0
VERTEX
  8
0
 10
937.058
 20
38.7424
 30
0.0
 40
1
 41
1
  0
VERTEX
  8
0
 10
939.51
 20
36.8736
 30
0.0
 40
1
 41
1
  0
VERTEX
  8
0
 10
941.361
 20
35.2233
 30
0.0
 40
1
 41
1
  0
VERTEX
  8
0
 10
972.908
 20
35.2233
 30
0.0
 40
1
 41
1
  0
VERTEX
  8
0
 10
973.3
 20
35.1976
 30
0.0
 40
1
 41
1
  0
VERTEX
  8
0
 10
973.686
 20
35.1211
 30
0.0
 40
1
 41
1
  0
VERTEX
  8
0
 10
974.057
 20
34.995
 30
0.0
 40
1
 41
1
  0
VERTEX
  8
0
 10
974.408
 20
34.8214
 30
0.0
 40
1
 41
1
  0
VERTEX
  8
0
 10
974.735
 20
34.6035
 30
0.0
 40
1
 41
1
  0
VERTEX
  8
0
 10
975.031
 20
34.3447
 30
0.0
 40
1
 41
1
  0
VERTEX
  8
0
 10
975.289
 20
34.0496
 30
0.0
 40
1
 41
1
  0
VERTEX
  8
0
 10
975.507
 20
33.7233
 30
0.0
 40
1
 41
1
  0
VERTEX
  8
0
 10
975.681
 20
33.3714
 30
0.0
 40
1
 41
1
  0
VERTEX
  8
0
 10
975.807
 20
32.9999
 30
0.0
 40
1
 41
1
  0
VERTEX
  8
0
 10
975.883
 20
32.615
 30
0.0
 40
1
 41
1
  0
VERTEX
  8
0
 10
975.908
 20
32.2233
 30
0.0
 40
1
 41
1
  0
VERTEX
  8
0
 10
975.908
 20
17.9208
 30
0.0
 40
1
 41
1
  0
VERTEX
  8
0
 10
935.525
 20
12.6043
 30
0.0
 40
1
 41
1
  0
VERTEX
  8
0
 10
934.894
 20
15.2233
 30
0.0
 40
1
 41
1
  0
VERTEX
  8
0
 10
934.235
 20
17.1689
 30
0.0
 40
1
 41
1
  0
SEQEND
 8
0
  0
POLYLINE
  8
0
 62
     0
 66
     1
 10
0
 20
0
 30
0.0
 70
     1
 40
72
 41
72
  0
VERTEX
  8
0
 10
712.76
 20
204.951
 30
0.0
 40
1
 41
1
  0
VERTEX
  8
0
 10
710.889
 20
204.829
 30
0.0
 40
1
 41
1
  0
VERTEX
  8
0
 10
705.607
 20
244.951
 30
0.0
 40
1
 41
1
  0
VERTEX
  8
0
 10
710.878
 20
244.925
 30
0.0
 40
1
 41
1
  0
VERTEX
  8
0
 10
711.269
 20
244.951
 30
0.0
 40
1
 41
1
  0
VERTEX
  8
0
 10
730.889
 20
244.951
 30
0.0
 40
1
 41
1
  0
VERTEX
  8
0
 10
731.281
 20
244.925
 30
0.0
 40
1
 41
1
  0
VERTEX
  8
0
 10
731.665
 20
244.849
 30
0.0
 40
1
 41
1
  0
VERTEX
  8
0
 10
732.037
 20
244.724
 30
0.0
 40
1
 41
1
  0
VERTEX
  8
0
 10
732.389
 20
244.55
 30
0.0
 40
1
 41
1
  0
VERTEX
  8
0
 10
732.715
 20
244.332
 30
0.0
 40
1
 41
1
  0
VERTEX
  8
0
 10
733.011
 20
244.072
 30
0.0
 40
1
 41
1
  0
VERTEX
  8
0
 10
733.269
 20
243.778
 30
0.0
 40
1
 41
1
  0
VERTEX
  8
0
 10
733.488
 20
243.451
 30
0.0
 40
1
 41
1
  0
VERTEX
  8
0
 10
733.661
 20
243.1
 30
0.0
 40
1
 41
1
  0
VERTEX
  8
0
 10
733.787
 20
242.728
 30
0.0
 40
1
 41
1
  0
VERTEX
  8
0
 10
733.864
 20
242.343
 30
0.0
 40
1
 41
1
  0
VERTEX
  8
0
 10
733.89
 20
241.951
 30
0.0
 40
1
 41
1
  0
VERTEX
  8
0
 10
733.9
 20
214.951
 30
0.0
 40
1
 41
1
  0
VERTEX
  8
0
 10
736.281
 20
212.987
 30
0.0
 40
1
 41
1
  0
VERTEX
  8
0
 10
738.504
 20
210.849
 30
0.0
 40
1
 41
1
  0
VERTEX
  8
0
 10
740.557
 20
208.544
 30
0.0
 40
1
 41
1
  0
VERTEX
  8
0
 10
742.426
 20
206.09
 30
0.0
 40
1
 41
1
  0
VERTEX
  8
0
 10
744.104
 20
203.5
 30
0.0
 40
1
 41
1
  0
VERTEX
  8
0
 10
745.578
 20
200.789
 30
0.0
 40
1
 41
1
  0
VERTEX
  8
0
 10
746.84
 20
197.974
 30
0.0
 40
1
 41
1
  0
VERTEX
  8
0
 10
747.883
 20
195.069
 30
0.0
 40
1
 41
1
  0
VERTEX
  8
0
 10
748.701
 20
192.093
 30
0.0
 40
1
 41
1
  0
VERTEX
  8
0
 10
749.289
 20
189.064
 30
0.0
 40
1
 41
1
  0
VERTEX
  8
0
 10
749.642
 20
185.999
 30
0.0
 40
1
 41
1
  0
VERTEX
  8
0
 10
749.76
 20
182.915
 30
0.0
 40
1
 41
1
  0
VERTEX
  8
0
 10
749.711
 20
177.304
 30
0.0
 40
1
 41
1
  0
VERTEX
  8
0
 10
749.565
 20
171.694
 30
0.0
 40
1
 41
1
  0
VERTEX
  8
0
 10
749.321
 20
166.089
 30
0.0
 40
1
 41
1
  0
VERTEX
  8
0
 10
748.979
 20
160.487
 30
0.0
 40
1
 41
1
  0
VERTEX
  8
0
 10
748.539
 20
154.893
 30
0.0
 40
1
 41
1
  0
VERTEX
  8
0
 10
748.003
 20
149.308
 30
0.0
 40
1
 41
1
  0
VERTEX
  8
0
 10
747.368
 20
143.732
 30
0.0
 40
1
 41
1
  0
VERTEX
  8
0
 10
746.637
 20
138.169
 30
0.0
 40
1
 41
1
  0
VERTEX
  8
0
 10
745.81
 20
132.619
 30
0.0
 40
1
 41
1
  0
VERTEX
  8
0
 10
744.885
 20
127.084
 30
0.0
 40
1
 41
1
  0
VERTEX
  8
0
 10
743.864
 20
121.566
 30
0.0
 40
1
 41
1
  0
VERTEX
  8
0
 10
742.747
 20
116.067
 30
0.0
 40
1
 41
1
  0
VERTEX
  8
0
 10
722.993
 20
112.888
 30
0.0
 40
1
 41
1
  0
VERTEX
  8
0
 10
720.382
 20
132.717
 30
0.0
 40
1
 41
1
  0
VERTEX
  8
0
 10
724.349
 20
133.239
 30
0.0
 40
1
 41
1
  0
VERTEX
  8
0
 10
725.44
 20
135.23
 30
0.0
 40
1
 41
1
  0
VERTEX
  8
0
 10
726.478
 20
137.25
 30
0.0
 40
1
 41
1
  0
VERTEX
  8
0
 10
727.461
 20
139.297
 30
0.0
 40
1
 41
1
  0
VERTEX
  8
0
 10
728.389
 20
141.371
 30
0.0
 40
1
 41
1
  0
VERTEX
  8
0
 10
729.261
 20
143.468
 30
0.0
 40
1
 41
1
  0
VERTEX
  8
0
 10
730.075
 20
145.589
 30
0.0
 40
1
 41
1
  0
VERTEX
  8
0
 10
730.833
 20
147.729
 30
0.0
 40
1
 41
1
  0
VERTEX
  8
0
 10
731.532
 20
149.89
 30
0.0
 40
1
 41
1
  0
VERTEX
  8
0
 10
732.174
 20
152.069
 30
0.0
 40
1
 41
1
  0
VERTEX
  8
0
 10
732.756
 20
154.264
 30
0.0
 40
1
 41
1
  0
VERTEX
  8
0
 10
733.279
 20
156.475
 30
0.0
 40
1
 41
1
  0
VERTEX
  8
0
 10
733.743
 20
158.699
 30
0.0
 40
1
 41
1
  0
VERTEX
  8
0
 10
734.146
 20
160.933
 30
0.0
 40
1
 41
1
  0
VERTEX
  8
0
 10
734.489
 20
163.178
 30
0.0
 40
1
 41
1
  0
VERTEX
  8
0
 10
734.772
 20
165.432
 30
0.0
 40
1
 41
1
  0
VERTEX
  8
0
 10
734.994
 20
167.693
 30
0.0
 40
1
 41
1
  0
VERTEX
  8
0
 10
735.154
 20
169.958
 30
0.0
 40
1
 41
1
  0
VERTEX
  8
0
 10
735.254
 20
172.226
 30
0.0
 40
1
 41
1
  0
VERTEX
  8
0
 10
735.293
 20
174.497
 30
0.0
 40
1
 41
1
  0
VERTEX
  8
0
 10
735.271
 20
176.769
 30
0.0
 40
1
 41
1
  0
VERTEX
  8
0
 10
735.188
 20
179.039
 30
0.0
 40
1
 41
1
  0
VERTEX
  8
0
 10
735.043
 20
181.306
 30
0.0
 40
1
 41
1
  0
VERTEX
  8
0
 10
734.839
 20
183.567
 30
0.0
 40
1
 41
1
  0
VERTEX
  8
0
 10
734.572
 20
185.824
 30
0.0
 40
1
 41
1
  0
VERTEX
  8
0
 10
734.011
 20
188.646
 30
0.0
 40
1
 41
1
  0
VERTEX
  8
0
 10
733.086
 20
191.371
 30
0.0
 40
1
 41
1
  0
VERTEX
  8
0
 10
731.813
 20
193.951
 30
0.0
 40
1
 41
1
  0
VERTEX
  8
0
 10
730.214
 20
196.344
 30
0.0
 40
1
 41
1
  0
VERTEX
  8
0
 10
728.317
 20
198.508
 30
0.0
 40
1
 41
1
  0
VERTEX
  8
0
 10
726.153
 20
200.406
 30
0.0
 40
1
 41
1
  0
VERTEX
  8
0
 10
723.76
 20
202.004
 30
0.0
 40
1
 41
1
  0
VERTEX
  8
0
 10
721.179
 20
203.276
 30
0.0
 40
1
 41
1
  0
VERTEX
  8
0
 10
718.454
 20
204.201
 30
0.0
 40
1
 41
1
  0
VERTEX
  8
0
 10
715.632
 20
204.763
 30
0.0
 40
1
 41
1
  0
VERTEX
  8
0
 10
712.76
 20
204.951
 30
0.0
 40
1
 41
1
  0
SEQEND
 8
0
  0
ENDSEC
  0
EOF
