ISO-10303-21;
HEADER;
FILE_DESCRIPTION(('CATIA V5 STEP Exchange'),'2;1');

FILE_NAME('C:\\Users\\Romain\\Desktop\\Piece Ludo.stp','2017-06-28T18:24:06+00:00',('none'),('none'),'CATIA Version 5 Release 19 SP 2 (IN-10)','CATIA V5 STEP AP203','none');

FILE_SCHEMA(('CONFIG_CONTROL_DESIGN'));

ENDSEC;
/* file written by CATIA V5R19 */
DATA;
#5=PRODUCT('Pi\X2\00E8\X0\ces Ludo','','',(#2)) ;
#1=APPLICATION_CONTEXT('configuration controlled 3D design of mechanical parts and assemblies') ;
#14=PRODUCT_DEFINITION('',' ',#6,#3) ;
#16=SECURITY_CLASSIFICATION(' ',' ',#15) ;
#15=SECURITY_CLASSIFICATION_LEVEL('unclassified') ;
#47=CARTESIAN_POINT(' ',(0.,0.,0.)) ;
#52=CARTESIAN_POINT('Axis2P3D Location',(0.,37.5,2.5)) ;
#57=CARTESIAN_POINT('Axis2P3D Location',(0.,37.5,-1.7763568394E-015)) ;
#61=CARTESIAN_POINT('Vertex',(-3.53791431915E-015,37.5,5.5)) ;
#63=CARTESIAN_POINT('Vertex',(-4.89897948557,37.5,2.5)) ;
#66=CARTESIAN_POINT('Line Origine',(0.,37.5,2.5)) ;
#70=CARTESIAN_POINT('Vertex',(4.89897948557,37.5,2.5)) ;
#73=CARTESIAN_POINT('Axis2P3D Location',(-6.66133814775E-015,37.5,-7.9936057773E-015)) ;
#77=CARTESIAN_POINT('Vertex',(2.63684046232,37.5,4.8267040904)) ;
#80=CARTESIAN_POINT('Axis2P3D Location',(0.,37.5,-1.7763568394E-015)) ;
#92=CARTESIAN_POINT('Axis2P3D Location',(0.,27.5,0.)) ;
#97=CARTESIAN_POINT('Line Origine',(2.63684046232,27.5,4.8267040904)) ;
#101=CARTESIAN_POINT('Vertex',(2.63684046232,45.,4.8267040904)) ;
#104=CARTESIAN_POINT('Axis2P3D Location',(0.,45.,0.)) ;
#108=CARTESIAN_POINT('Vertex',(-2.63684046232,45.,-4.8267040904)) ;
#111=CARTESIAN_POINT('Line Origine',(-2.63684046232,27.5,-4.8267040904)) ;
#115=CARTESIAN_POINT('Vertex',(-2.63684046232,10.,-4.8267040904)) ;
#118=CARTESIAN_POINT('Axis2P3D Location',(0.,10.,0.)) ;
#122=CARTESIAN_POINT('Vertex',(2.63684046232,10.,4.8267040904)) ;
#125=CARTESIAN_POINT('Line Origine',(2.63684046232,27.5,4.8267040904)) ;
#129=CARTESIAN_POINT('Vertex',(2.63684046232,17.5,4.8267040904)) ;
#132=CARTESIAN_POINT('Axis2P3D Location',(0.,17.5,0.)) ;
#136=CARTESIAN_POINT('Vertex',(4.21144781375E-015,17.5,5.5)) ;
#139=CARTESIAN_POINT('Axis2P3D Location',(0.,17.5,0.)) ;
#143=CARTESIAN_POINT('Vertex',(-4.89897948557,17.5,2.5)) ;
#146=CARTESIAN_POINT('Line Origine',(-4.89897948557,27.5,2.5)) ;
#164=CARTESIAN_POINT('Axis2P3D Location',(0.,10.,0.)) ;
#169=CARTESIAN_POINT('Axis2P3D Location',(0.,45.,0.)) ;
#174=CARTESIAN_POINT('Line Origine',(4.89897948557,27.5,2.5)) ;
#178=CARTESIAN_POINT('Vertex',(4.89897948557,17.5,2.5)) ;
#181=CARTESIAN_POINT('Axis2P3D Location',(0.,17.5,0.)) ;
#197=CARTESIAN_POINT('Axis2P3D Location',(0.,10.,12.5)) ;
#202=CARTESIAN_POINT('Axis2P3D Location',(0.,10.,0.)) ;
#206=CARTESIAN_POINT('Vertex',(-5.99281923255,10.,-10.9697820236)) ;
#208=CARTESIAN_POINT('Vertex',(5.99281923255,10.,10.9697820236)) ;
#211=CARTESIAN_POINT('Axis2P3D Location',(0.,10.,0.)) ;
#225=CARTESIAN_POINT('Axis2P3D Location',(0.,27.5,0.)) ;
#230=CARTESIAN_POINT('Line Origine',(-5.99281923255,27.5,-10.9697820236)) ;
#234=CARTESIAN_POINT('Vertex',(-5.99281923255,7.1054273576E-015,-10.9697820236)) ;
#237=CARTESIAN_POINT('Axis2P3D Location',(0.,3.5527136788E-015,0.)) ;
#241=CARTESIAN_POINT('Vertex',(5.99281923255,7.1054273576E-015,10.9697820236)) ;
#244=CARTESIAN_POINT('Line Origine',(5.99281923255,27.5,10.9697820236)) ;
#256=CARTESIAN_POINT('Axis2P3D Location',(0.,3.5527136788E-015,0.)) ;
#268=CARTESIAN_POINT('Axis2P3D Location',(0.,0.,0.)) ;
#278=CARTESIAN_POINT('Axis2P3D Location',(0.,55.,12.5)) ;
#283=CARTESIAN_POINT('Axis2P3D Location',(0.,55.,0.)) ;
#287=CARTESIAN_POINT('Vertex',(5.99281923255,55.,10.9697820236)) ;
#289=CARTESIAN_POINT('Vertex',(-5.99281923255,55.,-10.9697820236)) ;
#292=CARTESIAN_POINT('Axis2P3D Location',(0.,55.,0.)) ;
#302=CARTESIAN_POINT('Line Origine',(5.99281923255,27.5,10.9697820236)) ;
#306=CARTESIAN_POINT('Vertex',(5.99281923255,45.,10.9697820236)) ;
#309=CARTESIAN_POINT('Axis2P3D Location',(0.,45.,0.)) ;
#313=CARTESIAN_POINT('Vertex',(-5.99281923255,45.,-10.9697820236)) ;
#316=CARTESIAN_POINT('Line Origine',(-5.99281923255,27.5,-10.9697820236)) ;
#328=CARTESIAN_POINT('Axis2P3D Location',(0.,45.,0.)) ;
#340=CARTESIAN_POINT('Axis2P3D Location',(0.,17.5,5.5)) ;
#345=CARTESIAN_POINT('Line Origine',(-8.881784197E-016,17.5,2.5)) ;
#357=CARTESIAN_POINT('Axis2P3D Location',(0.,45.,5.5)) ;
#371=CARTESIAN_POINT('Axis2P3D Location',(0.,37.5,2.5)) ;
#53=DIRECTION('Axis2P3D Direction',(0.,-1.,0.)) ;
#54=DIRECTION('Axis2P3D XDirection',(0.,0.,1.)) ;
#58=DIRECTION('Axis2P3D Direction',(0.,-1.,0.)) ;
#67=DIRECTION('Vector Direction',(-1.,0.,0.)) ;
#74=DIRECTION('Axis2P3D Direction',(0.,-1.,0.)) ;
#81=DIRECTION('Axis2P3D Direction',(0.,-1.,0.)) ;
#93=DIRECTION('Axis2P3D Direction',(0.,1.,0.)) ;
#94=DIRECTION('Axis2P3D XDirection',(0.479425538604,-0.,0.87758256189)) ;
#98=DIRECTION('Vector Direction',(0.,1.,0.)) ;
#105=DIRECTION('Axis2P3D Direction',(0.,1.,0.)) ;
#112=DIRECTION('Vector Direction',(0.,1.,0.)) ;
#119=DIRECTION('Axis2P3D Direction',(0.,1.,0.)) ;
#126=DIRECTION('Vector Direction',(0.,1.,0.)) ;
#133=DIRECTION('Axis2P3D Direction',(0.,1.,0.)) ;
#140=DIRECTION('Axis2P3D Direction',(0.,1.,0.)) ;
#147=DIRECTION('Vector Direction',(0.,1.,0.)) ;
#165=DIRECTION('Axis2P3D Direction',(0.,1.,0.)) ;
#170=DIRECTION('Axis2P3D Direction',(0.,1.,0.)) ;
#175=DIRECTION('Vector Direction',(0.,1.,0.)) ;
#182=DIRECTION('Axis2P3D Direction',(0.,1.,0.)) ;
#198=DIRECTION('Axis2P3D Direction',(0.,1.,0.)) ;
#199=DIRECTION('Axis2P3D XDirection',(1.,-0.,0.)) ;
#203=DIRECTION('Axis2P3D Direction',(0.,1.,0.)) ;
#212=DIRECTION('Axis2P3D Direction',(0.,1.,0.)) ;
#226=DIRECTION('Axis2P3D Direction',(0.,1.,0.)) ;
#227=DIRECTION('Axis2P3D XDirection',(0.479425538604,-0.,0.87758256189)) ;
#231=DIRECTION('Vector Direction',(0.,1.,0.)) ;
#238=DIRECTION('Axis2P3D Direction',(0.,1.,0.)) ;
#245=DIRECTION('Vector Direction',(0.,1.,0.)) ;
#257=DIRECTION('Axis2P3D Direction',(0.,1.,0.)) ;
#269=DIRECTION('Axis2P3D Direction',(0.,1.,0.)) ;
#270=DIRECTION('Axis2P3D XDirection',(1.,-0.,0.)) ;
#279=DIRECTION('Axis2P3D Direction',(0.,1.,0.)) ;
#280=DIRECTION('Axis2P3D XDirection',(1.,-0.,0.)) ;
#284=DIRECTION('Axis2P3D Direction',(0.,1.,0.)) ;
#293=DIRECTION('Axis2P3D Direction',(0.,1.,0.)) ;
#303=DIRECTION('Vector Direction',(0.,1.,0.)) ;
#310=DIRECTION('Axis2P3D Direction',(0.,1.,0.)) ;
#317=DIRECTION('Vector Direction',(0.,1.,0.)) ;
#329=DIRECTION('Axis2P3D Direction',(0.,1.,0.)) ;
#341=DIRECTION('Axis2P3D Direction',(0.,1.,0.)) ;
#342=DIRECTION('Axis2P3D XDirection',(0.,0.,-1.)) ;
#346=DIRECTION('Vector Direction',(-1.,0.,0.)) ;
#358=DIRECTION('Axis2P3D Direction',(0.,1.,0.)) ;
#359=DIRECTION('Axis2P3D XDirection',(1.,-0.,0.)) ;
#372=DIRECTION('Axis2P3D Direction',(-0.,-0.,-1.)) ;
#373=DIRECTION('Axis2P3D XDirection',(0.,-1.,0.)) ;
#48=AXIS2_PLACEMENT_3D(' ',#47,$,$) ;
#55=AXIS2_PLACEMENT_3D('Plane Axis2P3D',#52,#53,#54) ;
#59=AXIS2_PLACEMENT_3D('Circle Axis2P3D',#57,#58,$) ;
#75=AXIS2_PLACEMENT_3D('Circle Axis2P3D',#73,#74,$) ;
#82=AXIS2_PLACEMENT_3D('Circle Axis2P3D',#80,#81,$) ;
#95=AXIS2_PLACEMENT_3D('Cylinder Axis2P3D',#92,#93,#94) ;
#106=AXIS2_PLACEMENT_3D('Circle Axis2P3D',#104,#105,$) ;
#120=AXIS2_PLACEMENT_3D('Circle Axis2P3D',#118,#119,$) ;
#134=AXIS2_PLACEMENT_3D('Circle Axis2P3D',#132,#133,$) ;
#141=AXIS2_PLACEMENT_3D('Circle Axis2P3D',#139,#140,$) ;
#166=AXIS2_PLACEMENT_3D('Circle Axis2P3D',#164,#165,$) ;
#171=AXIS2_PLACEMENT_3D('Circle Axis2P3D',#169,#170,$) ;
#183=AXIS2_PLACEMENT_3D('Circle Axis2P3D',#181,#182,$) ;
#200=AXIS2_PLACEMENT_3D('Plane Axis2P3D',#197,#198,#199) ;
#204=AXIS2_PLACEMENT_3D('Circle Axis2P3D',#202,#203,$) ;
#213=AXIS2_PLACEMENT_3D('Circle Axis2P3D',#211,#212,$) ;
#228=AXIS2_PLACEMENT_3D('Cylinder Axis2P3D',#225,#226,#227) ;
#239=AXIS2_PLACEMENT_3D('Circle Axis2P3D',#237,#238,$) ;
#258=AXIS2_PLACEMENT_3D('Circle Axis2P3D',#256,#257,$) ;
#271=AXIS2_PLACEMENT_3D('Plane Axis2P3D',#268,#269,#270) ;
#281=AXIS2_PLACEMENT_3D('Plane Axis2P3D',#278,#279,#280) ;
#285=AXIS2_PLACEMENT_3D('Circle Axis2P3D',#283,#284,$) ;
#294=AXIS2_PLACEMENT_3D('Circle Axis2P3D',#292,#293,$) ;
#311=AXIS2_PLACEMENT_3D('Circle Axis2P3D',#309,#310,$) ;
#330=AXIS2_PLACEMENT_3D('Circle Axis2P3D',#328,#329,$) ;
#343=AXIS2_PLACEMENT_3D('Plane Axis2P3D',#340,#341,#342) ;
#360=AXIS2_PLACEMENT_3D('Plane Axis2P3D',#357,#358,#359) ;
#374=AXIS2_PLACEMENT_3D('Plane Axis2P3D',#371,#372,#373) ;
#40=PRODUCT_DEFINITION_SHAPE(' ',' ',#14) ;
#31=APPROVAL_PERSON_ORGANIZATION(#25,#21,#19) ;
#25=PERSON_AND_ORGANIZATION(#22,#23) ;
#22=PERSON(' ',' ',' ',$,$,$) ;
#23=ORGANIZATION(' ',' ',' ') ;
#21=APPROVAL(#20,' ') ;
#20=APPROVAL_STATUS('not_yet_approved') ;
#19=APPROVAL_ROLE('APPROVER') ;
#13=DATE_AND_TIME(#11,#12) ;
#12=LOCAL_TIME(20,24,5.,#10) ;
#10=COORDINATED_UNIVERSAL_TIME_OFFSET(0,0,.AHEAD.) ;
#86=ORIENTED_EDGE('',*,*,#65,.T.) ;
#87=ORIENTED_EDGE('',*,*,#72,.F.) ;
#88=ORIENTED_EDGE('',*,*,#79,.T.) ;
#89=ORIENTED_EDGE('',*,*,#84,.T.) ;
#152=ORIENTED_EDGE('',*,*,#103,.F.) ;
#153=ORIENTED_EDGE('',*,*,#110,.F.) ;
#154=ORIENTED_EDGE('',*,*,#117,.T.) ;
#155=ORIENTED_EDGE('',*,*,#124,.T.) ;
#156=ORIENTED_EDGE('',*,*,#131,.F.) ;
#157=ORIENTED_EDGE('',*,*,#138,.F.) ;
#158=ORIENTED_EDGE('',*,*,#145,.F.) ;
#159=ORIENTED_EDGE('',*,*,#150,.F.) ;
#160=ORIENTED_EDGE('',*,*,#65,.F.) ;
#161=ORIENTED_EDGE('',*,*,#84,.F.) ;
#187=ORIENTED_EDGE('',*,*,#131,.T.) ;
#188=ORIENTED_EDGE('',*,*,#168,.T.) ;
#189=ORIENTED_EDGE('',*,*,#117,.F.) ;
#190=ORIENTED_EDGE('',*,*,#173,.F.) ;
#191=ORIENTED_EDGE('',*,*,#103,.T.) ;
#192=ORIENTED_EDGE('',*,*,#79,.F.) ;
#193=ORIENTED_EDGE('',*,*,#180,.T.) ;
#194=ORIENTED_EDGE('',*,*,#185,.F.) ;
#217=ORIENTED_EDGE('',*,*,#210,.T.) ;
#218=ORIENTED_EDGE('',*,*,#215,.T.) ;
#221=ORIENTED_EDGE('',*,*,#168,.F.) ;
#222=ORIENTED_EDGE('',*,*,#124,.F.) ;
#250=ORIENTED_EDGE('',*,*,#210,.F.) ;
#251=ORIENTED_EDGE('',*,*,#236,.T.) ;
#252=ORIENTED_EDGE('',*,*,#243,.T.) ;
#253=ORIENTED_EDGE('',*,*,#248,.F.) ;
#262=ORIENTED_EDGE('',*,*,#215,.F.) ;
#263=ORIENTED_EDGE('',*,*,#248,.T.) ;
#264=ORIENTED_EDGE('',*,*,#260,.T.) ;
#265=ORIENTED_EDGE('',*,*,#236,.F.) ;
#274=ORIENTED_EDGE('',*,*,#260,.F.) ;
#275=ORIENTED_EDGE('',*,*,#243,.F.) ;
#298=ORIENTED_EDGE('',*,*,#291,.T.) ;
#299=ORIENTED_EDGE('',*,*,#296,.T.) ;
#322=ORIENTED_EDGE('',*,*,#291,.F.) ;
#323=ORIENTED_EDGE('',*,*,#308,.T.) ;
#324=ORIENTED_EDGE('',*,*,#315,.T.) ;
#325=ORIENTED_EDGE('',*,*,#320,.F.) ;
#334=ORIENTED_EDGE('',*,*,#296,.F.) ;
#335=ORIENTED_EDGE('',*,*,#320,.T.) ;
#336=ORIENTED_EDGE('',*,*,#332,.T.) ;
#337=ORIENTED_EDGE('',*,*,#308,.F.) ;
#351=ORIENTED_EDGE('',*,*,#349,.T.) ;
#352=ORIENTED_EDGE('',*,*,#145,.T.) ;
#353=ORIENTED_EDGE('',*,*,#138,.T.) ;
#354=ORIENTED_EDGE('',*,*,#185,.T.) ;
#363=ORIENTED_EDGE('',*,*,#315,.F.) ;
#364=ORIENTED_EDGE('',*,*,#332,.F.) ;
#367=ORIENTED_EDGE('',*,*,#110,.T.) ;
#368=ORIENTED_EDGE('',*,*,#173,.T.) ;
#377=ORIENTED_EDGE('',*,*,#72,.T.) ;
#378=ORIENTED_EDGE('',*,*,#150,.T.) ;
#379=ORIENTED_EDGE('',*,*,#349,.F.) ;
#380=ORIENTED_EDGE('',*,*,#180,.F.) ;
#223=FACE_BOUND('',#220,.T.) ;
#369=FACE_BOUND('',#366,.T.) ;
#51=CLOSED_SHELL('Closed Shell',(#91,#163,#196,#224,#255,#267,#277,#301,#327,#339,#356,#370,#382)) ;
#68=VECTOR('Line Direction',#67,1.) ;
#99=VECTOR('Line Direction',#98,1.) ;
#113=VECTOR('Line Direction',#112,1.) ;
#127=VECTOR('Line Direction',#126,1.) ;
#148=VECTOR('Line Direction',#147,1.) ;
#176=VECTOR('Line Direction',#175,1.) ;
#232=VECTOR('Line Direction',#231,1.) ;
#246=VECTOR('Line Direction',#245,1.) ;
#304=VECTOR('Line Direction',#303,1.) ;
#318=VECTOR('Line Direction',#317,1.) ;
#347=VECTOR('Line Direction',#346,1.) ;
#384=ADVANCED_BREP_SHAPE_REPRESENTATION('NONE',(#383),#46) ;
#49=SHAPE_REPRESENTATION(' ',(#48),#46) ;
#91=ADVANCED_FACE('Corps principal',(#90),#56,.T.) ;
#163=ADVANCED_FACE('Corps principal',(#162),#96,.T.) ;
#196=ADVANCED_FACE('Corps principal',(#195),#96,.T.) ;
#224=ADVANCED_FACE('Corps principal',(#219,#223),#201,.T.) ;
#255=ADVANCED_FACE('Corps principal',(#254),#229,.T.) ;
#267=ADVANCED_FACE('Corps principal',(#266),#229,.T.) ;
#277=ADVANCED_FACE('Corps principal',(#276),#272,.F.) ;
#301=ADVANCED_FACE('Corps principal',(#300),#282,.T.) ;
#327=ADVANCED_FACE('Corps principal',(#326),#229,.T.) ;
#339=ADVANCED_FACE('Corps principal',(#338),#229,.T.) ;
#356=ADVANCED_FACE('Corps principal',(#355),#344,.T.) ;
#370=ADVANCED_FACE('Corps principal',(#365,#369),#361,.F.) ;
#382=ADVANCED_FACE('Corps principal',(#381),#375,.F.) ;
#4=APPLICATION_PROTOCOL_DEFINITION('international standard','config_control_design',1994,#1) ;
#32=APPROVAL_DATE_TIME(#13,#21) ;
#383=MANIFOLD_SOLID_BREP('Corps principal',#51) ;
#11=CALENDAR_DATE(2017,28,6) ;
#30=CC_DESIGN_APPROVAL(#21,(#16,#6,#14)) ;
#18=CC_DESIGN_DATE_AND_TIME_ASSIGNMENT(#13,#17,(#16)) ;
#29=CC_DESIGN_DATE_AND_TIME_ASSIGNMENT(#13,#28,(#14)) ;
#17=DATE_TIME_ROLE('classification_date') ;
#28=DATE_TIME_ROLE('creation_date') ;
#27=CC_DESIGN_PERSON_AND_ORGANIZATION_ASSIGNMENT(#25,#26,(#16)) ;
#33=CC_DESIGN_PERSON_AND_ORGANIZATION_ASSIGNMENT(#25,#34,(#6)) ;
#35=CC_DESIGN_PERSON_AND_ORGANIZATION_ASSIGNMENT(#25,#36,(#6,#14)) ;
#37=CC_DESIGN_PERSON_AND_ORGANIZATION_ASSIGNMENT(#25,#38,(#5)) ;
#26=PERSON_AND_ORGANIZATION_ROLE('classification_officer') ;
#34=PERSON_AND_ORGANIZATION_ROLE('design_supplier') ;
#36=PERSON_AND_ORGANIZATION_ROLE('creator') ;
#38=PERSON_AND_ORGANIZATION_ROLE('design_owner') ;
#39=CC_DESIGN_SECURITY_CLASSIFICATION(#16,(#6)) ;
#60=CIRCLE('generated circle',#59,5.5) ;
#76=CIRCLE('generated circle',#75,5.5) ;
#83=CIRCLE('generated circle',#82,5.5) ;
#107=CIRCLE('generated circle',#106,5.5) ;
#121=CIRCLE('generated circle',#120,5.5) ;
#135=CIRCLE('generated circle',#134,5.5) ;
#142=CIRCLE('generated circle',#141,5.5) ;
#167=CIRCLE('generated circle',#166,5.5) ;
#172=CIRCLE('generated circle',#171,5.5) ;
#184=CIRCLE('generated circle',#183,5.5) ;
#205=CIRCLE('generated circle',#204,12.5) ;
#214=CIRCLE('generated circle',#213,12.5) ;
#240=CIRCLE('generated circle',#239,12.5) ;
#259=CIRCLE('generated circle',#258,12.5) ;
#286=CIRCLE('generated circle',#285,12.5) ;
#295=CIRCLE('generated circle',#294,12.5) ;
#312=CIRCLE('generated circle',#311,12.5) ;
#331=CIRCLE('generated circle',#330,12.5) ;
#385=SHAPE_REPRESENTATION_RELATIONSHIP(' ',' ',#49,#384) ;
#96=CYLINDRICAL_SURFACE('generated cylinder',#95,5.5) ;
#229=CYLINDRICAL_SURFACE('generated cylinder',#228,12.5) ;
#3=DESIGN_CONTEXT(' ',#1,'design') ;
#65=EDGE_CURVE('',#62,#64,#60,.T.) ;
#72=EDGE_CURVE('',#71,#64,#69,.T.) ;
#79=EDGE_CURVE('',#71,#78,#76,.T.) ;
#84=EDGE_CURVE('',#78,#62,#83,.T.) ;
#103=EDGE_CURVE('',#102,#78,#100,.F.) ;
#110=EDGE_CURVE('',#109,#102,#107,.T.) ;
#117=EDGE_CURVE('',#109,#116,#114,.F.) ;
#124=EDGE_CURVE('',#116,#123,#121,.T.) ;
#131=EDGE_CURVE('',#130,#123,#128,.F.) ;
#138=EDGE_CURVE('',#137,#130,#135,.T.) ;
#145=EDGE_CURVE('',#144,#137,#142,.T.) ;
#150=EDGE_CURVE('',#64,#144,#149,.F.) ;
#168=EDGE_CURVE('',#123,#116,#167,.T.) ;
#173=EDGE_CURVE('',#102,#109,#172,.T.) ;
#180=EDGE_CURVE('',#71,#179,#177,.F.) ;
#185=EDGE_CURVE('',#130,#179,#184,.T.) ;
#210=EDGE_CURVE('',#207,#209,#205,.T.) ;
#215=EDGE_CURVE('',#209,#207,#214,.T.) ;
#236=EDGE_CURVE('',#207,#235,#233,.F.) ;
#243=EDGE_CURVE('',#235,#242,#240,.T.) ;
#248=EDGE_CURVE('',#209,#242,#247,.F.) ;
#260=EDGE_CURVE('',#242,#235,#259,.T.) ;
#291=EDGE_CURVE('',#288,#290,#286,.T.) ;
#296=EDGE_CURVE('',#290,#288,#295,.T.) ;
#308=EDGE_CURVE('',#288,#307,#305,.F.) ;
#315=EDGE_CURVE('',#307,#314,#312,.T.) ;
#320=EDGE_CURVE('',#290,#314,#319,.F.) ;
#332=EDGE_CURVE('',#314,#307,#331,.T.) ;
#349=EDGE_CURVE('',#179,#144,#348,.T.) ;
#85=EDGE_LOOP('',(#86,#87,#88,#89)) ;
#151=EDGE_LOOP('',(#152,#153,#154,#155,#156,#157,#158,#159,#160,#161)) ;
#186=EDGE_LOOP('',(#187,#188,#189,#190,#191,#192,#193,#194)) ;
#216=EDGE_LOOP('',(#217,#218)) ;
#220=EDGE_LOOP('',(#221,#222)) ;
#249=EDGE_LOOP('',(#250,#251,#252,#253)) ;
#261=EDGE_LOOP('',(#262,#263,#264,#265)) ;
#273=EDGE_LOOP('',(#274,#275)) ;
#297=EDGE_LOOP('',(#298,#299)) ;
#321=EDGE_LOOP('',(#322,#323,#324,#325)) ;
#333=EDGE_LOOP('',(#334,#335,#336,#337)) ;
#350=EDGE_LOOP('',(#351,#352,#353,#354)) ;
#362=EDGE_LOOP('',(#363,#364)) ;
#366=EDGE_LOOP('',(#367,#368)) ;
#376=EDGE_LOOP('',(#377,#378,#379,#380)) ;
#90=FACE_OUTER_BOUND('',#85,.T.) ;
#162=FACE_OUTER_BOUND('',#151,.T.) ;
#195=FACE_OUTER_BOUND('',#186,.T.) ;
#219=FACE_OUTER_BOUND('',#216,.T.) ;
#254=FACE_OUTER_BOUND('',#249,.T.) ;
#266=FACE_OUTER_BOUND('',#261,.T.) ;
#276=FACE_OUTER_BOUND('',#273,.T.) ;
#300=FACE_OUTER_BOUND('',#297,.T.) ;
#326=FACE_OUTER_BOUND('',#321,.T.) ;
#338=FACE_OUTER_BOUND('',#333,.T.) ;
#355=FACE_OUTER_BOUND('',#350,.T.) ;
#365=FACE_OUTER_BOUND('',#362,.T.) ;
#381=FACE_OUTER_BOUND('',#376,.T.) ;
#45=UNCERTAINTY_MEASURE_WITH_UNIT(LENGTH_MEASURE(0.005),#41,'distance_accuracy_value','CONFUSED CURVE UNCERTAINTY') ;
#69=LINE('Line',#66,#68) ;
#100=LINE('Line',#97,#99) ;
#114=LINE('Line',#111,#113) ;
#128=LINE('Line',#125,#127) ;
#149=LINE('Line',#146,#148) ;
#177=LINE('Line',#174,#176) ;
#233=LINE('Line',#230,#232) ;
#247=LINE('Line',#244,#246) ;
#305=LINE('Line',#302,#304) ;
#319=LINE('Line',#316,#318) ;
#348=LINE('Line',#345,#347) ;
#2=MECHANICAL_CONTEXT(' ',#1,'mechanical') ;
#24=PERSONAL_ADDRESS(' ',' ',' ',' ',' ',' ',' ',' ',' ',' ',' ',' ',(#22),' ') ;
#56=PLANE('Plane',#55) ;
#201=PLANE('Plane',#200) ;
#272=PLANE('Plane',#271) ;
#282=PLANE('Plane',#281) ;
#344=PLANE('Plane',#343) ;
#361=PLANE('Plane',#360) ;
#375=PLANE('Plane',#374) ;
#43=PLANE_ANGLE_MEASURE_WITH_UNIT(PLANE_ANGLE_MEASURE(0.0174532925199),#42) ;
#7=PRODUCT_CATEGORY('part',$) ;
#9=PRODUCT_CATEGORY_RELATIONSHIP(' ',' ',#7,#8) ;
#6=PRODUCT_DEFINITION_FORMATION_WITH_SPECIFIED_SOURCE('',' ',#5,.NOT_KNOWN.) ;
#8=PRODUCT_RELATED_PRODUCT_CATEGORY('detail',$,(#5)) ;
#50=SHAPE_DEFINITION_REPRESENTATION(#40,#49) ;
#62=VERTEX_POINT('',#61) ;
#64=VERTEX_POINT('',#63) ;
#71=VERTEX_POINT('',#70) ;
#78=VERTEX_POINT('',#77) ;
#102=VERTEX_POINT('',#101) ;
#109=VERTEX_POINT('',#108) ;
#116=VERTEX_POINT('',#115) ;
#123=VERTEX_POINT('',#122) ;
#130=VERTEX_POINT('',#129) ;
#137=VERTEX_POINT('',#136) ;
#144=VERTEX_POINT('',#143) ;
#179=VERTEX_POINT('',#178) ;
#207=VERTEX_POINT('',#206) ;
#209=VERTEX_POINT('',#208) ;
#235=VERTEX_POINT('',#234) ;
#242=VERTEX_POINT('',#241) ;
#288=VERTEX_POINT('',#287) ;
#290=VERTEX_POINT('',#289) ;
#307=VERTEX_POINT('',#306) ;
#314=VERTEX_POINT('',#313) ;
#41=(LENGTH_UNIT()NAMED_UNIT(*)SI_UNIT(.MILLI.,.METRE.)) ;
#42=(NAMED_UNIT(*)PLANE_ANGLE_UNIT()SI_UNIT($,.RADIAN.)) ;
#44=(NAMED_UNIT(*)SI_UNIT($,.STERADIAN.)SOLID_ANGLE_UNIT()) ;
#46=(GEOMETRIC_REPRESENTATION_CONTEXT(3)GLOBAL_UNCERTAINTY_ASSIGNED_CONTEXT((#45))GLOBAL_UNIT_ASSIGNED_CONTEXT((#41,#42,#44))REPRESENTATION_CONTEXT(' ',' ')) ;
ENDSEC;
END-ISO-10303-21;
