ISO-10303-21;
HEADER;
FILE_DESCRIPTION (( 'STEP AP214' ),
    '1' );
FILE_NAME ('Adaptation_raccord.STEP',
    '2017-06-17T09:17:03',
    ( '' ),
    ( '' ),
    'SwSTEP 2.0',
    'SolidWorks 2017',
    '' );
FILE_SCHEMA (( 'AUTOMOTIVE_DESIGN' ));
ENDSEC;

DATA;
#1 = CARTESIAN_POINT ( 'NONE',  ( 0.0000000000000000000, 0.0000000000000000000, 3.000000000000000000 ) ) ;
#2 = AXIS2_PLACEMENT_3D ( 'NONE', #160, #165, #237 ) ;
#3 = CARTESIAN_POINT ( 'NONE',  ( -11.50000000000001100, 1.408343819019457600E-015, 5.000000000000000000 ) ) ;
#4 = CYLINDRICAL_SURFACE ( 'NONE', #110, 11.00000000000000000 ) ;
#5 = ORIENTED_EDGE ( 'NONE', *, *, #172, .T. ) ;
#6 = DIRECTION ( 'NONE',  ( 0.0000000000000000000, 0.0000000000000000000, 1.000000000000000000 ) ) ;
#7 = DIRECTION ( 'NONE',  ( -0.0000000000000000000, -0.0000000000000000000, -1.000000000000000000 ) ) ;
#8 = LINE ( 'NONE', #189, #276 ) ;
#9 = ORIENTED_EDGE ( 'NONE', *, *, #106, .T. ) ;
#10 = EDGE_CURVE ( 'NONE', #123, #71, #303, .T. ) ;
#11 = SURFACE_SIDE_STYLE ('',( #206 ) ) ;
#12 = AXIS2_PLACEMENT_3D ( 'NONE', #36, #245, #176 ) ;
#13 = CARTESIAN_POINT ( 'NONE',  ( 0.0000000000000000000, 0.0000000000000000000, 5.000000000000000000 ) ) ;
#14 = VERTEX_POINT ( 'NONE', #255 ) ;
#15 = VERTEX_POINT ( 'NONE', #335 ) ;
#16 = DIRECTION ( 'NONE',  ( -0.0000000000000000000, -0.0000000000000000000, -1.000000000000000000 ) ) ;
#17 = DIRECTION ( 'NONE',  ( 0.0000000000000000000, 0.0000000000000000000, 1.000000000000000000 ) ) ;
#18 = ADVANCED_FACE ( 'NONE', ( #251 ), #244, .F. ) ;
#19 = ORIENTED_EDGE ( 'NONE', *, *, #106, .F. ) ;
#20 = VECTOR ( 'NONE', #7, 1000.000000000000000 ) ;
#21 = CARTESIAN_POINT ( 'NONE',  ( -11.00000000000000000, 1.347111479062088400E-015, 4.499999999999992900 ) ) ;
#22 = CIRCLE ( 'NONE', #231, 11.00000000000000000 ) ;
#23 = EDGE_CURVE ( 'NONE', #275, #15, #22, .T. ) ;
#24 = FACE_BOUND ( 'NONE', #74, .T. ) ;
#25 = CARTESIAN_POINT ( 'NONE',  ( 0.0000000000000000000, 0.0000000000000000000, 4.499999999999992900 ) ) ;
#26 = ORIENTED_EDGE ( 'NONE', *, *, #205, .T. ) ;
#27 = ORIENTED_EDGE ( 'NONE', *, *, #131, .T. ) ;
#28 = DIRECTION ( 'NONE',  ( 1.000000000000000000, 0.0000000000000000000, -0.0000000000000000000 ) ) ;
#29 = LINE ( 'NONE', #343, #102 ) ;
#30 = AXIS2_PLACEMENT_3D ( 'NONE', #60, #226, #67 ) ;
#31 = ORIENTED_EDGE ( 'NONE', *, *, #328, .F. ) ;
#32 = DIRECTION ( 'NONE',  ( -0.0000000000000000000, -0.0000000000000000000, -1.000000000000000000 ) ) ;
#33 = CARTESIAN_POINT ( 'NONE',  ( 0.0000000000000000000, 0.0000000000000000000, 5.000000000000000000 ) ) ;
#34 = FACE_OUTER_BOUND ( 'NONE', #52, .T. ) ;
#35 = DIRECTION ( 'NONE',  ( 1.000000000000000000, 0.0000000000000000000, 0.0000000000000000000 ) ) ;
#36 = CARTESIAN_POINT ( 'NONE',  ( 0.0000000000000000000, 0.0000000000000000000, 3.000000000000000000 ) ) ;
#37 = ORIENTED_EDGE ( 'NONE', *, *, #10, .F. ) ;
#38 = ORIENTED_EDGE ( 'NONE', *, *, #10, .T. ) ;
#39 = DIRECTION ( 'NONE',  ( 1.000000000000000000, 0.0000000000000000000, -0.0000000000000000000 ) ) ;
#40 = DIRECTION ( 'NONE',  ( -0.0000000000000000000, -0.0000000000000000000, -1.000000000000000000 ) ) ;
#41 = EDGE_LOOP ( 'NONE', ( #282, #105, #340, #37 ) ) ;
#42 = MECHANICAL_DESIGN_GEOMETRIC_PRESENTATION_REPRESENTATION (  '', ( #96 ), #191 ) ;
#43 = DIRECTION ( 'NONE',  ( 0.0000000000000000000, 0.0000000000000000000, 1.000000000000000000 ) ) ;
#44 = CIRCLE ( 'NONE', #302, 11.00000000000000000 ) ;
#45 = AXIS2_PLACEMENT_3D ( 'NONE', #268, #136, #140 ) ;
#46 = DIRECTION ( 'NONE',  ( 0.0000000000000000000, 0.0000000000000000000, 1.000000000000000000 ) ) ;
#47 = CYLINDRICAL_SURFACE ( 'NONE', #134, 15.00000000000000000 ) ;
#48 = ORIENTED_EDGE ( 'NONE', *, *, #328, .T. ) ;
#49 = EDGE_CURVE ( 'NONE', #116, #14, #55, .T. ) ;
#50 = ADVANCED_FACE ( 'NONE', ( #254 ), #4, .F. ) ;
#51 = DIRECTION ( 'NONE',  ( -0.0000000000000000000, -0.0000000000000000000, -1.000000000000000000 ) ) ;
#52 = EDGE_LOOP ( 'NONE', ( #48, #138 ) ) ;
#53 = PRODUCT_DEFINITION_FORMATION_WITH_SPECIFIED_SOURCE ( 'ANY', '', #207, .NOT_KNOWN. ) ;
#54 = DIRECTION ( 'NONE',  ( 0.0000000000000000000, 0.0000000000000000000, 1.000000000000000000 ) ) ;
#55 = CIRCLE ( 'NONE', #293, 12.10000000000000000 ) ;
#56 = ORIENTED_EDGE ( 'NONE', *, *, #142, .F. ) ;
#57 = DIRECTION ( 'NONE',  ( 1.000000000000000000, 0.0000000000000000000, -0.0000000000000000000 ) ) ;
#58 = DIRECTION ( 'NONE',  ( 1.000000000000000000, 0.0000000000000000000, 0.0000000000000000000 ) ) ;
#59 = DIRECTION ( 'NONE',  ( 0.0000000000000000000, 0.0000000000000000000, 1.000000000000000000 ) ) ;
#60 = CARTESIAN_POINT ( 'NONE',  ( 0.0000000000000000000, 0.0000000000000000000, 5.000000000000000000 ) ) ;
#61 = AXIS2_PLACEMENT_3D ( 'NONE', #145, #43, #179 ) ;
#62 = FACE_OUTER_BOUND ( 'NONE', #108, .T. ) ;
#63 =( NAMED_UNIT ( * ) PLANE_ANGLE_UNIT ( ) SI_UNIT ( $, .RADIAN. ) );
#64 = CARTESIAN_POINT ( 'NONE',  ( 0.0000000000000000000, 0.0000000000000000000, 0.0000000000000000000 ) ) ;
#65 = ORIENTED_EDGE ( 'NONE', *, *, #151, .F. ) ;
#66 = UNCERTAINTY_MEASURE_WITH_UNIT (LENGTH_MEASURE( 1.000000000000000100E-005 ), #150, 'distance_accuracy_value', 'NONE');
#67 = DIRECTION ( 'NONE',  ( 1.000000000000000000, 0.0000000000000000000, 0.0000000000000000000 ) ) ;
#68 = CIRCLE ( 'NONE', #285, 12.10000000000000000 ) ;
#69 = ORIENTED_EDGE ( 'NONE', *, *, #211, .F. ) ;
#70 = CARTESIAN_POINT ( 'NONE',  ( 0.0000000000000000000, 0.0000000000000000000, 0.0000000000000000000 ) ) ;
#71 = VERTEX_POINT ( 'NONE', #258 ) ;
#72 = AXIS2_PLACEMENT_3D ( 'NONE', #33, #40, #272 ) ;
#73 = DIRECTION ( 'NONE',  ( -0.0000000000000000000, -0.0000000000000000000, -1.000000000000000000 ) ) ;
#74 = EDGE_LOOP ( 'NONE', ( #161, #197 ) ) ;
#75 = EDGE_CURVE ( 'NONE', #277, #148, #94, .T. ) ;
#76 = ADVANCED_FACE ( 'NONE', ( #221, #157 ), #280, .F. ) ;
#77 = CIRCLE ( 'NONE', #61, 15.00000000000000000 ) ;
#78 =( NAMED_UNIT ( * ) PLANE_ANGLE_UNIT ( ) SI_UNIT ( $, .RADIAN. ) );
#79 = EDGE_LOOP ( 'NONE', ( #19, #331, #212, #5 ) ) ;
#80 = CYLINDRICAL_SURFACE ( 'NONE', #126, 15.00000000000000000 ) ;
#81 = ADVANCED_FACE ( 'NONE', ( #281 ), #47, .T. ) ;
#82 =( GEOMETRIC_REPRESENTATION_CONTEXT ( 3 ) GLOBAL_UNCERTAINTY_ASSIGNED_CONTEXT ( ( #227 ) ) GLOBAL_UNIT_ASSIGNED_CONTEXT ( ( #250, #63, #252 ) ) REPRESENTATION_CONTEXT ( 'NONE', 'WORKASPACE' ) );
#83 = VECTOR ( 'NONE', #100, 1000.000000000000100 ) ;
#84 = ORIENTED_EDGE ( 'NONE', *, *, #89, .F. ) ;
#85 = CARTESIAN_POINT ( 'NONE',  ( 15.00000000000000000, 1.836970198721029600E-015, 3.000000000000000000 ) ) ;
#86 = CONICAL_SURFACE ( 'NONE', #249, 11.00000000000000000, 0.7853981633974517200 ) ;
#87 = CARTESIAN_POINT ( 'NONE',  ( -12.10000000000000000, 0.0000000000000000000, 3.000000000000000000 ) ) ;
#88 = DIRECTION ( 'NONE',  ( -0.0000000000000000000, -0.0000000000000000000, -1.000000000000000000 ) ) ;
#89 = EDGE_CURVE ( 'NONE', #113, #310, #216, .T. ) ;
#90 = DIRECTION ( 'NONE',  ( -1.000000000000000000, 0.0000000000000000000, 0.0000000000000000000 ) ) ;
#91 = DIRECTION ( 'NONE',  ( 1.000000000000000000, 0.0000000000000000000, 0.0000000000000000000 ) ) ;
#92 = CIRCLE ( 'NONE', #278, 15.00000000000000000 ) ;
#93 = FILL_AREA_STYLE_COLOUR ( '', #266 ) ;
#94 = LINE ( 'NONE', #21, #83 ) ;
#95 = UNCERTAINTY_MEASURE_WITH_UNIT (LENGTH_MEASURE( 1.000000000000000100E-005 ), #288, 'distance_accuracy_value', 'NONE');
#96 = STYLED_ITEM ( 'NONE', ( #228 ), #103 ) ;
#97 = CIRCLE ( 'NONE', #45, 15.00000000000000000 ) ;
#98 = EDGE_LOOP ( 'NONE', ( #153, #9, #26, #128 ) ) ;
#99 = PRODUCT_RELATED_PRODUCT_CATEGORY ( 'part', '', ( #207 ) ) ;
#100 = DIRECTION ( 'NONE',  ( -0.7071067811865500200, 8.659560562354962400E-017, 0.7071067811865451300 ) ) ;
#101 = EDGE_CURVE ( 'NONE', #15, #275, #44, .T. ) ;
#102 = VECTOR ( 'NONE', #135, 1000.000000000000000 ) ;
#103 = MANIFOLD_SOLID_BREP ( 'Chanfrein1', #194 ) ;
#104 = ORIENTED_EDGE ( 'NONE', *, *, #247, .T. ) ;
#105 = ORIENTED_EDGE ( 'NONE', *, *, #75, .T. ) ;
#106 = EDGE_CURVE ( 'NONE', #14, #175, #8, .T. ) ;
#107 = CARTESIAN_POINT ( 'NONE',  ( -15.00000000000000000, 0.0000000000000000000, 3.000000000000000000 ) ) ;
#108 = EDGE_LOOP ( 'NONE', ( #119, #209, #204, #163 ) ) ;
#109 = CARTESIAN_POINT ( 'NONE',  ( 0.0000000000000000000, 0.0000000000000000000, 3.000000000000000000 ) ) ;
#110 = AXIS2_PLACEMENT_3D ( 'NONE', #338, #73, #156 ) ;
#111 = EDGE_CURVE ( 'NONE', #123, #15, #307, .T. ) ;
#112 = DIRECTION ( 'NONE',  ( -0.0000000000000000000, -0.0000000000000000000, -1.000000000000000000 ) ) ;
#113 = VERTEX_POINT ( 'NONE', #291 ) ;
#114 = PRODUCT_CONTEXT ( 'NONE', #270, 'mechanical' ) ;
#115 = EDGE_CURVE ( 'NONE', #116, #174, #29, .T. ) ;
#116 = VERTEX_POINT ( 'NONE', #238 ) ;
#117 = MECHANICAL_DESIGN_GEOMETRIC_PRESENTATION_REPRESENTATION (  '', ( #240 ), #312 ) ;
#118 = ORIENTED_EDGE ( 'NONE', *, *, #49, .T. ) ;
#119 = ORIENTED_EDGE ( 'NONE', *, *, #111, .F. ) ;
#120 = ADVANCED_FACE ( 'NONE', ( #326 ), #181, .T. ) ;
#121 = EDGE_CURVE ( 'NONE', #190, #113, #92, .T. ) ;
#122 = AXIS2_PLACEMENT_3D ( 'NONE', #1, #315, #132 ) ;
#123 = VERTEX_POINT ( 'NONE', #168 ) ;
#124 = DIRECTION ( 'NONE',  ( 0.0000000000000000000, 0.0000000000000000000, 1.000000000000000000 ) ) ;
#125 = CARTESIAN_POINT ( 'NONE',  ( 0.0000000000000000000, 0.0000000000000000000, 0.0000000000000000000 ) ) ;
#126 = AXIS2_PLACEMENT_3D ( 'NONE', #298, #88, #90 ) ;
#127 = DIRECTION ( 'NONE',  ( 1.000000000000000000, 0.0000000000000000000, 0.0000000000000000000 ) ) ;
#128 = ORIENTED_EDGE ( 'NONE', *, *, #115, .F. ) ;
#129 = ADVANCED_FACE ( 'NONE', ( #62 ), #230, .F. ) ;
#130 = DIRECTION ( 'NONE',  ( 1.000000000000000000, 0.0000000000000000000, 0.0000000000000000000 ) ) ;
#131 = EDGE_CURVE ( 'NONE', #310, #344, #97, .T. ) ;
#132 = DIRECTION ( 'NONE',  ( -1.000000000000000000, 0.0000000000000000000, 0.0000000000000000000 ) ) ;
#133 = FACE_OUTER_BOUND ( 'NONE', #261, .T. ) ;
#134 = AXIS2_PLACEMENT_3D ( 'NONE', #319, #260, #314 ) ;
#135 = DIRECTION ( 'NONE',  ( -0.0000000000000000000, -0.0000000000000000000, -1.000000000000000000 ) ) ;
#136 = DIRECTION ( 'NONE',  ( 0.0000000000000000000, 0.0000000000000000000, 1.000000000000000000 ) ) ;
#137 = ORIENTED_EDGE ( 'NONE', *, *, #111, .T. ) ;
#138 = ORIENTED_EDGE ( 'NONE', *, *, #121, .T. ) ;
#139 = DIRECTION ( 'NONE',  ( 0.0000000000000000000, 0.0000000000000000000, 1.000000000000000000 ) ) ;
#140 = DIRECTION ( 'NONE',  ( 1.000000000000000000, 0.0000000000000000000, 0.0000000000000000000 ) ) ;
#141 = CARTESIAN_POINT ( 'NONE',  ( 0.0000000000000000000, 0.0000000000000000000, 4.499999999999992900 ) ) ;
#142 = EDGE_CURVE ( 'NONE', #190, #344, #283, .T. ) ;
#143 = PLANE ( 'NONE',  #334 ) ;
#144 = EDGE_LOOP ( 'NONE', ( #56, #31, #229, #27 ) ) ;
#145 = CARTESIAN_POINT ( 'NONE',  ( 0.0000000000000000000, 0.0000000000000000000, 3.000000000000000000 ) ) ;
#146 = ORIENTED_EDGE ( 'NONE', *, *, #301, .T. ) ;
#147 = CARTESIAN_POINT ( 'NONE',  ( 15.00000000000000000, 1.836970198721029600E-015, 0.0000000000000000000 ) ) ;
#148 = VERTEX_POINT ( 'NONE', #3 ) ;
#149 = AXIS2_PLACEMENT_3D ( 'NONE', #25, #124, #184 ) ;
#150 =( LENGTH_UNIT ( ) NAMED_UNIT ( * ) SI_UNIT ( .MILLI., .METRE. ) );
#151 = EDGE_CURVE ( 'NONE', #277, #275, #279, .T. ) ;
#152 = CIRCLE ( 'NONE', #317, 11.00000000000000000 ) ;
#153 = ORIENTED_EDGE ( 'NONE', *, *, #185, .F. ) ;
#154 = EDGE_CURVE ( 'NONE', #123, #277, #152, .T. ) ;
#155 = CIRCLE ( 'NONE', #30, 11.50000000000001100 ) ;
#156 = DIRECTION ( 'NONE',  ( -1.000000000000000000, 0.0000000000000000000, 0.0000000000000000000 ) ) ;
#157 = FACE_BOUND ( 'NONE', #195, .T. ) ;
#158 = CARTESIAN_POINT ( 'NONE',  ( 0.0000000000000000000, 0.0000000000000000000, 5.000000000000000000 ) ) ;
#159 = CIRCLE ( 'NONE', #208, 11.50000000000001100 ) ;
#160 = CARTESIAN_POINT ( 'NONE',  ( 0.0000000000000000000, 0.0000000000000000000, 5.000000000000000000 ) ) ;
#161 = ORIENTED_EDGE ( 'NONE', *, *, #172, .F. ) ;
#162 = ADVANCED_FACE ( 'NONE', ( #296 ), #86, .F. ) ;
#163 = ORIENTED_EDGE ( 'NONE', *, *, #101, .F. ) ;
#164 = CARTESIAN_POINT ( 'NONE',  ( 0.0000000000000000000, 0.0000000000000000000, 3.000000000000000000 ) ) ;
#165 = DIRECTION ( 'NONE',  ( -0.0000000000000000000, -0.0000000000000000000, -1.000000000000000000 ) ) ;
#166 = DIRECTION ( 'NONE',  ( 0.0000000000000000000, 0.0000000000000000000, 1.000000000000000000 ) ) ;
#167 = ADVANCED_FACE ( 'NONE', ( #220 ), #80, .T. ) ;
#168 = CARTESIAN_POINT ( 'NONE',  ( 11.00000000000000000, 1.347111479062088400E-015, 4.499999999999992900 ) ) ;
#169 = ORIENTED_EDGE ( 'NONE', *, *, #333, .F. ) ;
#170 = CARTESIAN_POINT ( 'NONE',  ( 15.00000000000000000, 1.836970198721029600E-015, 3.000000000000000000 ) ) ;
#171 = AXIS2_PLACEMENT_3D ( 'NONE', #64, #17, #182 ) ;
#172 = EDGE_CURVE ( 'NONE', #174, #175, #68, .T. ) ;
#173 = DIRECTION ( 'NONE',  ( 0.0000000000000000000, 0.0000000000000000000, 1.000000000000000000 ) ) ;
#174 = VERTEX_POINT ( 'NONE', #87 ) ;
#175 = VERTEX_POINT ( 'NONE', #267 ) ;
#176 = DIRECTION ( 'NONE',  ( 1.000000000000000000, 0.0000000000000000000, 0.0000000000000000000 ) ) ;
#177 = CYLINDRICAL_SURFACE ( 'NONE', #72, 12.10000000000000000 ) ;
#178 = FILL_AREA_STYLE ('',( #93 ) ) ;
#179 = DIRECTION ( 'NONE',  ( 1.000000000000000000, 0.0000000000000000000, 0.0000000000000000000 ) ) ;
#180 = PRESENTATION_LAYER_ASSIGNMENT (  '', '', ( #96 ) ) ;
#181 = CYLINDRICAL_SURFACE ( 'NONE', #2, 12.10000000000000000 ) ;
#182 = DIRECTION ( 'NONE',  ( 1.000000000000000000, 0.0000000000000000000, 0.0000000000000000000 ) ) ;
#183 = EDGE_LOOP ( 'NONE', ( #146, #203 ) ) ;
#184 = DIRECTION ( 'NONE',  ( 1.000000000000000000, 0.0000000000000000000, 0.0000000000000000000 ) ) ;
#185 = EDGE_CURVE ( 'NONE', #14, #116, #200, .T. ) ;
#186 = AXIS2_PLACEMENT_3D ( 'NONE', #223, #248, #91 ) ;
#187 = SURFACE_SIDE_STYLE ('',( #274 ) ) ;
#188 = DIRECTION ( 'NONE',  ( 1.000000000000000000, 0.0000000000000000000, 0.0000000000000000000 ) ) ;
#189 = CARTESIAN_POINT ( 'NONE',  ( 12.10000000000000000, 1.481822626968297300E-015, 5.000000000000000000 ) ) ;
#190 = VERTEX_POINT ( 'NONE', #170 ) ;
#191 =( GEOMETRIC_REPRESENTATION_CONTEXT ( 3 ) GLOBAL_UNCERTAINTY_ASSIGNED_CONTEXT ( ( #95 ) ) GLOBAL_UNIT_ASSIGNED_CONTEXT ( ( #288, #78, #286 ) ) REPRESENTATION_CONTEXT ( 'NONE', 'WORKASPACE' ) );
#192 = CARTESIAN_POINT ( 'NONE',  ( 11.00000000000000000, 1.347111479062088400E-015, 3.000000000000000000 ) ) ;
#193 = DIRECTION ( 'NONE',  ( 1.000000000000000000, 0.0000000000000000000, 0.0000000000000000000 ) ) ;
#194 = CLOSED_SHELL ( 'NONE', ( #162, #320, #50, #167, #259, #76, #81, #129, #199, #120, #18 ) ) ;
#195 = EDGE_LOOP ( 'NONE', ( #217, #287 ) ) ;
#196 = CARTESIAN_POINT ( 'NONE',  ( 0.0000000000000000000, 0.0000000000000000000, 3.000000000000000000 ) ) ;
#197 = ORIENTED_EDGE ( 'NONE', *, *, #205, .F. ) ;
#198 = APPLICATION_PROTOCOL_DEFINITION ( 'draft international standard', 'automotive_design', 1998, #253 ) ;
#199 = ADVANCED_FACE ( 'NONE', ( #271, #133 ), #143, .T. ) ;
#200 = CIRCLE ( 'NONE', #309, 12.10000000000000000 ) ;
#201 =( NAMED_UNIT ( * ) PLANE_ANGLE_UNIT ( ) SI_UNIT ( $, .RADIAN. ) );
#202 = DIRECTION ( 'NONE',  ( 1.000000000000000000, 0.0000000000000000000, 0.0000000000000000000 ) ) ;
#203 = ORIENTED_EDGE ( 'NONE', *, *, #333, .T. ) ;
#204 = ORIENTED_EDGE ( 'NONE', *, *, #151, .T. ) ;
#205 = EDGE_CURVE ( 'NONE', #175, #174, #336, .T. ) ;
#206 = SURFACE_STYLE_FILL_AREA ( #178 ) ;
#207 = PRODUCT ( 'Adaptation_raccord', 'Adaptation_raccord', '', ( #114 ) ) ;
#208 = AXIS2_PLACEMENT_3D ( 'NONE', #13, #16, #202 ) ;
#209 = ORIENTED_EDGE ( 'NONE', *, *, #154, .T. ) ;
#210 = EDGE_LOOP ( 'NONE', ( #313, #308, #339, #84 ) ) ;
#211 = EDGE_CURVE ( 'NONE', #344, #310, #341, .T. ) ;
#212 = ORIENTED_EDGE ( 'NONE', *, *, #115, .T. ) ;
#213 = FILL_AREA_STYLE ('',( #263 ) ) ;
#214 = SHAPE_DEFINITION_REPRESENTATION ( #215, #332 ) ;
#215 = PRODUCT_DEFINITION_SHAPE ( 'NONE', 'NONE',  #327 ) ;
#216 = LINE ( 'NONE', #107, #329 ) ;
#217 = ORIENTED_EDGE ( 'NONE', *, *, #23, .T. ) ;
#218 = DIRECTION ( 'NONE',  ( 0.0000000000000000000, 0.0000000000000000000, 1.000000000000000000 ) ) ;
#219 = DIRECTION ( 'NONE',  ( 0.0000000000000000000, 0.0000000000000000000, 1.000000000000000000 ) ) ;
#220 = FACE_OUTER_BOUND ( 'NONE', #210, .T. ) ;
#221 = FACE_OUTER_BOUND ( 'NONE', #269, .T. ) ;
#222 = ORIENTED_EDGE ( 'NONE', *, *, #154, .F. ) ;
#223 = CARTESIAN_POINT ( 'NONE',  ( 0.0000000000000000000, 0.0000000000000000000, 4.499999999999992900 ) ) ;
#224 = VECTOR ( 'NONE', #284, 1000.000000000000000 ) ;
#225 = AXIS2_PLACEMENT_3D ( 'NONE', #125, #337, #28 ) ;
#226 = DIRECTION ( 'NONE',  ( -0.0000000000000000000, -0.0000000000000000000, -1.000000000000000000 ) ) ;
#227 = UNCERTAINTY_MEASURE_WITH_UNIT (LENGTH_MEASURE( 1.000000000000000100E-005 ), #250, 'distance_accuracy_value', 'NONE');
#228 = PRESENTATION_STYLE_ASSIGNMENT (( #316 ) ) ;
#229 = ORIENTED_EDGE ( 'NONE', *, *, #89, .T. ) ;
#230 = CYLINDRICAL_SURFACE ( 'NONE', #122, 11.00000000000000000 ) ;
#231 = AXIS2_PLACEMENT_3D ( 'NONE', #70, #46, #127 ) ;
#232 = DIRECTION ( 'NONE',  ( 1.000000000000000000, 0.0000000000000000000, 0.0000000000000000000 ) ) ;
#233 = PRODUCT_DEFINITION_CONTEXT ( 'detailed design', #253, 'design' ) ;
#234 = VECTOR ( 'NONE', #235, 1000.000000000000100 ) ;
#235 = DIRECTION ( 'NONE',  ( 0.7071067811865500200, 0.0000000000000000000, 0.7071067811865451300 ) ) ;
#236 = CARTESIAN_POINT ( 'NONE',  ( 11.00000000000000000, 0.0000000000000000000, 4.499999999999992900 ) ) ;
#237 = DIRECTION ( 'NONE',  ( -1.000000000000000000, 0.0000000000000000000, 0.0000000000000000000 ) ) ;
#238 = CARTESIAN_POINT ( 'NONE',  ( -12.10000000000000000, 0.0000000000000000000, 5.000000000000000000 ) ) ;
#239 = ORIENTED_EDGE ( 'NONE', *, *, #185, .T. ) ;
#240 = STYLED_ITEM ( 'NONE', ( #321 ), #332 ) ;
#241 = DIRECTION ( 'NONE',  ( 0.0000000000000000000, 0.0000000000000000000, 1.000000000000000000 ) ) ;
#242 = CARTESIAN_POINT ( 'NONE',  ( 0.0000000000000000000, 0.0000000000000000000, 0.0000000000000000000 ) ) ;
#243 = CARTESIAN_POINT ( 'NONE',  ( 0.0000000000000000000, 0.0000000000000000000, 5.000000000000000000 ) ) ;
#244 = CONICAL_SURFACE ( 'NONE', #149, 11.00000000000000000, 0.7853981633974517200 ) ;
#245 = DIRECTION ( 'NONE',  ( 0.0000000000000000000, 0.0000000000000000000, 1.000000000000000000 ) ) ;
#246 = PLANE ( 'NONE',  #342 ) ;
#247 = EDGE_CURVE ( 'NONE', #277, #123, #305, .T. ) ;
#248 = DIRECTION ( 'NONE',  ( 0.0000000000000000000, 0.0000000000000000000, 1.000000000000000000 ) ) ;
#249 = AXIS2_PLACEMENT_3D ( 'NONE', #295, #219, #193 ) ;
#250 =( LENGTH_UNIT ( ) NAMED_UNIT ( * ) SI_UNIT ( .MILLI., .METRE. ) );
#251 = FACE_OUTER_BOUND ( 'NONE', #265, .T. ) ;
#252 =( NAMED_UNIT ( * ) SI_UNIT ( $, .STERADIAN. ) SOLID_ANGLE_UNIT ( ) );
#253 = APPLICATION_CONTEXT ( 'automotive_design' ) ;
#254 = FACE_OUTER_BOUND ( 'NONE', #292, .T. ) ;
#255 = CARTESIAN_POINT ( 'NONE',  ( 12.10000000000000000, 1.481822626968297300E-015, 5.000000000000000000 ) ) ;
#256 = FACE_OUTER_BOUND ( 'NONE', #98, .T. ) ;
#257 = AXIS2_PLACEMENT_3D ( 'NONE', #242, #59, #300 ) ;
#258 = CARTESIAN_POINT ( 'NONE',  ( 11.50000000000001100, 0.0000000000000000000, 5.000000000000000000 ) ) ;
#259 = ADVANCED_FACE ( 'NONE', ( #34, #24 ), #246, .T. ) ;
#260 = DIRECTION ( 'NONE',  ( -0.0000000000000000000, -0.0000000000000000000, -1.000000000000000000 ) ) ;
#261 = EDGE_LOOP ( 'NONE', ( #118, #239 ) ) ;
#262 = CARTESIAN_POINT ( 'NONE',  ( -11.00000000000000000, 0.0000000000000000000, 3.000000000000000000 ) ) ;
#263 = FILL_AREA_STYLE_COLOUR ( '', #299 ) ;
#264 = ORIENTED_EDGE ( 'NONE', *, *, #23, .F. ) ;
#265 = EDGE_LOOP ( 'NONE', ( #318, #222, #38, #169 ) ) ;
#266 = COLOUR_RGB ( '',0.7921568627450980000, 0.8196078431372548800, 0.9333333333333333500 ) ;
#267 = CARTESIAN_POINT ( 'NONE',  ( 12.10000000000000000, 1.481822626968297300E-015, 3.000000000000000000 ) ) ;
#268 = CARTESIAN_POINT ( 'NONE',  ( 0.0000000000000000000, 0.0000000000000000000, 0.0000000000000000000 ) ) ;
#269 = EDGE_LOOP ( 'NONE', ( #324, #69 ) ) ;
#270 = APPLICATION_CONTEXT ( 'automotive_design' ) ;
#271 = FACE_BOUND ( 'NONE', #183, .T. ) ;
#272 = DIRECTION ( 'NONE',  ( -1.000000000000000000, 0.0000000000000000000, 0.0000000000000000000 ) ) ;
#273 = PRESENTATION_LAYER_ASSIGNMENT (  '', '', ( #240 ) ) ;
#274 = SURFACE_STYLE_FILL_AREA ( #213 ) ;
#275 = VERTEX_POINT ( 'NONE', #294 ) ;
#276 = VECTOR ( 'NONE', #51, 1000.000000000000000 ) ;
#277 = VERTEX_POINT ( 'NONE', #323 ) ;
#278 = AXIS2_PLACEMENT_3D ( 'NONE', #164, #166, #188 ) ;
#279 = LINE ( 'NONE', #262, #289 ) ;
#280 = PLANE ( 'NONE',  #225 ) ;
#281 = FACE_OUTER_BOUND ( 'NONE', #144, .T. ) ;
#282 = ORIENTED_EDGE ( 'NONE', *, *, #247, .F. ) ;
#283 = LINE ( 'NONE', #85, #20 ) ;
#284 = DIRECTION ( 'NONE',  ( -0.0000000000000000000, -0.0000000000000000000, -1.000000000000000000 ) ) ;
#285 = AXIS2_PLACEMENT_3D ( 'NONE', #109, #139, #297 ) ;
#286 =( NAMED_UNIT ( * ) SI_UNIT ( $, .STERADIAN. ) SOLID_ANGLE_UNIT ( ) );
#287 = ORIENTED_EDGE ( 'NONE', *, *, #101, .T. ) ;
#288 =( LENGTH_UNIT ( ) NAMED_UNIT ( * ) SI_UNIT ( .MILLI., .METRE. ) );
#289 = VECTOR ( 'NONE', #112, 1000.000000000000000 ) ;
#290 = CARTESIAN_POINT ( 'NONE',  ( 0.0000000000000000000, 0.0000000000000000000, 0.0000000000000000000 ) ) ;
#291 = CARTESIAN_POINT ( 'NONE',  ( -15.00000000000000000, 0.0000000000000000000, 3.000000000000000000 ) ) ;
#292 = EDGE_LOOP ( 'NONE', ( #104, #137, #264, #65 ) ) ;
#293 = AXIS2_PLACEMENT_3D ( 'NONE', #158, #311, #232 ) ;
#294 = CARTESIAN_POINT ( 'NONE',  ( -11.00000000000000000, 0.0000000000000000000, 0.0000000000000000000 ) ) ;
#295 = CARTESIAN_POINT ( 'NONE',  ( 0.0000000000000000000, 0.0000000000000000000, 4.499999999999992900 ) ) ;
#296 = FACE_OUTER_BOUND ( 'NONE', #41, .T. ) ;
#297 = DIRECTION ( 'NONE',  ( 1.000000000000000000, 0.0000000000000000000, 0.0000000000000000000 ) ) ;
#298 = CARTESIAN_POINT ( 'NONE',  ( 0.0000000000000000000, 0.0000000000000000000, 3.000000000000000000 ) ) ;
#299 = COLOUR_RGB ( '',0.7921568627450980000, 0.8196078431372548800, 0.9333333333333333500 ) ;
#300 = DIRECTION ( 'NONE',  ( 1.000000000000000000, 0.0000000000000000000, 0.0000000000000000000 ) ) ;
#301 = EDGE_CURVE ( 'NONE', #71, #148, #155, .T. ) ;
#302 = AXIS2_PLACEMENT_3D ( 'NONE', #290, #241, #130 ) ;
#303 = LINE ( 'NONE', #236, #234 ) ;
#304 =( NAMED_UNIT ( * ) SI_UNIT ( $, .STERADIAN. ) SOLID_ANGLE_UNIT ( ) );
#305 = CIRCLE ( 'NONE', #186, 11.00000000000000000 ) ;
#306 = SURFACE_STYLE_USAGE ( .BOTH. , #11 ) ;
#307 = LINE ( 'NONE', #192, #224 ) ;
#308 = ORIENTED_EDGE ( 'NONE', *, *, #142, .T. ) ;
#309 = AXIS2_PLACEMENT_3D ( 'NONE', #243, #173, #58 ) ;
#310 = VERTEX_POINT ( 'NONE', #325 ) ;
#311 = DIRECTION ( 'NONE',  ( 0.0000000000000000000, 0.0000000000000000000, 1.000000000000000000 ) ) ;
#312 =( GEOMETRIC_REPRESENTATION_CONTEXT ( 3 ) GLOBAL_UNCERTAINTY_ASSIGNED_CONTEXT ( ( #66 ) ) GLOBAL_UNIT_ASSIGNED_CONTEXT ( ( #150, #201, #304 ) ) REPRESENTATION_CONTEXT ( 'NONE', 'WORKASPACE' ) );
#313 = ORIENTED_EDGE ( 'NONE', *, *, #121, .F. ) ;
#314 = DIRECTION ( 'NONE',  ( -1.000000000000000000, 0.0000000000000000000, 0.0000000000000000000 ) ) ;
#315 = DIRECTION ( 'NONE',  ( -0.0000000000000000000, -0.0000000000000000000, -1.000000000000000000 ) ) ;
#316 = SURFACE_STYLE_USAGE ( .BOTH. , #187 ) ;
#317 = AXIS2_PLACEMENT_3D ( 'NONE', #141, #218, #35 ) ;
#318 = ORIENTED_EDGE ( 'NONE', *, *, #75, .F. ) ;
#319 = CARTESIAN_POINT ( 'NONE',  ( 0.0000000000000000000, 0.0000000000000000000, 3.000000000000000000 ) ) ;
#320 = ADVANCED_FACE ( 'NONE', ( #256 ), #177, .T. ) ;
#321 = PRESENTATION_STYLE_ASSIGNMENT (( #306 ) ) ;
#322 = CARTESIAN_POINT ( 'NONE',  ( 0.0000000000000000000, 0.0000000000000000000, 5.000000000000000000 ) ) ;
#323 = CARTESIAN_POINT ( 'NONE',  ( -11.00000000000000000, 0.0000000000000000000, 4.499999999999992900 ) ) ;
#324 = ORIENTED_EDGE ( 'NONE', *, *, #131, .F. ) ;
#325 = CARTESIAN_POINT ( 'NONE',  ( -15.00000000000000000, 0.0000000000000000000, 0.0000000000000000000 ) ) ;
#326 = FACE_OUTER_BOUND ( 'NONE', #79, .T. ) ;
#327 = PRODUCT_DEFINITION ( 'UNKNOWN', '', #53, #233 ) ;
#328 = EDGE_CURVE ( 'NONE', #113, #190, #77, .T. ) ;
#329 = VECTOR ( 'NONE', #32, 1000.000000000000000 ) ;
#330 = APPLICATION_PROTOCOL_DEFINITION ( 'draft international standard', 'automotive_design', 1998, #270 ) ;
#331 = ORIENTED_EDGE ( 'NONE', *, *, #49, .F. ) ;
#332 = ADVANCED_BREP_SHAPE_REPRESENTATION ( 'Adaptation_raccord', ( #103, #171 ), #82 ) ;
#333 = EDGE_CURVE ( 'NONE', #148, #71, #159, .T. ) ;
#334 = AXIS2_PLACEMENT_3D ( 'NONE', #322, #54, #57 ) ;
#335 = CARTESIAN_POINT ( 'NONE',  ( 11.00000000000000000, 1.347111479062088400E-015, 0.0000000000000000000 ) ) ;
#336 = CIRCLE ( 'NONE', #12, 12.10000000000000000 ) ;
#337 = DIRECTION ( 'NONE',  ( 0.0000000000000000000, 0.0000000000000000000, 1.000000000000000000 ) ) ;
#338 = CARTESIAN_POINT ( 'NONE',  ( 0.0000000000000000000, 0.0000000000000000000, 3.000000000000000000 ) ) ;
#339 = ORIENTED_EDGE ( 'NONE', *, *, #211, .T. ) ;
#340 = ORIENTED_EDGE ( 'NONE', *, *, #301, .F. ) ;
#341 = CIRCLE ( 'NONE', #257, 15.00000000000000000 ) ;
#342 = AXIS2_PLACEMENT_3D ( 'NONE', #196, #6, #39 ) ;
#343 = CARTESIAN_POINT ( 'NONE',  ( -12.10000000000000000, 0.0000000000000000000, 5.000000000000000000 ) ) ;
#344 = VERTEX_POINT ( 'NONE', #147 ) ;
ENDSEC;
END-ISO-10303-21;
