ISO-10303-21;
HEADER;
FILE_DESCRIPTION (( 'STEP AP203' ),
    '1' );
FILE_NAME ('Pièce1.STEP',
    '2017-05-30T11:10:32',
    ( '' ),
    ( '' ),
    'SwSTEP 2.0',
    'SolidWorks 2017',
    '' );
FILE_SCHEMA (( 'CONFIG_CONTROL_DESIGN' ));
ENDSEC;

DATA;
#1 = DIRECTION ( 'NONE',  ( 0.0000000000000000000, 0.0000000000000000000, 1.000000000000000000 ) ) ;
#2 = DIRECTION ( 'NONE',  ( -0.0000000000000000000, -0.0000000000000000000, -1.000000000000000000 ) ) ;
#3 = DIRECTION ( 'NONE',  ( 0.0000000000000000000, 0.0000000000000000000, 1.000000000000000000 ) ) ;
#4 = DIRECTION ( 'NONE',  ( -1.000000000000000000, 0.0000000000000000000, 0.0000000000000000000 ) ) ;
#5 = SECURITY_CLASSIFICATION ( '', '', #136 ) ;
#6 = AXIS2_PLACEMENT_3D ( 'NONE', #154, #3, #167 ) ;
#7 = FACE_OUTER_BOUND ( 'NONE', #236, .T. ) ;
#8 = CC_DESIGN_SECURITY_CLASSIFICATION ( #5, ( #54 ) ) ;
#9 = DIRECTION ( 'NONE',  ( 1.000000000000000000, 0.0000000000000000000, 0.0000000000000000000 ) ) ;
#10 = CALENDAR_DATE ( 2017, 30, 5 ) ;
#11 = VECTOR ( 'NONE', #223, 1000.000000000000000 ) ;
#12 = ORIENTED_EDGE ( 'NONE', *, *, #200, .T. ) ;
#13 = VERTEX_POINT ( 'NONE', #249 ) ;
#14 = CARTESIAN_POINT ( 'NONE',  ( 0.0000000000000000000, 0.0000000000000000000, 35.00000000000000000 ) ) ;
#15 = PRODUCT_DEFINITION ( 'UNKNOWN', '', #54, #107 ) ;
#16 = PRODUCT_DEFINITION_SHAPE ( 'NONE', 'NONE',  #15 ) ;
#17 = PERSON_AND_ORGANIZATION ( #187, #146 ) ;
#18 = APPROVAL_PERSON_ORGANIZATION ( #87, #163, #212 ) ;
#19 = FACE_BOUND ( 'NONE', #185, .T. ) ;
#20 = ORIENTED_EDGE ( 'NONE', *, *, #44, .F. ) ;
#21 = CARTESIAN_POINT ( 'NONE',  ( 8.500000000000000000, 1.040949779275250100E-015, 0.0000000000000000000 ) ) ;
#22 = ORIENTED_EDGE ( 'NONE', *, *, #61, .F. ) ;
#23 = CC_DESIGN_APPROVAL ( #233, ( #5 ) ) ;
#24 = DIRECTION ( 'NONE',  ( 1.000000000000000000, 0.0000000000000000000, 0.0000000000000000000 ) ) ;
#25 = CC_DESIGN_PERSON_AND_ORGANIZATION_ASSIGNMENT ( #182, #103, ( #15 ) ) ;
#26 = DATE_AND_TIME ( #86, #72 ) ;
#27 = COORDINATED_UNIVERSAL_TIME_OFFSET ( 1, 0, .AHEAD. ) ;
#28 = CIRCLE ( 'NONE', #110, 4.149999999999999500 ) ;
#29 = LINE ( 'NONE', #169, #127 ) ;
#30 = CARTESIAN_POINT ( 'NONE',  ( -4.149999999999999500, 0.0000000000000000000, 0.0000000000000000000 ) ) ;
#31 = ORIENTED_EDGE ( 'NONE', *, *, #78, .F. ) ;
#32 = EDGE_LOOP ( 'NONE', ( #186, #177 ) ) ;
#33 = CARTESIAN_POINT ( 'NONE',  ( -8.500000000000000000, 0.0000000000000000000, 35.00000000000000000 ) ) ;
#34 = MANIFOLD_SOLID_BREP ( 'Boss.-Extru.1', #219 ) ;
#35 = CC_DESIGN_DATE_AND_TIME_ASSIGNMENT ( #26, #55, ( #15 ) ) ;
#36 = EDGE_CURVE ( 'NONE', #101, #69, #159, .T. ) ;
#37 = FACE_OUTER_BOUND ( 'NONE', #180, .T. ) ;
#38 = VERTEX_POINT ( 'NONE', #228 ) ;
#39 = CALENDAR_DATE ( 2017, 30, 5 ) ;
#40 = CC_DESIGN_APPROVAL ( #60, ( #54 ) ) ;
#41 = EDGE_CURVE ( 'NONE', #82, #13, #248, .T. ) ;
#42 = CALENDAR_DATE ( 2017, 30, 5 ) ;
#43 = FACE_BOUND ( 'NONE', #149, .T. ) ;
#44 = EDGE_CURVE ( 'NONE', #91, #38, #184, .T. ) ;
#45 = DIRECTION ( 'NONE',  ( 1.000000000000000000, 0.0000000000000000000, 0.0000000000000000000 ) ) ;
#46 = DIRECTION ( 'NONE',  ( -0.0000000000000000000, -0.0000000000000000000, -1.000000000000000000 ) ) ;
#47 = ADVANCED_FACE ( 'NONE', ( #37 ), #235, .F. ) ;
#48 = DIRECTION ( 'NONE',  ( -0.0000000000000000000, -0.0000000000000000000, -1.000000000000000000 ) ) ;
#49 = PERSON_AND_ORGANIZATION ( #187, #146 ) ;
#50 = PERSON_AND_ORGANIZATION_ROLE ( 'design_owner' ) ;
#51 = DIRECTION ( 'NONE',  ( 0.0000000000000000000, 0.0000000000000000000, 1.000000000000000000 ) ) ;
#52 = CARTESIAN_POINT ( 'NONE',  ( 4.149999999999999500, 5.082284216461514200E-016, 35.00000000000000000 ) ) ;
#53 = APPROVAL_STATUS ( 'not_yet_approved' ) ;
#54 = PRODUCT_DEFINITION_FORMATION_WITH_SPECIFIED_SOURCE ( 'ANY', '', #171, .NOT_KNOWN. ) ;
#55 = DATE_TIME_ROLE ( 'creation_date' ) ;
#56 = CARTESIAN_POINT ( 'NONE',  ( 0.0000000000000000000, 0.0000000000000000000, 35.00000000000000000 ) ) ;
#57 = CC_DESIGN_PERSON_AND_ORGANIZATION_ASSIGNMENT ( #17, #175, ( #54 ) ) ;
#58 = EDGE_CURVE ( 'NONE', #38, #69, #147, .T. ) ;
#59 = ORIENTED_EDGE ( 'NONE', *, *, #58, .T. ) ;
#60 = APPROVAL ( #211, 'UNSPECIFIED' ) ;
#61 = EDGE_CURVE ( 'NONE', #13, #82, #140, .T. ) ;
#62 = APPROVAL_DATE_TIME ( #122, #60 ) ;
#63 = FACE_OUTER_BOUND ( 'NONE', #80, .T. ) ;
#64 = CARTESIAN_POINT ( 'NONE',  ( 8.500000000000000000, 1.040949779275250100E-015, 35.00000000000000000 ) ) ;
#65 = CARTESIAN_POINT ( 'NONE',  ( -8.500000000000000000, 0.0000000000000000000, 35.00000000000000000 ) ) ;
#66 = CARTESIAN_POINT ( 'NONE',  ( 0.0000000000000000000, 0.0000000000000000000, 35.00000000000000000 ) ) ;
#67 = CC_DESIGN_PERSON_AND_ORGANIZATION_ASSIGNMENT ( #137, #209, ( #54 ) ) ;
#68 = CARTESIAN_POINT ( 'NONE',  ( 0.0000000000000000000, 0.0000000000000000000, 0.0000000000000000000 ) ) ;
#69 = VERTEX_POINT ( 'NONE', #30 ) ;
#70 = CARTESIAN_POINT ( 'NONE',  ( -4.149999999999999500, 0.0000000000000000000, 35.00000000000000000 ) ) ;
#71 = PERSON_AND_ORGANIZATION_ROLE ( 'classification_officer' ) ;
#72 = LOCAL_TIME ( 13, 10, 32.00000000000000000, #174 ) ;
#73 = LINE ( 'NONE', #65, #11 ) ;
#74 = ORIENTED_EDGE ( 'NONE', *, *, #208, .T. ) ;
#75 = ORIENTED_EDGE ( 'NONE', *, *, #123, .F. ) ;
#76 = AXIS2_PLACEMENT_3D ( 'NONE', #14, #1, #84 ) ;
#77 = PERSON_AND_ORGANIZATION ( #187, #146 ) ;
#78 = EDGE_CURVE ( 'NONE', #38, #91, #194, .T. ) ;
#79 = CYLINDRICAL_SURFACE ( 'NONE', #100, 8.500000000000000000 ) ;
#80 = EDGE_LOOP ( 'NONE', ( #181, #132, #166, #12 ) ) ;
#81 = ORIENTED_EDGE ( 'NONE', *, *, #123, .T. ) ;
#82 = VERTEX_POINT ( 'NONE', #33 ) ;
#83 = AXIS2_PLACEMENT_3D ( 'NONE', #135, #130, #243 ) ;
#84 = DIRECTION ( 'NONE',  ( 1.000000000000000000, 0.0000000000000000000, 0.0000000000000000000 ) ) ;
#85 = COORDINATED_UNIVERSAL_TIME_OFFSET ( 1, 0, .AHEAD. ) ;
#86 = CALENDAR_DATE ( 2017, 30, 5 ) ;
#87 = PERSON_AND_ORGANIZATION ( #187, #146 ) ;
#88 = ORIENTED_EDGE ( 'NONE', *, *, #98, .T. ) ;
#89 = VERTEX_POINT ( 'NONE', #160 ) ;
#90 =( NAMED_UNIT ( * ) PLANE_ANGLE_UNIT ( ) SI_UNIT ( $, .RADIAN. ) );
#91 = VERTEX_POINT ( 'NONE', #52 ) ;
#92 = CARTESIAN_POINT ( 'NONE',  ( 0.0000000000000000000, 0.0000000000000000000, 0.0000000000000000000 ) ) ;
#93 = CARTESIAN_POINT ( 'NONE',  ( 4.149999999999999500, 5.082284216461514200E-016, 0.0000000000000000000 ) ) ;
#94 = CARTESIAN_POINT ( 'NONE',  ( 0.0000000000000000000, 0.0000000000000000000, 35.00000000000000000 ) ) ;
#95 = APPLICATION_CONTEXT ( 'configuration controlled 3d designs of mechanical parts and assemblies' ) ;
#96 = DATE_AND_TIME ( #245, #108 ) ;
#97 = DIRECTION ( 'NONE',  ( -1.000000000000000000, 0.0000000000000000000, 0.0000000000000000000 ) ) ;
#98 = EDGE_CURVE ( 'NONE', #91, #101, #29, .T. ) ;
#99 = DIRECTION ( 'NONE',  ( -0.0000000000000000000, -0.0000000000000000000, -1.000000000000000000 ) ) ;
#100 = AXIS2_PLACEMENT_3D ( 'NONE', #66, #189, #4 ) ;
#101 = VERTEX_POINT ( 'NONE', #93 ) ;
#102 = VERTEX_POINT ( 'NONE', #21 ) ;
#103 = PERSON_AND_ORGANIZATION_ROLE ( 'creator' ) ;
#104 = DATE_AND_TIME ( #39, #191 ) ;
#105 = CC_DESIGN_APPROVAL ( #163, ( #15 ) ) ;
#106 = FACE_OUTER_BOUND ( 'NONE', #32, .T. ) ;
#107 = DESIGN_CONTEXT ( 'detailed design', #95, 'design' ) ;
#108 = LOCAL_TIME ( 13, 10, 32.00000000000000000, #85 ) ;
#109 = EDGE_CURVE ( 'NONE', #82, #89, #73, .T. ) ;
#110 = AXIS2_PLACEMENT_3D ( 'NONE', #68, #246, #115 ) ;
#111 = DIRECTION ( 'NONE',  ( 1.000000000000000000, 0.0000000000000000000, -0.0000000000000000000 ) ) ;
#112 = DIRECTION ( 'NONE',  ( 1.000000000000000000, 0.0000000000000000000, 0.0000000000000000000 ) ) ;
#113 = ADVANCED_FACE ( 'NONE', ( #63 ), #79, .T. ) ;
#114 = APPLICATION_PROTOCOL_DEFINITION ( 'international standard', 'config_control_design', 1994, #202 ) ;
#115 = DIRECTION ( 'NONE',  ( 1.000000000000000000, 0.0000000000000000000, 0.0000000000000000000 ) ) ;
#116 = AXIS2_PLACEMENT_3D ( 'NONE', #188, #222, #224 ) ;
#117 = DATE_TIME_ROLE ( 'classification_date' ) ;
#118 = APPLICATION_PROTOCOL_DEFINITION ( 'international standard', 'config_control_design', 1994, #95 ) ;
#119 = DIRECTION ( 'NONE',  ( 1.000000000000000000, 0.0000000000000000000, 0.0000000000000000000 ) ) ;
#120 = APPROVAL_STATUS ( 'not_yet_approved' ) ;
#121 = AXIS2_PLACEMENT_3D ( 'NONE', #92, #205, #45 ) ;
#122 = DATE_AND_TIME ( #10, #178 ) ;
#123 = EDGE_CURVE ( 'NONE', #102, #89, #124, .T. ) ;
#124 = CIRCLE ( 'NONE', #121, 8.500000000000000000 ) ;
#125 = ORIENTED_EDGE ( 'NONE', *, *, #36, .F. ) ;
#126 = AXIS2_PLACEMENT_3D ( 'NONE', #133, #2, #97 ) ;
#127 = VECTOR ( 'NONE', #48, 1000.000000000000000 ) ;
#128 = COORDINATED_UNIVERSAL_TIME_OFFSET ( 1, 0, .AHEAD. ) ;
#129 = LINE ( 'NONE', #64, #216 ) ;
#130 = DIRECTION ( 'NONE',  ( -0.0000000000000000000, -0.0000000000000000000, -1.000000000000000000 ) ) ;
#131 = ORIENTED_EDGE ( 'NONE', *, *, #139, .T. ) ;
#132 = ORIENTED_EDGE ( 'NONE', *, *, #41, .F. ) ;
#133 = CARTESIAN_POINT ( 'NONE',  ( 0.0000000000000000000, 0.0000000000000000000, 35.00000000000000000 ) ) ;
#134 = ADVANCED_FACE ( 'NONE', ( #138 ), #214, .T. ) ;
#135 = CARTESIAN_POINT ( 'NONE',  ( 0.0000000000000000000, 0.0000000000000000000, 35.00000000000000000 ) ) ;
#136 = SECURITY_CLASSIFICATION_LEVEL ( 'unclassified' ) ;
#137 = PERSON_AND_ORGANIZATION ( #187, #146 ) ;
#138 = FACE_OUTER_BOUND ( 'NONE', #197, .T. ) ;
#139 = EDGE_CURVE ( 'NONE', #69, #101, #28, .T. ) ;
#140 = CIRCLE ( 'NONE', #76, 8.500000000000000000 ) ;
#141 = ORIENTED_EDGE ( 'NONE', *, *, #98, .F. ) ;
#142 = ORIENTED_EDGE ( 'NONE', *, *, #78, .T. ) ;
#143 = APPROVAL_PERSON_ORGANIZATION ( #49, #233, #195 ) ;
#144 = DIRECTION ( 'NONE',  ( 0.0000000000000000000, 0.0000000000000000000, 1.000000000000000000 ) ) ;
#145 = PERSON_AND_ORGANIZATION ( #187, #146 ) ;
#146 = ORGANIZATION ( 'UNSPECIFIED', 'UNSPECIFIED', '' ) ;
#147 = LINE ( 'NONE', #70, #153 ) ;
#148 = ORIENTED_EDGE ( 'NONE', *, *, #44, .T. ) ;
#149 = EDGE_LOOP ( 'NONE', ( #31, #20 ) ) ;
#150 = SHAPE_DEFINITION_REPRESENTATION ( #16, #247 ) ;
#151 = AXIS2_PLACEMENT_3D ( 'NONE', #210, #230, #119 ) ;
#152 = AXIS2_PLACEMENT_3D ( 'NONE', #221, #155, #24 ) ;
#153 = VECTOR ( 'NONE', #206, 1000.000000000000000 ) ;
#154 = CARTESIAN_POINT ( 'NONE',  ( 0.0000000000000000000, 0.0000000000000000000, 35.00000000000000000 ) ) ;
#155 = DIRECTION ( 'NONE',  ( 0.0000000000000000000, 0.0000000000000000000, 1.000000000000000000 ) ) ;
#156 = ADVANCED_FACE ( 'NONE', ( #7, #19 ), #157, .F. ) ;
#157 = PLANE ( 'NONE',  #225 ) ;
#158 =( GEOMETRIC_REPRESENTATION_CONTEXT ( 3 ) GLOBAL_UNCERTAINTY_ASSIGNED_CONTEXT ( ( #162 ) ) GLOBAL_UNIT_ASSIGNED_CONTEXT ( ( #168, #90, #217 ) ) REPRESENTATION_CONTEXT ( 'NONE', 'WORKASPACE' ) );
#159 = CIRCLE ( 'NONE', #151, 4.149999999999999500 ) ;
#160 = CARTESIAN_POINT ( 'NONE',  ( -8.500000000000000000, 0.0000000000000000000, 0.0000000000000000000 ) ) ;
#161 = APPROVAL_ROLE ( '' ) ;
#162 = UNCERTAINTY_MEASURE_WITH_UNIT (LENGTH_MEASURE( 1.000000000000000100E-005 ), #168, 'distance_accuracy_value', 'NONE');
#163 = APPROVAL ( #53, 'UNSPECIFIED' ) ;
#164 = DIRECTION ( 'NONE',  ( 1.000000000000000000, 0.0000000000000000000, 0.0000000000000000000 ) ) ;
#165 = CC_DESIGN_PERSON_AND_ORGANIZATION_ASSIGNMENT ( #183, #50, ( #171 ) ) ;
#166 = ORIENTED_EDGE ( 'NONE', *, *, #109, .T. ) ;
#167 = DIRECTION ( 'NONE',  ( 1.000000000000000000, 0.0000000000000000000, -0.0000000000000000000 ) ) ;
#168 =( LENGTH_UNIT ( ) NAMED_UNIT ( * ) SI_UNIT ( .MILLI., .METRE. ) );
#169 = CARTESIAN_POINT ( 'NONE',  ( 4.149999999999999500, 5.082284216461514200E-016, 35.00000000000000000 ) ) ;
#170 = MECHANICAL_CONTEXT ( 'NONE', #202, 'mechanical' ) ;
#171 = PRODUCT ( 'Pièce1', 'Pièce1', '', ( #170 ) ) ;
#172 = DIRECTION ( 'NONE',  ( 0.0000000000000000000, 0.0000000000000000000, 1.000000000000000000 ) ) ;
#173 = AXIS2_PLACEMENT_3D ( 'NONE', #227, #172, #164 ) ;
#174 = COORDINATED_UNIVERSAL_TIME_OFFSET ( 1, 0, .AHEAD. ) ;
#175 = PERSON_AND_ORGANIZATION_ROLE ( 'creator' ) ;
#176 = CYLINDRICAL_SURFACE ( 'NONE', #126, 4.149999999999999500 ) ;
#177 = ORIENTED_EDGE ( 'NONE', *, *, #61, .T. ) ;
#178 = LOCAL_TIME ( 13, 10, 32.00000000000000000, #128 ) ;
#179 = FACE_OUTER_BOUND ( 'NONE', #232, .T. ) ;
#180 = EDGE_LOOP ( 'NONE', ( #141, #148, #59, #125 ) ) ;
#181 = ORIENTED_EDGE ( 'NONE', *, *, #208, .F. ) ;
#182 = PERSON_AND_ORGANIZATION ( #187, #146 ) ;
#183 = PERSON_AND_ORGANIZATION ( #187, #146 ) ;
#184 = CIRCLE ( 'NONE', #116, 4.149999999999999500 ) ;
#185 = EDGE_LOOP ( 'NONE', ( #131, #207 ) ) ;
#186 = ORIENTED_EDGE ( 'NONE', *, *, #41, .T. ) ;
#187 = PERSON ( 'UNSPECIFIED', 'UNSPECIFIED', 'UNSPECIFIED', ('UNSPECIFIED'), ('UNSPECIFIED'), ('UNSPECIFIED') ) ;
#188 = CARTESIAN_POINT ( 'NONE',  ( 0.0000000000000000000, 0.0000000000000000000, 35.00000000000000000 ) ) ;
#189 = DIRECTION ( 'NONE',  ( -0.0000000000000000000, -0.0000000000000000000, -1.000000000000000000 ) ) ;
#190 = DIRECTION ( 'NONE',  ( 0.0000000000000000000, 0.0000000000000000000, 1.000000000000000000 ) ) ;
#191 = LOCAL_TIME ( 13, 10, 32.00000000000000000, #234 ) ;
#192 = CARTESIAN_POINT ( 'NONE',  ( 0.0000000000000000000, 0.0000000000000000000, 0.0000000000000000000 ) ) ;
#193 = AXIS2_PLACEMENT_3D ( 'NONE', #56, #144, #9 ) ;
#194 = CIRCLE ( 'NONE', #173, 4.149999999999999500 ) ;
#195 = APPROVAL_ROLE ( '' ) ;
#196 = ORIENTED_EDGE ( 'NONE', *, *, #200, .F. ) ;
#197 = EDGE_LOOP ( 'NONE', ( #22, #74, #81, #237 ) ) ;
#198 = APPROVAL_DATE_TIME ( #96, #233 ) ;
#199 = DATE_AND_TIME ( #42, #240 ) ;
#200 = EDGE_CURVE ( 'NONE', #89, #102, #229, .T. ) ;
#201 = CC_DESIGN_PERSON_AND_ORGANIZATION_ASSIGNMENT ( #145, #71, ( #5 ) ) ;
#202 = APPLICATION_CONTEXT ( 'configuration controlled 3d designs of mechanical parts and assemblies' ) ;
#203 = ADVANCED_FACE ( 'NONE', ( #179 ), #176, .F. ) ;
#204 = DIRECTION ( 'NONE',  ( -1.000000000000000000, 0.0000000000000000000, 0.0000000000000000000 ) ) ;
#205 = DIRECTION ( 'NONE',  ( 0.0000000000000000000, 0.0000000000000000000, 1.000000000000000000 ) ) ;
#206 = DIRECTION ( 'NONE',  ( -0.0000000000000000000, -0.0000000000000000000, -1.000000000000000000 ) ) ;
#207 = ORIENTED_EDGE ( 'NONE', *, *, #36, .T. ) ;
#208 = EDGE_CURVE ( 'NONE', #13, #102, #129, .T. ) ;
#209 = PERSON_AND_ORGANIZATION_ROLE ( 'design_supplier' ) ;
#210 = CARTESIAN_POINT ( 'NONE',  ( 0.0000000000000000000, 0.0000000000000000000, 0.0000000000000000000 ) ) ;
#211 = APPROVAL_STATUS ( 'not_yet_approved' ) ;
#212 = APPROVAL_ROLE ( '' ) ;
#213 = AXIS2_PLACEMENT_3D ( 'NONE', #94, #99, #204 ) ;
#214 = CYLINDRICAL_SURFACE ( 'NONE', #83, 8.500000000000000000 ) ;
#215 = APPROVAL_PERSON_ORGANIZATION ( #77, #60, #161 ) ;
#216 = VECTOR ( 'NONE', #46, 1000.000000000000000 ) ;
#217 =( NAMED_UNIT ( * ) SI_UNIT ( $, .STERADIAN. ) SOLID_ANGLE_UNIT ( ) );
#218 = CARTESIAN_POINT ( 'NONE',  ( 0.0000000000000000000, 0.0000000000000000000, 0.0000000000000000000 ) ) ;
#219 = CLOSED_SHELL ( 'NONE', ( #203, #134, #220, #156, #113, #47 ) ) ;
#220 = ADVANCED_FACE ( 'NONE', ( #106, #43 ), #241, .T. ) ;
#221 = CARTESIAN_POINT ( 'NONE',  ( 0.0000000000000000000, 0.0000000000000000000, 0.0000000000000000000 ) ) ;
#222 = DIRECTION ( 'NONE',  ( 0.0000000000000000000, 0.0000000000000000000, 1.000000000000000000 ) ) ;
#223 = DIRECTION ( 'NONE',  ( -0.0000000000000000000, -0.0000000000000000000, -1.000000000000000000 ) ) ;
#224 = DIRECTION ( 'NONE',  ( 1.000000000000000000, 0.0000000000000000000, 0.0000000000000000000 ) ) ;
#225 = AXIS2_PLACEMENT_3D ( 'NONE', #218, #51, #111 ) ;
#226 = APPROVAL_DATE_TIME ( #199, #163 ) ;
#227 = CARTESIAN_POINT ( 'NONE',  ( 0.0000000000000000000, 0.0000000000000000000, 35.00000000000000000 ) ) ;
#228 = CARTESIAN_POINT ( 'NONE',  ( -4.149999999999999500, 0.0000000000000000000, 35.00000000000000000 ) ) ;
#229 = CIRCLE ( 'NONE', #239, 8.500000000000000000 ) ;
#230 = DIRECTION ( 'NONE',  ( 0.0000000000000000000, 0.0000000000000000000, 1.000000000000000000 ) ) ;
#231 = ORIENTED_EDGE ( 'NONE', *, *, #139, .F. ) ;
#232 = EDGE_LOOP ( 'NONE', ( #142, #88, #231, #242 ) ) ;
#233 = APPROVAL ( #120, 'UNSPECIFIED' ) ;
#234 = COORDINATED_UNIVERSAL_TIME_OFFSET ( 1, 0, .AHEAD. ) ;
#235 = CYLINDRICAL_SURFACE ( 'NONE', #213, 4.149999999999999500 ) ;
#236 = EDGE_LOOP ( 'NONE', ( #196, #75 ) ) ;
#237 = ORIENTED_EDGE ( 'NONE', *, *, #109, .F. ) ;
#238 = PRODUCT_RELATED_PRODUCT_CATEGORY ( 'detail', '', ( #171 ) ) ;
#239 = AXIS2_PLACEMENT_3D ( 'NONE', #192, #190, #112 ) ;
#240 = LOCAL_TIME ( 13, 10, 32.00000000000000000, #27 ) ;
#241 = PLANE ( 'NONE',  #6 ) ;
#242 = ORIENTED_EDGE ( 'NONE', *, *, #58, .F. ) ;
#243 = DIRECTION ( 'NONE',  ( -1.000000000000000000, 0.0000000000000000000, 0.0000000000000000000 ) ) ;
#244 = CC_DESIGN_DATE_AND_TIME_ASSIGNMENT ( #104, #117, ( #5 ) ) ;
#245 = CALENDAR_DATE ( 2017, 30, 5 ) ;
#246 = DIRECTION ( 'NONE',  ( 0.0000000000000000000, 0.0000000000000000000, 1.000000000000000000 ) ) ;
#247 = ADVANCED_BREP_SHAPE_REPRESENTATION ( 'PiÞce1', ( #34, #152 ), #158 ) ;
#248 = CIRCLE ( 'NONE', #193, 8.500000000000000000 ) ;
#249 = CARTESIAN_POINT ( 'NONE',  ( 8.500000000000000000, 1.040949779275250100E-015, 35.00000000000000000 ) ) ;
ENDSEC;
END-ISO-10303-21;
