ISO-10303-21;
HEADER;
FILE_DESCRIPTION(('CATIA V5 STEP Exchange'),'2;1');

FILE_NAME('D:\\Mes documents - D\\Mes images\\Chaussure Splitboard\\Consultation 17-05\\Lot 4 - Axes - Bouton - Tournage\\Doigt Orientation Charniere - 00.stp','2017-05-20T10:45:33+00:00',('none'),('none'),'CATIA Version 5 Release 16 (IN-10)','CATIA V5 STEP AP203','none');

FILE_SCHEMA(('CONFIG_CONTROL_DESIGN'));

ENDSEC;
/* file written by CATIA V5R16 */
DATA;
#5=PRODUCT('Doigt Orientation Charniere - 00','','',(#2)) ;
#1=APPLICATION_CONTEXT('configuration controlled 3D design of mechanical parts and assemblies') ;
#14=PRODUCT_DEFINITION(' ',' ',#6,#3) ;
#16=SECURITY_CLASSIFICATION(' ',' ',#15) ;
#15=SECURITY_CLASSIFICATION_LEVEL('unclassified') ;
#47=CARTESIAN_POINT(' ',(0.,0.,0.)) ;
#52=CARTESIAN_POINT('Axis2P3D Location',(0.,-2.9,27.)) ;
#57=CARTESIAN_POINT('Line Origine',(-0.965340818079,0.,27.5273680925)) ;
#61=CARTESIAN_POINT('Vertex',(-0.965340818079,2.84044311771,27.5273680925)) ;
#63=CARTESIAN_POINT('Vertex',(-0.965340818079,-2.84044311771,27.5273680925)) ;
#67=CARTESIAN_POINT('Control Point',(-0.965340818079,2.84044311771,27.5273680925)) ;
#68=CARTESIAN_POINT('Control Point',(-0.830741786481,2.88618736742,27.7737499672)) ;
#69=CARTESIAN_POINT('Control Point',(-0.618894351856,2.94928982176,27.974707928)) ;
#70=CARTESIAN_POINT('Control Point',(-0.346266896951,3.00311307954,28.1053375373)) ;
#71=CARTESIAN_POINT('Control Point',(0.17743631758,3.01956386225,28.1573164836)) ;
#72=CARTESIAN_POINT('Control Point',(0.635491137461,2.94167020686,27.9360266827)) ;
#73=CARTESIAN_POINT('Control Point',(0.802428133862,2.89599755951,27.7966529293)) ;
#74=CARTESIAN_POINT('Control Point',(1.05070595155,2.81340820588,27.4614266701)) ;
#75=CARTESIAN_POINT('Control Point',(1.12656677135,2.78010930916,27.0460626387)) ;
#76=CARTESIAN_POINT('Control Point',(1.11568179897,2.78501072187,26.8389752445)) ;
#77=CARTESIAN_POINT('Control Point',(1.05935468836,2.80849196689,26.6447231428)) ;
#78=CARTESIAN_POINT('Control Point',(0.965340818079,2.84044311771,26.4726319075)) ;
#79=CARTESIAN_POINT('Vertex',(0.965340818079,2.84044311771,26.4726319075)) ;
#82=CARTESIAN_POINT('Line Origine',(0.965340818079,0.,26.4726319075)) ;
#86=CARTESIAN_POINT('Vertex',(0.965340818079,-2.84044311771,26.4726319075)) ;
#90=CARTESIAN_POINT('Control Point',(-0.965340818079,-2.84044311771,27.5273680925)) ;
#91=CARTESIAN_POINT('Control Point',(-0.830741786487,-2.88618736742,27.7737499671)) ;
#92=CARTESIAN_POINT('Control Point',(-0.618894351874,-2.94928982176,27.974707928)) ;
#93=CARTESIAN_POINT('Control Point',(-0.346266896926,-3.00311307954,28.1053375373)) ;
#94=CARTESIAN_POINT('Control Point',(0.177436317592,-3.01956386224,28.1573164836)) ;
#95=CARTESIAN_POINT('Control Point',(0.635491137465,-2.94167020686,27.9360266827)) ;
#96=CARTESIAN_POINT('Control Point',(0.80242813386,-2.89599755951,27.7966529293)) ;
#97=CARTESIAN_POINT('Control Point',(1.05070595155,-2.81340820588,27.4614266701)) ;
#98=CARTESIAN_POINT('Control Point',(1.12656677135,-2.78010930916,27.0460626387)) ;
#99=CARTESIAN_POINT('Control Point',(1.11568179896,-2.78501072187,26.8389752445)) ;
#100=CARTESIAN_POINT('Control Point',(1.05935468836,-2.80849196689,26.6447231427)) ;
#101=CARTESIAN_POINT('Control Point',(0.965340818079,-2.84044311771,26.4726319075)) ;
#111=CARTESIAN_POINT('Control Point',(-0.965340818079,2.84044311771,27.5273680925)) ;
#112=CARTESIAN_POINT('Control Point',(-1.06608084387,2.80620604452,27.3429647122)) ;
#113=CARTESIAN_POINT('Control Point',(-1.12354866224,2.78169417784,27.1331160662)) ;
#114=CARTESIAN_POINT('Control Point',(-1.12787720622,2.77970222619,26.9091592857)) ;
#115=CARTESIAN_POINT('Control Point',(-1.04467979104,2.81589834216,26.5540757605)) ;
#116=CARTESIAN_POINT('Control Point',(-0.837636668983,2.88288478251,26.2661525738)) ;
#117=CARTESIAN_POINT('Control Point',(-0.736578563856,2.91156519475,26.1647292418)) ;
#118=CARTESIAN_POINT('Control Point',(-0.506052278786,2.96394688645,25.997857747)) ;
#119=CARTESIAN_POINT('Control Point',(-0.232072760405,2.99593758076,25.9106097787)) ;
#120=CARTESIAN_POINT('Control Point',(-0.0888976406927,3.0039723445,25.8895300509)) ;
#121=CARTESIAN_POINT('Control Point',(0.257009279616,3.00105378354,25.8960741446)) ;
#122=CARTESIAN_POINT('Control Point',(0.576703185145,2.95279328445,26.0316645849)) ;
#123=CARTESIAN_POINT('Control Point',(0.739463451088,2.91286385099,26.1504248756)) ;
#124=CARTESIAN_POINT('Control Point',(0.871268843956,2.87241401545,26.3004343139)) ;
#125=CARTESIAN_POINT('Control Point',(0.965340818079,2.84044311771,26.4726319075)) ;
#128=CARTESIAN_POINT('Control Point',(-0.965340818079,-2.84044311771,27.5273680925)) ;
#129=CARTESIAN_POINT('Control Point',(-1.06608084387,-2.80620604452,27.3429647122)) ;
#130=CARTESIAN_POINT('Control Point',(-1.12354866224,-2.78169417784,27.1331160662)) ;
#131=CARTESIAN_POINT('Control Point',(-1.12787720622,-2.77970222619,26.9091592857)) ;
#132=CARTESIAN_POINT('Control Point',(-1.04467979104,-2.81589834216,26.5540757605)) ;
#133=CARTESIAN_POINT('Control Point',(-0.837636668972,-2.88288478251,26.2661525738)) ;
#134=CARTESIAN_POINT('Control Point',(-0.736578563872,-2.91156519474,26.1647292418)) ;
#135=CARTESIAN_POINT('Control Point',(-0.506052278801,-2.96394688644,25.997857747)) ;
#136=CARTESIAN_POINT('Control Point',(-0.23207276042,-2.99593758075,25.9106097787)) ;
#137=CARTESIAN_POINT('Control Point',(-0.0888976406774,-3.0039723445,25.8895300509)) ;
#138=CARTESIAN_POINT('Control Point',(0.257009279615,-3.00105378353,25.8960741446)) ;
#139=CARTESIAN_POINT('Control Point',(0.57670318513,-2.95279328445,26.0316645849)) ;
#140=CARTESIAN_POINT('Control Point',(0.739463451099,-2.91286385098,26.1504248756)) ;
#141=CARTESIAN_POINT('Control Point',(0.87126884396,-2.87241401545,26.300434314)) ;
#142=CARTESIAN_POINT('Control Point',(0.965340818079,-2.84044311771,26.4726319075)) ;
#151=CARTESIAN_POINT('Axis2P3D Location',(8.65973959208E-015,0.,12.75)) ;
#156=CARTESIAN_POINT('Line Origine',(2.63274768567,-1.43827661581,12.75)) ;
#160=CARTESIAN_POINT('Vertex',(2.63274768567,-1.43827661581,2.)) ;
#162=CARTESIAN_POINT('Vertex',(2.63274768567,-1.43827661581,29.)) ;
#165=CARTESIAN_POINT('Axis2P3D Location',(3.26309028107E-015,0.,2.)) ;
#169=CARTESIAN_POINT('Vertex',(-2.63274768567,1.43827661581,2.)) ;
#172=CARTESIAN_POINT('Line Origine',(-2.63274768567,1.43827661581,12.75)) ;
#176=CARTESIAN_POINT('Vertex',(-2.63274768567,1.43827661581,29.)) ;
#179=CARTESIAN_POINT('Axis2P3D Location',(1.68174652948E-014,0.,29.)) ;
#195=CARTESIAN_POINT('Axis2P3D Location',(-4.77951012101E-013,-2.17825757431E-013,32.)) ;
#200=CARTESIAN_POINT('Line Origine',(-2.19395667358,1.19856335438,29.5)) ;
#204=CARTESIAN_POINT('Vertex',(-1.7551651759,0.958850981806,30.)) ;
#207=CARTESIAN_POINT('Axis2P3D Location',(-1.48436818392E-013,-7.26085858105E-014,30.)) ;
#211=CARTESIAN_POINT('Vertex',(1.75516512378,-0.958851077208,30.)) ;
#214=CARTESIAN_POINT('Line Origine',(2.19395640473,-1.19856384651,29.5)) ;
#226=CARTESIAN_POINT('Axis2P3D Location',(1.7763568394E-014,-6.66133814775E-016,32.)) ;
#231=CARTESIAN_POINT('Axis2P3D Location',(1.73194791842E-014,-2.22044604925E-016,30.)) ;
#236=CARTESIAN_POINT('Axis2P3D Location',(1.70974345792E-014,-3.94430452611E-031,29.)) ;
#248=CARTESIAN_POINT('Axis2P3D Location',(3.,0.,30.)) ;
#258=CARTESIAN_POINT('Axis2P3D Location',(0.,0.,-4.5)) ;
#263=CARTESIAN_POINT('Axis2P3D Location',(-6.2172489379E-015,-5.59552404411E-014,-4.5)) ;
#267=CARTESIAN_POINT('Vertex',(-1.7551651759,0.958850981805,-4.5)) ;
#269=CARTESIAN_POINT('Vertex',(1.75516512378,-0.958851077208,-4.5)) ;
#272=CARTESIAN_POINT('Axis2P3D Location',(8.01581023779E-014,5.66213742559E-014,-4.5)) ;
#282=CARTESIAN_POINT('Axis2P3D Location',(2.21905827047E-013,2.41584530158E-013,-6.5)) ;
#287=CARTESIAN_POINT('Line Origine',(-2.19395640473,1.19856384651,-4.)) ;
#291=CARTESIAN_POINT('Vertex',(-2.63274768567,1.43827661581,-3.5)) ;
#294=CARTESIAN_POINT('Axis2P3D Location',(1.6653345368E-016,4.44089209835E-016,-3.5)) ;
#298=CARTESIAN_POINT('Vertex',(2.63274768567,-1.43827661581,-3.5)) ;
#301=CARTESIAN_POINT('Line Origine',(2.19395640473,-1.19856384651,-4.)) ;
#313=CARTESIAN_POINT('Axis2P3D Location',(-1.11022302463E-015,-8.881784197E-016,-6.5)) ;
#318=CARTESIAN_POINT('Axis2P3D Location',(8.881784197E-016,4.4408920985E-016,-3.5)) ;
#330=CARTESIAN_POINT('Line Origine',(-2.63274768567,1.43827661581,12.75)) ;
#334=CARTESIAN_POINT('Vertex',(-2.63274768567,1.43827661581,1.7763568394E-015)) ;
#337=CARTESIAN_POINT('Axis2P3D Location',(2.25906250228E-015,0.,1.7763568394E-015)) ;
#341=CARTESIAN_POINT('Vertex',(2.63274768567,-1.43827661581,-1.7763568394E-015)) ;
#344=CARTESIAN_POINT('Line Origine',(2.63274768567,-1.43827661581,12.75)) ;
#356=CARTESIAN_POINT('Axis2P3D Location',(2.25906250228E-015,0.,1.7763568394E-015)) ;
#368=CARTESIAN_POINT('Axis2P3D Location',(3.,0.,0.)) ;
#373=CARTESIAN_POINT('Axis2P3D Location',(2.22044604925E-015,0.,1.50604166819E-015)) ;
#377=CARTESIAN_POINT('Vertex',(-4.38791280945,2.39712769302,1.7763568394E-015)) ;
#379=CARTESIAN_POINT('Vertex',(4.38791280945,-2.39712769302,-1.7763568394E-015)) ;
#382=CARTESIAN_POINT('Axis2P3D Location',(2.22044604925E-015,0.,1.50604166819E-015)) ;
#396=CARTESIAN_POINT('Axis2P3D Location',(8.65973959208E-015,0.,12.75)) ;
#401=CARTESIAN_POINT('Line Origine',(4.38791280945,-2.39712769302,1.)) ;
#405=CARTESIAN_POINT('Vertex',(4.38791280945,-2.39712769302,2.)) ;
#408=CARTESIAN_POINT('Axis2P3D Location',(3.26309028107E-015,0.,2.)) ;
#412=CARTESIAN_POINT('Vertex',(-4.38791280945,2.39712769302,2.)) ;
#415=CARTESIAN_POINT('Line Origine',(-4.38791280945,2.39712769302,1.)) ;
#427=CARTESIAN_POINT('Axis2P3D Location',(3.26309028107E-015,0.,2.)) ;
#439=CARTESIAN_POINT('Axis2P3D Location',(5.,0.,2.)) ;
#448=CARTESIAN_POINT('Axis2P3D Location',(3.5527136788E-015,0.,2.)) ;
#53=DIRECTION('Axis2P3D Direction',(0.,1.,0.)) ;
#54=DIRECTION('Axis2P3D XDirection',(0.87758256189,0.,-0.479425538604)) ;
#58=DIRECTION('Vector Direction',(0.,1.,0.)) ;
#83=DIRECTION('Vector Direction',(0.,1.,0.)) ;
#152=DIRECTION('Axis2P3D Direction',(-5.02013889396E-016,0.,-1.)) ;
#153=DIRECTION('Axis2P3D XDirection',(0.87758256189,-0.479425538604,-4.4055863516E-016)) ;
#157=DIRECTION('Vector Direction',(-5.14886040406E-016,0.,-1.)) ;
#166=DIRECTION('Axis2P3D Direction',(-5.02013889396E-016,0.,-1.)) ;
#173=DIRECTION('Vector Direction',(-5.14886040406E-016,0.,-1.)) ;
#180=DIRECTION('Axis2P3D Direction',(-5.02013889396E-016,0.,-1.)) ;
#196=DIRECTION('Axis2P3D Direction',(1.64757096854E-013,7.26085858105E-014,-1.)) ;
#197=DIRECTION('Axis2P3D XDirection',(-0.977867178787,0.209226625101,-1.45933462969E-013)) ;
#201=DIRECTION('Vector Direction',(-0.620544656606,0.339004910226,-0.707106781187)) ;
#208=DIRECTION('Axis2P3D Direction',(2.09097584685E-014,1.03386480593E-013,-1.)) ;
#215=DIRECTION('Vector Direction',(0.620544580564,-0.339005049421,-0.707106781186)) ;
#227=DIRECTION('Axis2P3D Direction',(-2.22044604925E-016,2.22044604925E-016,-1.)) ;
#228=DIRECTION('Axis2P3D XDirection',(0.87758256189,-0.479425538604,-2.63417803193E-016)) ;
#232=DIRECTION('Axis2P3D Direction',(-9.96881174219E-016,6.45339751952E-016,-1.)) ;
#237=DIRECTION('Axis2P3D Direction',(-9.96881174219E-016,6.45339751952E-016,-1.)) ;
#249=DIRECTION('Axis2P3D Direction',(-5.02013889396E-016,0.,-1.)) ;
#250=DIRECTION('Axis2P3D XDirection',(1.,0.,-5.02013889396E-016)) ;
#259=DIRECTION('Axis2P3D Direction',(-5.02013889396E-016,0.,-1.)) ;
#260=DIRECTION('Axis2P3D XDirection',(1.,0.,-5.02013889396E-016)) ;
#264=DIRECTION('Axis2P3D Direction',(-5.02013889396E-016,0.,-1.)) ;
#273=DIRECTION('Axis2P3D Direction',(-5.02013889396E-016,0.,-1.)) ;
#283=DIRECTION('Axis2P3D Direction',(-7.39130978644E-014,-8.03801469829E-014,1.)) ;
#284=DIRECTION('Axis2P3D XDirection',(-0.98805983301,0.154070653895,-6.05860947344E-014)) ;
#288=DIRECTION('Vector Direction',(-0.620544580564,0.339005049421,0.707106781187)) ;
#295=DIRECTION('Axis2P3D Direction',(1.34058350325E-014,8.98151966008E-014,-1.)) ;
#302=DIRECTION('Vector Direction',(0.620544580564,-0.339005049421,0.707106781187)) ;
#314=DIRECTION('Axis2P3D Direction',(6.66133814775E-016,4.4408920985E-016,1.)) ;
#315=DIRECTION('Axis2P3D XDirection',(0.87758256189,-0.479425538604,-2.63417803193E-016)) ;
#319=DIRECTION('Axis2P3D Direction',(-7.29679128183E-016,-4.09374246917E-016,-1.)) ;
#331=DIRECTION('Vector Direction',(-5.14886040406E-016,0.,-1.)) ;
#338=DIRECTION('Axis2P3D Direction',(-5.02013889396E-016,0.,-1.)) ;
#345=DIRECTION('Vector Direction',(-4.89141738386E-016,0.,-1.)) ;
#357=DIRECTION('Axis2P3D Direction',(-5.02013889396E-016,0.,-1.)) ;
#369=DIRECTION('Axis2P3D Direction',(-5.02013889396E-016,0.,-1.)) ;
#370=DIRECTION('Axis2P3D XDirection',(1.,0.,-5.02013889396E-016)) ;
#374=DIRECTION('Axis2P3D Direction',(-5.02013889396E-016,0.,-1.)) ;
#383=DIRECTION('Axis2P3D Direction',(-5.02013889396E-016,0.,-1.)) ;
#397=DIRECTION('Axis2P3D Direction',(-5.02013889396E-016,0.,-1.)) ;
#398=DIRECTION('Axis2P3D XDirection',(0.87758256189,-0.479425538604,-4.4055863516E-016)) ;
#402=DIRECTION('Vector Direction',(-4.4408920985E-016,0.,-1.)) ;
#409=DIRECTION('Axis2P3D Direction',(-5.02013889396E-016,0.,-1.)) ;
#416=DIRECTION('Vector Direction',(-4.4408920985E-016,0.,-1.)) ;
#428=DIRECTION('Axis2P3D Direction',(-5.02013889396E-016,0.,-1.)) ;
#440=DIRECTION('Axis2P3D Direction',(-5.02013889396E-016,0.,-1.)) ;
#441=DIRECTION('Axis2P3D XDirection',(1.,0.,-5.02013889396E-016)) ;
#449=DIRECTION('Axis2P3D Direction',(-5.02013889396E-016,0.,-1.)) ;
#48=AXIS2_PLACEMENT_3D(' ',#47,$,$) ;
#55=AXIS2_PLACEMENT_3D('Cylinder Axis2P3D',#52,#53,#54) ;
#154=AXIS2_PLACEMENT_3D('Cylinder Axis2P3D',#151,#152,#153) ;
#167=AXIS2_PLACEMENT_3D('Circle Axis2P3D',#165,#166,$) ;
#181=AXIS2_PLACEMENT_3D('Circle Axis2P3D',#179,#180,$) ;
#198=AXIS2_PLACEMENT_3D('Cone Axis2P3D',#195,#196,#197) ;
#209=AXIS2_PLACEMENT_3D('Circle Axis2P3D',#207,#208,$) ;
#229=AXIS2_PLACEMENT_3D('Cone Axis2P3D',#226,#227,#228) ;
#233=AXIS2_PLACEMENT_3D('Circle Axis2P3D',#231,#232,$) ;
#238=AXIS2_PLACEMENT_3D('Circle Axis2P3D',#236,#237,$) ;
#251=AXIS2_PLACEMENT_3D('Plane Axis2P3D',#248,#249,#250) ;
#261=AXIS2_PLACEMENT_3D('Plane Axis2P3D',#258,#259,#260) ;
#265=AXIS2_PLACEMENT_3D('Circle Axis2P3D',#263,#264,$) ;
#274=AXIS2_PLACEMENT_3D('Circle Axis2P3D',#272,#273,$) ;
#285=AXIS2_PLACEMENT_3D('Cone Axis2P3D',#282,#283,#284) ;
#296=AXIS2_PLACEMENT_3D('Circle Axis2P3D',#294,#295,$) ;
#316=AXIS2_PLACEMENT_3D('Cone Axis2P3D',#313,#314,#315) ;
#320=AXIS2_PLACEMENT_3D('Circle Axis2P3D',#318,#319,$) ;
#339=AXIS2_PLACEMENT_3D('Circle Axis2P3D',#337,#338,$) ;
#358=AXIS2_PLACEMENT_3D('Circle Axis2P3D',#356,#357,$) ;
#371=AXIS2_PLACEMENT_3D('Plane Axis2P3D',#368,#369,#370) ;
#375=AXIS2_PLACEMENT_3D('Circle Axis2P3D',#373,#374,$) ;
#384=AXIS2_PLACEMENT_3D('Circle Axis2P3D',#382,#383,$) ;
#399=AXIS2_PLACEMENT_3D('Cylinder Axis2P3D',#396,#397,#398) ;
#410=AXIS2_PLACEMENT_3D('Circle Axis2P3D',#408,#409,$) ;
#429=AXIS2_PLACEMENT_3D('Circle Axis2P3D',#427,#428,$) ;
#442=AXIS2_PLACEMENT_3D('Plane Axis2P3D',#439,#440,#441) ;
#450=AXIS2_PLACEMENT_3D('Circle Axis2P3D',#448,#449,$) ;
#40=PRODUCT_DEFINITION_SHAPE(' ',' ',#14) ;
#31=APPROVAL_PERSON_ORGANIZATION(#25,#21,#19) ;
#25=PERSON_AND_ORGANIZATION(#22,#23) ;
#22=PERSON(' ',' ',' ',$,$,$) ;
#23=ORGANIZATION(' ',' ',' ') ;
#21=APPROVAL(#20,' ') ;
#20=APPROVAL_STATUS('not_yet_approved') ;
#19=APPROVAL_ROLE('APPROVER') ;
#13=DATE_AND_TIME(#11,#12) ;
#12=LOCAL_TIME(12,45,33.,#10) ;
#10=COORDINATED_UNIVERSAL_TIME_OFFSET(0,0,.AHEAD.) ;
#104=ORIENTED_EDGE('',*,*,#65,.F.) ;
#105=ORIENTED_EDGE('',*,*,#81,.T.) ;
#106=ORIENTED_EDGE('',*,*,#88,.T.) ;
#107=ORIENTED_EDGE('',*,*,#102,.F.) ;
#145=ORIENTED_EDGE('',*,*,#88,.F.) ;
#146=ORIENTED_EDGE('',*,*,#126,.F.) ;
#147=ORIENTED_EDGE('',*,*,#65,.T.) ;
#148=ORIENTED_EDGE('',*,*,#143,.T.) ;
#185=ORIENTED_EDGE('',*,*,#164,.F.) ;
#186=ORIENTED_EDGE('',*,*,#171,.F.) ;
#187=ORIENTED_EDGE('',*,*,#178,.T.) ;
#188=ORIENTED_EDGE('',*,*,#183,.T.) ;
#191=ORIENTED_EDGE('',*,*,#81,.F.) ;
#192=ORIENTED_EDGE('',*,*,#126,.T.) ;
#220=ORIENTED_EDGE('',*,*,#206,.T.) ;
#221=ORIENTED_EDGE('',*,*,#213,.T.) ;
#222=ORIENTED_EDGE('',*,*,#218,.F.) ;
#223=ORIENTED_EDGE('',*,*,#183,.F.) ;
#242=ORIENTED_EDGE('',*,*,#218,.T.) ;
#243=ORIENTED_EDGE('',*,*,#235,.T.) ;
#244=ORIENTED_EDGE('',*,*,#206,.F.) ;
#245=ORIENTED_EDGE('',*,*,#240,.F.) ;
#254=ORIENTED_EDGE('',*,*,#235,.F.) ;
#255=ORIENTED_EDGE('',*,*,#213,.F.) ;
#278=ORIENTED_EDGE('',*,*,#271,.T.) ;
#279=ORIENTED_EDGE('',*,*,#276,.T.) ;
#307=ORIENTED_EDGE('',*,*,#293,.T.) ;
#308=ORIENTED_EDGE('',*,*,#300,.T.) ;
#309=ORIENTED_EDGE('',*,*,#305,.F.) ;
#310=ORIENTED_EDGE('',*,*,#271,.F.) ;
#324=ORIENTED_EDGE('',*,*,#305,.T.) ;
#325=ORIENTED_EDGE('',*,*,#322,.T.) ;
#326=ORIENTED_EDGE('',*,*,#293,.F.) ;
#327=ORIENTED_EDGE('',*,*,#276,.F.) ;
#350=ORIENTED_EDGE('',*,*,#336,.T.) ;
#351=ORIENTED_EDGE('',*,*,#343,.T.) ;
#352=ORIENTED_EDGE('',*,*,#348,.F.) ;
#353=ORIENTED_EDGE('',*,*,#300,.F.) ;
#362=ORIENTED_EDGE('',*,*,#348,.T.) ;
#363=ORIENTED_EDGE('',*,*,#360,.T.) ;
#364=ORIENTED_EDGE('',*,*,#336,.F.) ;
#365=ORIENTED_EDGE('',*,*,#322,.F.) ;
#388=ORIENTED_EDGE('',*,*,#381,.T.) ;
#389=ORIENTED_EDGE('',*,*,#386,.T.) ;
#392=ORIENTED_EDGE('',*,*,#360,.F.) ;
#393=ORIENTED_EDGE('',*,*,#343,.F.) ;
#421=ORIENTED_EDGE('',*,*,#386,.F.) ;
#422=ORIENTED_EDGE('',*,*,#407,.T.) ;
#423=ORIENTED_EDGE('',*,*,#414,.T.) ;
#424=ORIENTED_EDGE('',*,*,#419,.F.) ;
#433=ORIENTED_EDGE('',*,*,#381,.F.) ;
#434=ORIENTED_EDGE('',*,*,#419,.T.) ;
#435=ORIENTED_EDGE('',*,*,#431,.T.) ;
#436=ORIENTED_EDGE('',*,*,#407,.F.) ;
#445=ORIENTED_EDGE('',*,*,#414,.F.) ;
#446=ORIENTED_EDGE('',*,*,#431,.F.) ;
#454=ORIENTED_EDGE('',*,*,#171,.T.) ;
#455=ORIENTED_EDGE('',*,*,#452,.T.) ;
#459=ORIENTED_EDGE('',*,*,#178,.F.) ;
#460=ORIENTED_EDGE('',*,*,#452,.F.) ;
#461=ORIENTED_EDGE('',*,*,#164,.T.) ;
#462=ORIENTED_EDGE('',*,*,#240,.T.) ;
#465=ORIENTED_EDGE('',*,*,#143,.F.) ;
#466=ORIENTED_EDGE('',*,*,#102,.T.) ;
#193=FACE_BOUND('',#190,.T.) ;
#394=FACE_BOUND('',#391,.T.) ;
#456=FACE_BOUND('',#453,.T.) ;
#467=FACE_BOUND('',#464,.T.) ;
#51=CLOSED_SHELL('Closed Shell',(#109,#150,#194,#225,#247,#257,#281,#312,#329,#355,#367,#395,#426,#438,#457,#468)) ;
#59=VECTOR('Line Direction',#58,1.) ;
#84=VECTOR('Line Direction',#83,1.) ;
#158=VECTOR('Line Direction',#157,1.) ;
#174=VECTOR('Line Direction',#173,1.) ;
#202=VECTOR('Line Direction',#201,1.) ;
#216=VECTOR('Line Direction',#215,1.) ;
#289=VECTOR('Line Direction',#288,1.) ;
#303=VECTOR('Line Direction',#302,1.) ;
#332=VECTOR('Line Direction',#331,1.) ;
#346=VECTOR('Line Direction',#345,1.) ;
#403=VECTOR('Line Direction',#402,1.) ;
#417=VECTOR('Line Direction',#416,1.) ;
#470=ADVANCED_BREP_SHAPE_REPRESENTATION('NONE',(#469),#46) ;
#49=SHAPE_REPRESENTATION(' ',(#48),#46) ;
#109=ADVANCED_FACE('',(#108),#56,.F.) ;
#150=ADVANCED_FACE('',(#149),#56,.F.) ;
#194=ADVANCED_FACE('',(#189,#193),#155,.T.) ;
#225=ADVANCED_FACE('',(#224),#199,.T.) ;
#247=ADVANCED_FACE('',(#246),#230,.T.) ;
#257=ADVANCED_FACE('',(#256),#252,.F.) ;
#281=ADVANCED_FACE('',(#280),#262,.T.) ;
#312=ADVANCED_FACE('',(#311),#286,.T.) ;
#329=ADVANCED_FACE('',(#328),#317,.T.) ;
#355=ADVANCED_FACE('',(#354),#155,.T.) ;
#367=ADVANCED_FACE('',(#366),#155,.T.) ;
#395=ADVANCED_FACE('',(#390,#394),#372,.T.) ;
#426=ADVANCED_FACE('',(#425),#400,.T.) ;
#438=ADVANCED_FACE('',(#437),#400,.T.) ;
#457=ADVANCED_FACE('',(#447,#456),#443,.F.) ;
#468=ADVANCED_FACE('',(#463,#467),#155,.T.) ;
#4=APPLICATION_PROTOCOL_DEFINITION('international standard','config_control_design',1994,#1) ;
#32=APPROVAL_DATE_TIME(#13,#21) ;
#66=B_SPLINE_CURVE_WITH_KNOTS('',5,(#67,#68,#69,#70,#71,#72,#73,#74,#75,#76,#77,#78),.UNSPECIFIED.,.F.,.U.,(6,3,3,6),(0.,2.01138588872,3.52587658498,4.93077652952),.UNSPECIFIED.) ;
#89=B_SPLINE_CURVE_WITH_KNOTS('',5,(#90,#91,#92,#93,#94,#95,#96,#97,#98,#99,#100,#101),.UNSPECIFIED.,.F.,.U.,(6,3,3,6),(0.,2.01138588864,3.52587658491,4.9307765294),.UNSPECIFIED.) ;
#110=B_SPLINE_CURVE_WITH_KNOTS('',5,(#111,#112,#113,#114,#115,#116,#117,#118,#119,#120,#121,#122,#123,#124,#125),.UNSPECIFIED.,.F.,.U.,(6,3,3,3,6),(0.,1.50541251224,2.51880490336,3.52476076381,4.9305289854),.UNSPECIFIED.) ;
#127=B_SPLINE_CURVE_WITH_KNOTS('',5,(#128,#129,#130,#131,#132,#133,#134,#135,#136,#137,#138,#139,#140,#141,#142),.UNSPECIFIED.,.F.,.U.,(6,3,3,3,6),(0.,1.50541251224,2.51880490342,3.52476076383,4.93052898535),.UNSPECIFIED.) ;
#469=MANIFOLD_SOLID_BREP('Corps principal',#51) ;
#11=CALENDAR_DATE(2017,20,5) ;
#30=CC_DESIGN_APPROVAL(#21,(#16,#6,#14)) ;
#18=CC_DESIGN_DATE_AND_TIME_ASSIGNMENT(#13,#17,(#16)) ;
#29=CC_DESIGN_DATE_AND_TIME_ASSIGNMENT(#13,#28,(#14)) ;
#17=DATE_TIME_ROLE('classification_date') ;
#28=DATE_TIME_ROLE('creation_date') ;
#27=CC_DESIGN_PERSON_AND_ORGANIZATION_ASSIGNMENT(#25,#26,(#16)) ;
#33=CC_DESIGN_PERSON_AND_ORGANIZATION_ASSIGNMENT(#25,#34,(#6)) ;
#35=CC_DESIGN_PERSON_AND_ORGANIZATION_ASSIGNMENT(#25,#36,(#6,#14)) ;
#37=CC_DESIGN_PERSON_AND_ORGANIZATION_ASSIGNMENT(#25,#38,(#5)) ;
#26=PERSON_AND_ORGANIZATION_ROLE('classification_officer') ;
#34=PERSON_AND_ORGANIZATION_ROLE('design_supplier') ;
#36=PERSON_AND_ORGANIZATION_ROLE('creator') ;
#38=PERSON_AND_ORGANIZATION_ROLE('design_owner') ;
#39=CC_DESIGN_SECURITY_CLASSIFICATION(#16,(#6)) ;
#168=CIRCLE('generated circle',#167,3.) ;
#182=CIRCLE('generated circle',#181,3.) ;
#210=CIRCLE('generated circle',#209,2.) ;
#234=CIRCLE('generated circle',#233,2.) ;
#239=CIRCLE('generated circle',#238,3.) ;
#266=CIRCLE('generated circle',#265,2.) ;
#275=CIRCLE('generated circle',#274,2.) ;
#297=CIRCLE('generated circle',#296,3.) ;
#321=CIRCLE('generated circle',#320,3.) ;
#340=CIRCLE('generated circle',#339,3.) ;
#359=CIRCLE('generated circle',#358,3.) ;
#376=CIRCLE('generated circle',#375,5.) ;
#385=CIRCLE('generated circle',#384,5.) ;
#411=CIRCLE('generated circle',#410,5.) ;
#430=CIRCLE('generated circle',#429,5.) ;
#451=CIRCLE('generated circle',#450,3.) ;
#199=CONICAL_SURFACE('Cone',#198,0.,0.785398163398) ;
#230=CONICAL_SURFACE('Cone',#229,0.,0.785398163397) ;
#286=CONICAL_SURFACE('Cone',#285,0.,0.785398163397) ;
#317=CONICAL_SURFACE('Cone',#316,0.,0.785398163397) ;
#471=SHAPE_REPRESENTATION_RELATIONSHIP(' ',' ',#49,#470) ;
#56=CYLINDRICAL_SURFACE('generated cylinder',#55,1.1) ;
#155=CYLINDRICAL_SURFACE('generated cylinder',#154,3.) ;
#400=CYLINDRICAL_SURFACE('generated cylinder',#399,5.) ;
#3=DESIGN_CONTEXT(' ',#1,'design') ;
#65=EDGE_CURVE('',#62,#64,#60,.F.) ;
#81=EDGE_CURVE('',#62,#80,#66,.T.) ;
#88=EDGE_CURVE('',#80,#87,#85,.F.) ;
#102=EDGE_CURVE('',#64,#87,#89,.T.) ;
#126=EDGE_CURVE('',#62,#80,#110,.T.) ;
#143=EDGE_CURVE('',#64,#87,#127,.T.) ;
#164=EDGE_CURVE('',#161,#163,#159,.F.) ;
#171=EDGE_CURVE('',#170,#161,#168,.T.) ;
#178=EDGE_CURVE('',#170,#177,#175,.F.) ;
#183=EDGE_CURVE('',#177,#163,#182,.T.) ;
#206=EDGE_CURVE('',#177,#205,#203,.F.) ;
#213=EDGE_CURVE('',#205,#212,#210,.T.) ;
#218=EDGE_CURVE('',#163,#212,#217,.F.) ;
#235=EDGE_CURVE('',#212,#205,#234,.T.) ;
#240=EDGE_CURVE('',#163,#177,#239,.T.) ;
#271=EDGE_CURVE('',#268,#270,#266,.T.) ;
#276=EDGE_CURVE('',#270,#268,#275,.T.) ;
#293=EDGE_CURVE('',#268,#292,#290,.T.) ;
#300=EDGE_CURVE('',#292,#299,#297,.T.) ;
#305=EDGE_CURVE('',#270,#299,#304,.T.) ;
#322=EDGE_CURVE('',#299,#292,#321,.T.) ;
#336=EDGE_CURVE('',#292,#335,#333,.F.) ;
#343=EDGE_CURVE('',#335,#342,#340,.T.) ;
#348=EDGE_CURVE('',#299,#342,#347,.F.) ;
#360=EDGE_CURVE('',#342,#335,#359,.T.) ;
#381=EDGE_CURVE('',#378,#380,#376,.T.) ;
#386=EDGE_CURVE('',#380,#378,#385,.T.) ;
#407=EDGE_CURVE('',#380,#406,#404,.F.) ;
#414=EDGE_CURVE('',#406,#413,#411,.T.) ;
#419=EDGE_CURVE('',#378,#413,#418,.F.) ;
#431=EDGE_CURVE('',#413,#406,#430,.T.) ;
#452=EDGE_CURVE('',#161,#170,#451,.T.) ;
#103=EDGE_LOOP('',(#104,#105,#106,#107)) ;
#144=EDGE_LOOP('',(#145,#146,#147,#148)) ;
#184=EDGE_LOOP('',(#185,#186,#187,#188)) ;
#190=EDGE_LOOP('',(#191,#192)) ;
#219=EDGE_LOOP('',(#220,#221,#222,#223)) ;
#241=EDGE_LOOP('',(#242,#243,#244,#245)) ;
#253=EDGE_LOOP('',(#254,#255)) ;
#277=EDGE_LOOP('',(#278,#279)) ;
#306=EDGE_LOOP('',(#307,#308,#309,#310)) ;
#323=EDGE_LOOP('',(#324,#325,#326,#327)) ;
#349=EDGE_LOOP('',(#350,#351,#352,#353)) ;
#361=EDGE_LOOP('',(#362,#363,#364,#365)) ;
#387=EDGE_LOOP('',(#388,#389)) ;
#391=EDGE_LOOP('',(#392,#393)) ;
#420=EDGE_LOOP('',(#421,#422,#423,#424)) ;
#432=EDGE_LOOP('',(#433,#434,#435,#436)) ;
#444=EDGE_LOOP('',(#445,#446)) ;
#453=EDGE_LOOP('',(#454,#455)) ;
#458=EDGE_LOOP('',(#459,#460,#461,#462)) ;
#464=EDGE_LOOP('',(#465,#466)) ;
#108=FACE_OUTER_BOUND('',#103,.T.) ;
#149=FACE_OUTER_BOUND('',#144,.T.) ;
#189=FACE_OUTER_BOUND('',#184,.T.) ;
#224=FACE_OUTER_BOUND('',#219,.T.) ;
#246=FACE_OUTER_BOUND('',#241,.T.) ;
#256=FACE_OUTER_BOUND('',#253,.T.) ;
#280=FACE_OUTER_BOUND('',#277,.T.) ;
#311=FACE_OUTER_BOUND('',#306,.T.) ;
#328=FACE_OUTER_BOUND('',#323,.T.) ;
#354=FACE_OUTER_BOUND('',#349,.T.) ;
#366=FACE_OUTER_BOUND('',#361,.T.) ;
#390=FACE_OUTER_BOUND('',#387,.T.) ;
#425=FACE_OUTER_BOUND('',#420,.T.) ;
#437=FACE_OUTER_BOUND('',#432,.T.) ;
#447=FACE_OUTER_BOUND('',#444,.T.) ;
#463=FACE_OUTER_BOUND('',#458,.T.) ;
#45=UNCERTAINTY_MEASURE_WITH_UNIT(LENGTH_MEASURE(0.005),#41,'distance_accuracy_value','CONFUSED CURVE UNCERTAINTY') ;
#60=LINE('Line',#57,#59) ;
#85=LINE('Line',#82,#84) ;
#159=LINE('Line',#156,#158) ;
#175=LINE('Line',#172,#174) ;
#203=LINE('Line',#200,#202) ;
#217=LINE('Line',#214,#216) ;
#290=LINE('Line',#287,#289) ;
#304=LINE('Line',#301,#303) ;
#333=LINE('Line',#330,#332) ;
#347=LINE('Line',#344,#346) ;
#404=LINE('Line',#401,#403) ;
#418=LINE('Line',#415,#417) ;
#2=MECHANICAL_CONTEXT(' ',#1,'mechanical') ;
#24=PERSONAL_ADDRESS(' ',' ',' ',' ',' ',' ',' ',' ',' ',' ',' ',' ',(#22),' ') ;
#252=PLANE('Plane',#251) ;
#262=PLANE('Plane',#261) ;
#372=PLANE('Plane',#371) ;
#443=PLANE('Plane',#442) ;
#43=PLANE_ANGLE_MEASURE_WITH_UNIT(PLANE_ANGLE_MEASURE(0.0174532925199),#42) ;
#7=PRODUCT_CATEGORY('part',$) ;
#9=PRODUCT_CATEGORY_RELATIONSHIP(' ',' ',#7,#8) ;
#6=PRODUCT_DEFINITION_FORMATION_WITH_SPECIFIED_SOURCE('',' ',#5,.NOT_KNOWN.) ;
#8=PRODUCT_RELATED_PRODUCT_CATEGORY('detail',$,(#5)) ;
#50=SHAPE_DEFINITION_REPRESENTATION(#40,#49) ;
#62=VERTEX_POINT('',#61) ;
#64=VERTEX_POINT('',#63) ;
#80=VERTEX_POINT('',#79) ;
#87=VERTEX_POINT('',#86) ;
#161=VERTEX_POINT('',#160) ;
#163=VERTEX_POINT('',#162) ;
#170=VERTEX_POINT('',#169) ;
#177=VERTEX_POINT('',#176) ;
#205=VERTEX_POINT('',#204) ;
#212=VERTEX_POINT('',#211) ;
#268=VERTEX_POINT('',#267) ;
#270=VERTEX_POINT('',#269) ;
#292=VERTEX_POINT('',#291) ;
#299=VERTEX_POINT('',#298) ;
#335=VERTEX_POINT('',#334) ;
#342=VERTEX_POINT('',#341) ;
#378=VERTEX_POINT('',#377) ;
#380=VERTEX_POINT('',#379) ;
#406=VERTEX_POINT('',#405) ;
#413=VERTEX_POINT('',#412) ;
#41=(LENGTH_UNIT()NAMED_UNIT(*)SI_UNIT(.MILLI.,.METRE.)) ;
#42=(NAMED_UNIT(*)PLANE_ANGLE_UNIT()SI_UNIT($,.RADIAN.)) ;
#44=(NAMED_UNIT(*)SI_UNIT($,.STERADIAN.)SOLID_ANGLE_UNIT()) ;
#46=(GEOMETRIC_REPRESENTATION_CONTEXT(3)GLOBAL_UNCERTAINTY_ASSIGNED_CONTEXT((#45))GLOBAL_UNIT_ASSIGNED_CONTEXT((#41,#42,#44))REPRESENTATION_CONTEXT(' ',' ')) ;
ENDSEC;
END-ISO-10303-21;
