ISO-10303-21;
HEADER;
FILE_DESCRIPTION(('CATIA V5 STEP Exchange'),'2;1');

FILE_NAME('D:\\Mes documents - D\\Mes images\\Chaussure Splitboard\\Consultation 17-05\\Lot 7 - Support cales - Fraisage\\Embase Support cale hauteur - 00.stp','2017-05-21T07:52:54+00:00',('none'),('none'),'CATIA Version 5 Release 16 (IN-10)','CATIA V5 STEP AP203','none');

FILE_SCHEMA(('CONFIG_CONTROL_DESIGN'));

ENDSEC;
/* file written by CATIA V5R16 */
DATA;
#5=PRODUCT('Embase Support cale hauteur - 00','','',(#2)) ;
#1=APPLICATION_CONTEXT('configuration controlled 3D design of mechanical parts and assemblies') ;
#14=PRODUCT_DEFINITION(' ',' ',#6,#3) ;
#16=SECURITY_CLASSIFICATION(' ',' ',#15) ;
#15=SECURITY_CLASSIFICATION_LEVEL('unclassified') ;
#47=CARTESIAN_POINT(' ',(0.,0.,0.)) ;
#52=CARTESIAN_POINT('Axis2P3D Location',(-31.,0.,-9.9)) ;
#57=CARTESIAN_POINT('Line Origine',(-33.7205059419,-1.48621916967,-6.5)) ;
#61=CARTESIAN_POINT('Vertex',(-33.7205059419,-1.48621916967,-3.)) ;
#63=CARTESIAN_POINT('Vertex',(-33.7205059419,-1.48621916967,-10.)) ;
#66=CARTESIAN_POINT('Axis2P3D Location',(-31.,0.,-3.)) ;
#70=CARTESIAN_POINT('Vertex',(-28.2794940581,1.48621916967,-3.)) ;
#73=CARTESIAN_POINT('Line Origine',(-28.2794940581,1.48621916967,-6.5)) ;
#77=CARTESIAN_POINT('Vertex',(-28.2794940581,1.48621916967,-10.)) ;
#80=CARTESIAN_POINT('Axis2P3D Location',(-31.,0.,-10.)) ;
#92=CARTESIAN_POINT('Axis2P3D Location',(-31.,0.,-3.)) ;
#97=CARTESIAN_POINT('Axis2P3D Location',(-31.,0.,-10.)) ;
#109=CARTESIAN_POINT('Axis2P3D Location',(0.,0.,-3.)) ;
#114=CARTESIAN_POINT('Axis2P3D Location',(-32.5,17.5,-3.)) ;
#118=CARTESIAN_POINT('Vertex',(-32.5,21.5,-3.)) ;
#120=CARTESIAN_POINT('Vertex',(-36.5,17.5,-3.)) ;
#123=CARTESIAN_POINT('Line Origine',(-36.5,0.,-3.)) ;
#127=CARTESIAN_POINT('Vertex',(-36.5,-17.5,-3.)) ;
#130=CARTESIAN_POINT('Axis2P3D Location',(-32.5,-17.5,-3.)) ;
#134=CARTESIAN_POINT('Vertex',(-32.5,-21.5,-3.)) ;
#137=CARTESIAN_POINT('Line Origine',(-17.5000000001,-21.5,-3.)) ;
#141=CARTESIAN_POINT('Vertex',(-2.5,-21.5,-3.)) ;
#144=CARTESIAN_POINT('Axis2P3D Location',(-2.5,-17.5,-3.)) ;
#148=CARTESIAN_POINT('Vertex',(1.5,-17.5,-3.)) ;
#151=CARTESIAN_POINT('Line Origine',(1.5,0.,-3.)) ;
#155=CARTESIAN_POINT('Vertex',(1.5,17.5,-3.)) ;
#158=CARTESIAN_POINT('Axis2P3D Location',(-2.5,17.5,-3.)) ;
#162=CARTESIAN_POINT('Vertex',(-2.5,21.5,-3.)) ;
#165=CARTESIAN_POINT('Line Origine',(-17.5000000001,21.5,-3.)) ;
#184=CARTESIAN_POINT('Axis2P3D Location',(-4.,4.4408920985E-016,-3.)) ;
#188=CARTESIAN_POINT('Vertex',(-1.27949405814,1.48621916967,-3.)) ;
#190=CARTESIAN_POINT('Vertex',(-6.72050594186,-1.48621916967,-3.)) ;
#193=CARTESIAN_POINT('Axis2P3D Location',(-4.,-1.7763568394E-015,-3.)) ;
#203=CARTESIAN_POINT('Axis2P3D Location',(-32.5,17.5,-6.5)) ;
#208=CARTESIAN_POINT('Axis2P3D Location',(-32.5,17.5,-10.)) ;
#212=CARTESIAN_POINT('Vertex',(-32.5,21.5,-10.)) ;
#214=CARTESIAN_POINT('Vertex',(-36.5,17.5,-10.)) ;
#217=CARTESIAN_POINT('Line Origine',(-36.5,17.5,-6.5)) ;
#222=CARTESIAN_POINT('Line Origine',(-32.5,21.5,-6.5)) ;
#234=CARTESIAN_POINT('Axis2P3D Location',(-36.5,-17.5,-3.)) ;
#239=CARTESIAN_POINT('Line Origine',(-36.5,0.,-10.)) ;
#243=CARTESIAN_POINT('Vertex',(-36.5,-17.5,-10.)) ;
#246=CARTESIAN_POINT('Line Origine',(-36.5,-17.5,-6.5)) ;
#258=CARTESIAN_POINT('Axis2P3D Location',(-32.5,-17.5,-6.5)) ;
#263=CARTESIAN_POINT('Axis2P3D Location',(-32.5,-17.5,-10.)) ;
#267=CARTESIAN_POINT('Vertex',(-32.5,-21.5,-10.)) ;
#270=CARTESIAN_POINT('Line Origine',(-32.5,-21.5,-6.5)) ;
#282=CARTESIAN_POINT('Axis2P3D Location',(-32.5000000001,-21.5,-3.)) ;
#287=CARTESIAN_POINT('Line Origine',(-17.5000000001,-21.5,-10.)) ;
#291=CARTESIAN_POINT('Vertex',(-2.5,-21.5,-10.)) ;
#294=CARTESIAN_POINT('Line Origine',(-2.5,-21.5,-6.5)) ;
#306=CARTESIAN_POINT('Axis2P3D Location',(-2.5,-17.5,-6.5)) ;
#311=CARTESIAN_POINT('Axis2P3D Location',(-2.5,-17.5,-10.)) ;
#315=CARTESIAN_POINT('Vertex',(1.5,-17.5,-10.)) ;
#318=CARTESIAN_POINT('Line Origine',(1.5,-17.5,-6.5)) ;
#330=CARTESIAN_POINT('Axis2P3D Location',(1.5,-17.5,-3.)) ;
#335=CARTESIAN_POINT('Line Origine',(1.5,0.,-10.)) ;
#339=CARTESIAN_POINT('Vertex',(1.5,17.5,-10.)) ;
#342=CARTESIAN_POINT('Line Origine',(1.5,17.5,-6.5)) ;
#354=CARTESIAN_POINT('Axis2P3D Location',(-2.5,17.5,-6.5)) ;
#359=CARTESIAN_POINT('Axis2P3D Location',(-2.5,17.5,-10.)) ;
#363=CARTESIAN_POINT('Vertex',(-2.5,21.5,-10.)) ;
#366=CARTESIAN_POINT('Line Origine',(-2.5,21.5,-6.5)) ;
#378=CARTESIAN_POINT('Axis2P3D Location',(-2.5,21.5,-3.)) ;
#383=CARTESIAN_POINT('Line Origine',(-17.5000000001,21.5,-10.)) ;
#395=CARTESIAN_POINT('Axis2P3D Location',(-4.,0.,-9.9)) ;
#400=CARTESIAN_POINT('Line Origine',(-6.72050594186,-1.48621916967,-6.5)) ;
#404=CARTESIAN_POINT('Vertex',(-6.72050594186,-1.48621916967,-10.)) ;
#407=CARTESIAN_POINT('Line Origine',(-1.27949405814,1.48621916967,-6.5)) ;
#411=CARTESIAN_POINT('Vertex',(-1.27949405814,1.48621916967,-10.)) ;
#414=CARTESIAN_POINT('Axis2P3D Location',(-4.,0.,-10.)) ;
#426=CARTESIAN_POINT('Axis2P3D Location',(-4.,0.,-10.)) ;
#438=CARTESIAN_POINT('Axis2P3D Location',(0.,0.,-10.)) ;
#53=DIRECTION('Axis2P3D Direction',(0.,0.,1.)) ;
#54=DIRECTION('Axis2P3D XDirection',(0.87758256189,0.479425538604,0.)) ;
#58=DIRECTION('Vector Direction',(0.,0.,1.)) ;
#67=DIRECTION('Axis2P3D Direction',(0.,0.,1.)) ;
#74=DIRECTION('Vector Direction',(0.,0.,1.)) ;
#81=DIRECTION('Axis2P3D Direction',(0.,0.,1.)) ;
#93=DIRECTION('Axis2P3D Direction',(0.,0.,1.)) ;
#98=DIRECTION('Axis2P3D Direction',(0.,0.,1.)) ;
#110=DIRECTION('Axis2P3D Direction',(0.,0.,1.)) ;
#111=DIRECTION('Axis2P3D XDirection',(-1.,0.,0.)) ;
#115=DIRECTION('Axis2P3D Direction',(0.,0.,1.)) ;
#124=DIRECTION('Vector Direction',(-1.62409768174E-015,1.,0.)) ;
#131=DIRECTION('Axis2P3D Direction',(0.,0.,1.)) ;
#138=DIRECTION('Vector Direction',(1.,0.,0.)) ;
#145=DIRECTION('Axis2P3D Direction',(0.,0.,1.)) ;
#152=DIRECTION('Vector Direction',(0.,1.,0.)) ;
#159=DIRECTION('Axis2P3D Direction',(0.,0.,1.)) ;
#166=DIRECTION('Vector Direction',(-1.,0.,0.)) ;
#185=DIRECTION('Axis2P3D Direction',(0.,0.,1.)) ;
#194=DIRECTION('Axis2P3D Direction',(0.,0.,1.)) ;
#204=DIRECTION('Axis2P3D Direction',(0.,0.,1.)) ;
#205=DIRECTION('Axis2P3D XDirection',(1.83690953073E-016,1.,0.)) ;
#209=DIRECTION('Axis2P3D Direction',(0.,0.,1.)) ;
#218=DIRECTION('Vector Direction',(0.,0.,1.)) ;
#223=DIRECTION('Vector Direction',(0.,0.,1.)) ;
#235=DIRECTION('Axis2P3D Direction',(-1.,-1.62409768174E-015,0.)) ;
#236=DIRECTION('Axis2P3D XDirection',(-1.62409768174E-015,1.,0.)) ;
#240=DIRECTION('Vector Direction',(-1.62409768174E-015,1.,0.)) ;
#247=DIRECTION('Vector Direction',(0.,0.,-1.)) ;
#259=DIRECTION('Axis2P3D Direction',(0.,0.,1.)) ;
#260=DIRECTION('Axis2P3D XDirection',(-1.,0.,0.)) ;
#264=DIRECTION('Axis2P3D Direction',(0.,0.,1.)) ;
#271=DIRECTION('Vector Direction',(0.,0.,1.)) ;
#283=DIRECTION('Axis2P3D Direction',(0.,1.,0.)) ;
#284=DIRECTION('Axis2P3D XDirection',(1.,0.,0.)) ;
#288=DIRECTION('Vector Direction',(1.,0.,0.)) ;
#295=DIRECTION('Vector Direction',(0.,0.,-1.)) ;
#307=DIRECTION('Axis2P3D Direction',(0.,0.,1.)) ;
#308=DIRECTION('Axis2P3D XDirection',(-9.49408737391E-016,-1.,0.)) ;
#312=DIRECTION('Axis2P3D Direction',(0.,0.,1.)) ;
#319=DIRECTION('Vector Direction',(0.,0.,1.)) ;
#331=DIRECTION('Axis2P3D Direction',(-1.,0.,0.)) ;
#332=DIRECTION('Axis2P3D XDirection',(0.,1.,0.)) ;
#336=DIRECTION('Vector Direction',(0.,1.,0.)) ;
#343=DIRECTION('Vector Direction',(0.,0.,-1.)) ;
#355=DIRECTION('Axis2P3D Direction',(0.,0.,1.)) ;
#356=DIRECTION('Axis2P3D XDirection',(1.,-1.01063905508E-015,0.)) ;
#360=DIRECTION('Axis2P3D Direction',(0.,0.,1.)) ;
#367=DIRECTION('Vector Direction',(0.,0.,1.)) ;
#379=DIRECTION('Axis2P3D Direction',(0.,-1.,0.)) ;
#380=DIRECTION('Axis2P3D XDirection',(-1.,0.,0.)) ;
#384=DIRECTION('Vector Direction',(-1.,0.,0.)) ;
#396=DIRECTION('Axis2P3D Direction',(0.,0.,1.)) ;
#397=DIRECTION('Axis2P3D XDirection',(0.87758256189,0.479425538604,0.)) ;
#401=DIRECTION('Vector Direction',(0.,0.,1.)) ;
#408=DIRECTION('Vector Direction',(0.,0.,1.)) ;
#415=DIRECTION('Axis2P3D Direction',(0.,0.,1.)) ;
#427=DIRECTION('Axis2P3D Direction',(0.,0.,1.)) ;
#439=DIRECTION('Axis2P3D Direction',(0.,0.,1.)) ;
#440=DIRECTION('Axis2P3D XDirection',(-1.,0.,0.)) ;
#48=AXIS2_PLACEMENT_3D(' ',#47,$,$) ;
#55=AXIS2_PLACEMENT_3D('Cylinder Axis2P3D',#52,#53,#54) ;
#68=AXIS2_PLACEMENT_3D('Circle Axis2P3D',#66,#67,$) ;
#82=AXIS2_PLACEMENT_3D('Circle Axis2P3D',#80,#81,$) ;
#94=AXIS2_PLACEMENT_3D('Circle Axis2P3D',#92,#93,$) ;
#99=AXIS2_PLACEMENT_3D('Circle Axis2P3D',#97,#98,$) ;
#112=AXIS2_PLACEMENT_3D('Plane Axis2P3D',#109,#110,#111) ;
#116=AXIS2_PLACEMENT_3D('Circle Axis2P3D',#114,#115,$) ;
#132=AXIS2_PLACEMENT_3D('Circle Axis2P3D',#130,#131,$) ;
#146=AXIS2_PLACEMENT_3D('Circle Axis2P3D',#144,#145,$) ;
#160=AXIS2_PLACEMENT_3D('Circle Axis2P3D',#158,#159,$) ;
#186=AXIS2_PLACEMENT_3D('Circle Axis2P3D',#184,#185,$) ;
#195=AXIS2_PLACEMENT_3D('Circle Axis2P3D',#193,#194,$) ;
#206=AXIS2_PLACEMENT_3D('Cylinder Axis2P3D',#203,#204,#205) ;
#210=AXIS2_PLACEMENT_3D('Circle Axis2P3D',#208,#209,$) ;
#237=AXIS2_PLACEMENT_3D('Plane Axis2P3D',#234,#235,#236) ;
#261=AXIS2_PLACEMENT_3D('Cylinder Axis2P3D',#258,#259,#260) ;
#265=AXIS2_PLACEMENT_3D('Circle Axis2P3D',#263,#264,$) ;
#285=AXIS2_PLACEMENT_3D('Plane Axis2P3D',#282,#283,#284) ;
#309=AXIS2_PLACEMENT_3D('Cylinder Axis2P3D',#306,#307,#308) ;
#313=AXIS2_PLACEMENT_3D('Circle Axis2P3D',#311,#312,$) ;
#333=AXIS2_PLACEMENT_3D('Plane Axis2P3D',#330,#331,#332) ;
#357=AXIS2_PLACEMENT_3D('Cylinder Axis2P3D',#354,#355,#356) ;
#361=AXIS2_PLACEMENT_3D('Circle Axis2P3D',#359,#360,$) ;
#381=AXIS2_PLACEMENT_3D('Plane Axis2P3D',#378,#379,#380) ;
#398=AXIS2_PLACEMENT_3D('Cylinder Axis2P3D',#395,#396,#397) ;
#416=AXIS2_PLACEMENT_3D('Circle Axis2P3D',#414,#415,$) ;
#428=AXIS2_PLACEMENT_3D('Circle Axis2P3D',#426,#427,$) ;
#441=AXIS2_PLACEMENT_3D('Plane Axis2P3D',#438,#439,#440) ;
#40=PRODUCT_DEFINITION_SHAPE(' ',' ',#14) ;
#31=APPROVAL_PERSON_ORGANIZATION(#25,#21,#19) ;
#25=PERSON_AND_ORGANIZATION(#22,#23) ;
#22=PERSON(' ',' ',' ',$,$,$) ;
#23=ORGANIZATION(' ',' ',' ') ;
#21=APPROVAL(#20,' ') ;
#20=APPROVAL_STATUS('not_yet_approved') ;
#19=APPROVAL_ROLE('APPROVER') ;
#13=DATE_AND_TIME(#11,#12) ;
#12=LOCAL_TIME(9,52,52.,#10) ;
#10=COORDINATED_UNIVERSAL_TIME_OFFSET(0,0,.AHEAD.) ;
#86=ORIENTED_EDGE('',*,*,#65,.F.) ;
#87=ORIENTED_EDGE('',*,*,#72,.T.) ;
#88=ORIENTED_EDGE('',*,*,#79,.T.) ;
#89=ORIENTED_EDGE('',*,*,#84,.F.) ;
#103=ORIENTED_EDGE('',*,*,#79,.F.) ;
#104=ORIENTED_EDGE('',*,*,#96,.T.) ;
#105=ORIENTED_EDGE('',*,*,#65,.T.) ;
#106=ORIENTED_EDGE('',*,*,#101,.F.) ;
#171=ORIENTED_EDGE('',*,*,#122,.T.) ;
#172=ORIENTED_EDGE('',*,*,#129,.T.) ;
#173=ORIENTED_EDGE('',*,*,#136,.T.) ;
#174=ORIENTED_EDGE('',*,*,#143,.T.) ;
#175=ORIENTED_EDGE('',*,*,#150,.T.) ;
#176=ORIENTED_EDGE('',*,*,#157,.T.) ;
#177=ORIENTED_EDGE('',*,*,#164,.T.) ;
#178=ORIENTED_EDGE('',*,*,#169,.T.) ;
#181=ORIENTED_EDGE('',*,*,#96,.F.) ;
#182=ORIENTED_EDGE('',*,*,#72,.F.) ;
#199=ORIENTED_EDGE('',*,*,#192,.F.) ;
#200=ORIENTED_EDGE('',*,*,#197,.F.) ;
#228=ORIENTED_EDGE('',*,*,#216,.T.) ;
#229=ORIENTED_EDGE('',*,*,#221,.F.) ;
#230=ORIENTED_EDGE('',*,*,#122,.F.) ;
#231=ORIENTED_EDGE('',*,*,#226,.T.) ;
#252=ORIENTED_EDGE('',*,*,#245,.T.) ;
#253=ORIENTED_EDGE('',*,*,#250,.F.) ;
#254=ORIENTED_EDGE('',*,*,#129,.F.) ;
#255=ORIENTED_EDGE('',*,*,#221,.T.) ;
#276=ORIENTED_EDGE('',*,*,#269,.T.) ;
#277=ORIENTED_EDGE('',*,*,#274,.F.) ;
#278=ORIENTED_EDGE('',*,*,#136,.F.) ;
#279=ORIENTED_EDGE('',*,*,#250,.T.) ;
#300=ORIENTED_EDGE('',*,*,#293,.T.) ;
#301=ORIENTED_EDGE('',*,*,#298,.F.) ;
#302=ORIENTED_EDGE('',*,*,#143,.F.) ;
#303=ORIENTED_EDGE('',*,*,#274,.T.) ;
#324=ORIENTED_EDGE('',*,*,#317,.T.) ;
#325=ORIENTED_EDGE('',*,*,#322,.F.) ;
#326=ORIENTED_EDGE('',*,*,#150,.F.) ;
#327=ORIENTED_EDGE('',*,*,#298,.T.) ;
#348=ORIENTED_EDGE('',*,*,#341,.T.) ;
#349=ORIENTED_EDGE('',*,*,#346,.F.) ;
#350=ORIENTED_EDGE('',*,*,#157,.F.) ;
#351=ORIENTED_EDGE('',*,*,#322,.T.) ;
#372=ORIENTED_EDGE('',*,*,#365,.T.) ;
#373=ORIENTED_EDGE('',*,*,#370,.F.) ;
#374=ORIENTED_EDGE('',*,*,#164,.F.) ;
#375=ORIENTED_EDGE('',*,*,#346,.T.) ;
#389=ORIENTED_EDGE('',*,*,#387,.T.) ;
#390=ORIENTED_EDGE('',*,*,#226,.F.) ;
#391=ORIENTED_EDGE('',*,*,#169,.F.) ;
#392=ORIENTED_EDGE('',*,*,#370,.T.) ;
#420=ORIENTED_EDGE('',*,*,#406,.F.) ;
#421=ORIENTED_EDGE('',*,*,#197,.T.) ;
#422=ORIENTED_EDGE('',*,*,#413,.T.) ;
#423=ORIENTED_EDGE('',*,*,#418,.F.) ;
#432=ORIENTED_EDGE('',*,*,#413,.F.) ;
#433=ORIENTED_EDGE('',*,*,#192,.T.) ;
#434=ORIENTED_EDGE('',*,*,#406,.T.) ;
#435=ORIENTED_EDGE('',*,*,#430,.F.) ;
#444=ORIENTED_EDGE('',*,*,#387,.F.) ;
#445=ORIENTED_EDGE('',*,*,#365,.F.) ;
#446=ORIENTED_EDGE('',*,*,#341,.F.) ;
#447=ORIENTED_EDGE('',*,*,#317,.F.) ;
#448=ORIENTED_EDGE('',*,*,#293,.F.) ;
#449=ORIENTED_EDGE('',*,*,#269,.F.) ;
#450=ORIENTED_EDGE('',*,*,#245,.F.) ;
#451=ORIENTED_EDGE('',*,*,#216,.F.) ;
#454=ORIENTED_EDGE('',*,*,#84,.T.) ;
#455=ORIENTED_EDGE('',*,*,#101,.T.) ;
#458=ORIENTED_EDGE('',*,*,#418,.T.) ;
#459=ORIENTED_EDGE('',*,*,#430,.T.) ;
#183=FACE_BOUND('',#180,.T.) ;
#201=FACE_BOUND('',#198,.T.) ;
#456=FACE_BOUND('',#453,.T.) ;
#460=FACE_BOUND('',#457,.T.) ;
#51=CLOSED_SHELL('Closed Shell',(#91,#108,#202,#233,#257,#281,#305,#329,#353,#377,#394,#425,#437,#461)) ;
#59=VECTOR('Line Direction',#58,1.) ;
#75=VECTOR('Line Direction',#74,1.) ;
#125=VECTOR('Line Direction',#124,1.) ;
#139=VECTOR('Line Direction',#138,1.) ;
#153=VECTOR('Line Direction',#152,1.) ;
#167=VECTOR('Line Direction',#166,1.) ;
#219=VECTOR('Line Direction',#218,1.) ;
#224=VECTOR('Line Direction',#223,1.) ;
#241=VECTOR('Line Direction',#240,1.) ;
#248=VECTOR('Line Direction',#247,1.) ;
#272=VECTOR('Line Direction',#271,1.) ;
#289=VECTOR('Line Direction',#288,1.) ;
#296=VECTOR('Line Direction',#295,1.) ;
#320=VECTOR('Line Direction',#319,1.) ;
#337=VECTOR('Line Direction',#336,1.) ;
#344=VECTOR('Line Direction',#343,1.) ;
#368=VECTOR('Line Direction',#367,1.) ;
#385=VECTOR('Line Direction',#384,1.) ;
#402=VECTOR('Line Direction',#401,1.) ;
#409=VECTOR('Line Direction',#408,1.) ;
#463=ADVANCED_BREP_SHAPE_REPRESENTATION('NONE',(#462),#46) ;
#49=SHAPE_REPRESENTATION(' ',(#48),#46) ;
#91=ADVANCED_FACE('',(#90),#56,.F.) ;
#108=ADVANCED_FACE('',(#107),#56,.F.) ;
#202=ADVANCED_FACE('',(#179,#183,#201),#113,.T.) ;
#233=ADVANCED_FACE('',(#232),#207,.T.) ;
#257=ADVANCED_FACE('',(#256),#238,.T.) ;
#281=ADVANCED_FACE('',(#280),#262,.T.) ;
#305=ADVANCED_FACE('',(#304),#286,.F.) ;
#329=ADVANCED_FACE('',(#328),#310,.T.) ;
#353=ADVANCED_FACE('',(#352),#334,.F.) ;
#377=ADVANCED_FACE('',(#376),#358,.T.) ;
#394=ADVANCED_FACE('',(#393),#382,.F.) ;
#425=ADVANCED_FACE('',(#424),#399,.F.) ;
#437=ADVANCED_FACE('',(#436),#399,.F.) ;
#461=ADVANCED_FACE('',(#452,#456,#460),#442,.F.) ;
#4=APPLICATION_PROTOCOL_DEFINITION('international standard','config_control_design',1994,#1) ;
#32=APPROVAL_DATE_TIME(#13,#21) ;
#462=MANIFOLD_SOLID_BREP('Corps principal',#51) ;
#11=CALENDAR_DATE(2017,21,5) ;
#30=CC_DESIGN_APPROVAL(#21,(#16,#6,#14)) ;
#18=CC_DESIGN_DATE_AND_TIME_ASSIGNMENT(#13,#17,(#16)) ;
#29=CC_DESIGN_DATE_AND_TIME_ASSIGNMENT(#13,#28,(#14)) ;
#17=DATE_TIME_ROLE('classification_date') ;
#28=DATE_TIME_ROLE('creation_date') ;
#27=CC_DESIGN_PERSON_AND_ORGANIZATION_ASSIGNMENT(#25,#26,(#16)) ;
#33=CC_DESIGN_PERSON_AND_ORGANIZATION_ASSIGNMENT(#25,#34,(#6)) ;
#35=CC_DESIGN_PERSON_AND_ORGANIZATION_ASSIGNMENT(#25,#36,(#6,#14)) ;
#37=CC_DESIGN_PERSON_AND_ORGANIZATION_ASSIGNMENT(#25,#38,(#5)) ;
#26=PERSON_AND_ORGANIZATION_ROLE('classification_officer') ;
#34=PERSON_AND_ORGANIZATION_ROLE('design_supplier') ;
#36=PERSON_AND_ORGANIZATION_ROLE('creator') ;
#38=PERSON_AND_ORGANIZATION_ROLE('design_owner') ;
#39=CC_DESIGN_SECURITY_CLASSIFICATION(#16,(#6)) ;
#69=CIRCLE('generated circle',#68,3.1) ;
#83=CIRCLE('generated circle',#82,3.1) ;
#95=CIRCLE('generated circle',#94,3.1) ;
#100=CIRCLE('generated circle',#99,3.1) ;
#117=CIRCLE('generated circle',#116,4.) ;
#133=CIRCLE('generated circle',#132,4.) ;
#147=CIRCLE('generated circle',#146,4.) ;
#161=CIRCLE('generated circle',#160,4.) ;
#187=CIRCLE('generated circle',#186,3.1) ;
#196=CIRCLE('generated circle',#195,3.1) ;
#211=CIRCLE('generated circle',#210,4.) ;
#266=CIRCLE('generated circle',#265,4.) ;
#314=CIRCLE('generated circle',#313,4.) ;
#362=CIRCLE('generated circle',#361,4.) ;
#417=CIRCLE('generated circle',#416,3.1) ;
#429=CIRCLE('generated circle',#428,3.1) ;
#464=SHAPE_REPRESENTATION_RELATIONSHIP(' ',' ',#49,#463) ;
#56=CYLINDRICAL_SURFACE('generated cylinder',#55,3.1) ;
#207=CYLINDRICAL_SURFACE('generated cylinder',#206,4.) ;
#262=CYLINDRICAL_SURFACE('generated cylinder',#261,4.) ;
#310=CYLINDRICAL_SURFACE('generated cylinder',#309,4.) ;
#358=CYLINDRICAL_SURFACE('generated cylinder',#357,4.) ;
#399=CYLINDRICAL_SURFACE('generated cylinder',#398,3.1) ;
#3=DESIGN_CONTEXT(' ',#1,'design') ;
#65=EDGE_CURVE('',#62,#64,#60,.F.) ;
#72=EDGE_CURVE('',#62,#71,#69,.T.) ;
#79=EDGE_CURVE('',#71,#78,#76,.F.) ;
#84=EDGE_CURVE('',#64,#78,#83,.T.) ;
#96=EDGE_CURVE('',#71,#62,#95,.T.) ;
#101=EDGE_CURVE('',#78,#64,#100,.T.) ;
#122=EDGE_CURVE('',#119,#121,#117,.T.) ;
#129=EDGE_CURVE('',#121,#128,#126,.F.) ;
#136=EDGE_CURVE('',#128,#135,#133,.T.) ;
#143=EDGE_CURVE('',#135,#142,#140,.T.) ;
#150=EDGE_CURVE('',#142,#149,#147,.T.) ;
#157=EDGE_CURVE('',#149,#156,#154,.T.) ;
#164=EDGE_CURVE('',#156,#163,#161,.T.) ;
#169=EDGE_CURVE('',#163,#119,#168,.T.) ;
#192=EDGE_CURVE('',#189,#191,#187,.T.) ;
#197=EDGE_CURVE('',#191,#189,#196,.T.) ;
#216=EDGE_CURVE('',#213,#215,#211,.T.) ;
#221=EDGE_CURVE('',#121,#215,#220,.F.) ;
#226=EDGE_CURVE('',#119,#213,#225,.F.) ;
#245=EDGE_CURVE('',#215,#244,#242,.F.) ;
#250=EDGE_CURVE('',#128,#244,#249,.T.) ;
#269=EDGE_CURVE('',#244,#268,#266,.T.) ;
#274=EDGE_CURVE('',#135,#268,#273,.F.) ;
#293=EDGE_CURVE('',#268,#292,#290,.T.) ;
#298=EDGE_CURVE('',#142,#292,#297,.T.) ;
#317=EDGE_CURVE('',#292,#316,#314,.T.) ;
#322=EDGE_CURVE('',#149,#316,#321,.F.) ;
#341=EDGE_CURVE('',#316,#340,#338,.T.) ;
#346=EDGE_CURVE('',#156,#340,#345,.T.) ;
#365=EDGE_CURVE('',#340,#364,#362,.T.) ;
#370=EDGE_CURVE('',#163,#364,#369,.F.) ;
#387=EDGE_CURVE('',#364,#213,#386,.T.) ;
#406=EDGE_CURVE('',#191,#405,#403,.F.) ;
#413=EDGE_CURVE('',#189,#412,#410,.F.) ;
#418=EDGE_CURVE('',#405,#412,#417,.T.) ;
#430=EDGE_CURVE('',#412,#405,#429,.T.) ;
#85=EDGE_LOOP('',(#86,#87,#88,#89)) ;
#102=EDGE_LOOP('',(#103,#104,#105,#106)) ;
#170=EDGE_LOOP('',(#171,#172,#173,#174,#175,#176,#177,#178)) ;
#180=EDGE_LOOP('',(#181,#182)) ;
#198=EDGE_LOOP('',(#199,#200)) ;
#227=EDGE_LOOP('',(#228,#229,#230,#231)) ;
#251=EDGE_LOOP('',(#252,#253,#254,#255)) ;
#275=EDGE_LOOP('',(#276,#277,#278,#279)) ;
#299=EDGE_LOOP('',(#300,#301,#302,#303)) ;
#323=EDGE_LOOP('',(#324,#325,#326,#327)) ;
#347=EDGE_LOOP('',(#348,#349,#350,#351)) ;
#371=EDGE_LOOP('',(#372,#373,#374,#375)) ;
#388=EDGE_LOOP('',(#389,#390,#391,#392)) ;
#419=EDGE_LOOP('',(#420,#421,#422,#423)) ;
#431=EDGE_LOOP('',(#432,#433,#434,#435)) ;
#443=EDGE_LOOP('',(#444,#445,#446,#447,#448,#449,#450,#451)) ;
#453=EDGE_LOOP('',(#454,#455)) ;
#457=EDGE_LOOP('',(#458,#459)) ;
#90=FACE_OUTER_BOUND('',#85,.T.) ;
#107=FACE_OUTER_BOUND('',#102,.T.) ;
#179=FACE_OUTER_BOUND('',#170,.T.) ;
#232=FACE_OUTER_BOUND('',#227,.T.) ;
#256=FACE_OUTER_BOUND('',#251,.T.) ;
#280=FACE_OUTER_BOUND('',#275,.T.) ;
#304=FACE_OUTER_BOUND('',#299,.T.) ;
#328=FACE_OUTER_BOUND('',#323,.T.) ;
#352=FACE_OUTER_BOUND('',#347,.T.) ;
#376=FACE_OUTER_BOUND('',#371,.T.) ;
#393=FACE_OUTER_BOUND('',#388,.T.) ;
#424=FACE_OUTER_BOUND('',#419,.T.) ;
#436=FACE_OUTER_BOUND('',#431,.T.) ;
#452=FACE_OUTER_BOUND('',#443,.T.) ;
#45=UNCERTAINTY_MEASURE_WITH_UNIT(LENGTH_MEASURE(0.005),#41,'distance_accuracy_value','CONFUSED CURVE UNCERTAINTY') ;
#60=LINE('Line',#57,#59) ;
#76=LINE('Line',#73,#75) ;
#126=LINE('Line',#123,#125) ;
#140=LINE('Line',#137,#139) ;
#154=LINE('Line',#151,#153) ;
#168=LINE('Line',#165,#167) ;
#220=LINE('Line',#217,#219) ;
#225=LINE('Line',#222,#224) ;
#242=LINE('Line',#239,#241) ;
#249=LINE('Line',#246,#248) ;
#273=LINE('Line',#270,#272) ;
#290=LINE('Line',#287,#289) ;
#297=LINE('Line',#294,#296) ;
#321=LINE('Line',#318,#320) ;
#338=LINE('Line',#335,#337) ;
#345=LINE('Line',#342,#344) ;
#369=LINE('Line',#366,#368) ;
#386=LINE('Line',#383,#385) ;
#403=LINE('Line',#400,#402) ;
#410=LINE('Line',#407,#409) ;
#2=MECHANICAL_CONTEXT(' ',#1,'mechanical') ;
#24=PERSONAL_ADDRESS(' ',' ',' ',' ',' ',' ',' ',' ',' ',' ',' ',' ',(#22),' ') ;
#113=PLANE('Plane',#112) ;
#238=PLANE('Plane',#237) ;
#286=PLANE('Plane',#285) ;
#334=PLANE('Plane',#333) ;
#382=PLANE('Plane',#381) ;
#442=PLANE('Plane',#441) ;
#43=PLANE_ANGLE_MEASURE_WITH_UNIT(PLANE_ANGLE_MEASURE(0.0174532925199),#42) ;
#7=PRODUCT_CATEGORY('part',$) ;
#9=PRODUCT_CATEGORY_RELATIONSHIP(' ',' ',#7,#8) ;
#6=PRODUCT_DEFINITION_FORMATION_WITH_SPECIFIED_SOURCE('',' ',#5,.NOT_KNOWN.) ;
#8=PRODUCT_RELATED_PRODUCT_CATEGORY('detail',$,(#5)) ;
#50=SHAPE_DEFINITION_REPRESENTATION(#40,#49) ;
#62=VERTEX_POINT('',#61) ;
#64=VERTEX_POINT('',#63) ;
#71=VERTEX_POINT('',#70) ;
#78=VERTEX_POINT('',#77) ;
#119=VERTEX_POINT('',#118) ;
#121=VERTEX_POINT('',#120) ;
#128=VERTEX_POINT('',#127) ;
#135=VERTEX_POINT('',#134) ;
#142=VERTEX_POINT('',#141) ;
#149=VERTEX_POINT('',#148) ;
#156=VERTEX_POINT('',#155) ;
#163=VERTEX_POINT('',#162) ;
#189=VERTEX_POINT('',#188) ;
#191=VERTEX_POINT('',#190) ;
#213=VERTEX_POINT('',#212) ;
#215=VERTEX_POINT('',#214) ;
#244=VERTEX_POINT('',#243) ;
#268=VERTEX_POINT('',#267) ;
#292=VERTEX_POINT('',#291) ;
#316=VERTEX_POINT('',#315) ;
#340=VERTEX_POINT('',#339) ;
#364=VERTEX_POINT('',#363) ;
#405=VERTEX_POINT('',#404) ;
#412=VERTEX_POINT('',#411) ;
#41=(LENGTH_UNIT()NAMED_UNIT(*)SI_UNIT(.MILLI.,.METRE.)) ;
#42=(NAMED_UNIT(*)PLANE_ANGLE_UNIT()SI_UNIT($,.RADIAN.)) ;
#44=(NAMED_UNIT(*)SI_UNIT($,.STERADIAN.)SOLID_ANGLE_UNIT()) ;
#46=(GEOMETRIC_REPRESENTATION_CONTEXT(3)GLOBAL_UNCERTAINTY_ASSIGNED_CONTEXT((#45))GLOBAL_UNIT_ASSIGNED_CONTEXT((#41,#42,#44))REPRESENTATION_CONTEXT(' ',' ')) ;
ENDSEC;
END-ISO-10303-21;
