ISO-10303-21;
HEADER;
/****************************************************************
 * Generated by software with PDElib inside                     *
 * PDElib Version v7.3, created Wed 10/22/2014  0:06:31.40      *
 * International Technegroup Inc. (www.iti-global.com)          *
 ****************************************************************/
FILE_DESCRIPTION((''),'2;1');
FILE_NAME('C:\\Users\\Didier\\Desktop\\support.stp','2017-02-22T06:49:10',(''),(''),'STEP Write','Mastercam X9 ... CNC Software, Inc.','');
FILE_SCHEMA(('AUTOMOTIVE_DESIGN'));
ENDSEC;
DATA;
#10=(NAMED_UNIT(*)PLANE_ANGLE_UNIT()SI_UNIT($,.RADIAN.));
#11=DIMENSIONAL_EXPONENTS(0.0,0.0,0.0,0.0,0.0,0.0,0.0);
#12=PLANE_ANGLE_MEASURE_WITH_UNIT(PLANE_ANGLE_MEASURE(0.017453292500000),#10);
#16=(CONVERSION_BASED_UNIT('DEGREE',#12)NAMED_UNIT(#11)PLANE_ANGLE_UNIT());
#20=(NAMED_UNIT(*)SI_UNIT($,.STERADIAN.)SOLID_ANGLE_UNIT());
#24=(LENGTH_UNIT()NAMED_UNIT(*)SI_UNIT(.MILLI.,.METRE.));
#26=UNCERTAINTY_MEASURE_WITH_UNIT(LENGTH_MEASURE(0.001000000000000),#24,'DISTANCE_ACCURACY_VALUE','');
#28=(GEOMETRIC_REPRESENTATION_CONTEXT(3)GLOBAL_UNCERTAINTY_ASSIGNED_CONTEXT((#26))GLOBAL_UNIT_ASSIGNED_CONTEXT((#16,#20,#24))REPRESENTATION_CONTEXT('','3D'));
#29=APPLICATION_CONTEXT('automotive design');
#30=APPLICATION_PROTOCOL_DEFINITION('Draft International Standard','automotive_design',1998,#29);
#31=PRODUCT_CONTEXT('None',#29,'mechanical');
#32=PRODUCT('None','None','None',(#31));
#33=PRODUCT_RELATED_PRODUCT_CATEGORY('part','description',(#32));
#34=PRODUCT_DEFINITION_FORMATION('None','None',#32);
#35=PRODUCT_DEFINITION_CONTEXT('part definition',#29,'design');
#36=PRODUCT_DEFINITION('None','None',#34,#35);
#37=PRODUCT_DEFINITION_SHAPE('None','None',#36);
#38=ADVANCED_BREP_SHAPE_REPRESENTATION('',(#533),#28);
#39=SHAPE_DEFINITION_REPRESENTATION(#37,#38);
#40=CARTESIAN_POINT('',(55.0,-52.000000000000057,1.260000000000000));
#41=DIRECTION('',(1.0,0.0,0.0));
#42=DIRECTION('',(0.0,0.0,-1.0));
#43=AXIS2_PLACEMENT_3D('',#40,#41,#42);
#44=PLANE('',#43);
#45=CARTESIAN_POINT('',(55.0,-10.0,0.0));
#46=VERTEX_POINT('',#45);
#47=CARTESIAN_POINT('',(55.0,-50.000000000000071,0.0));
#48=VERTEX_POINT('',#47);
#49=CARTESIAN_POINT('',(55.0,-10.0,0.0));
#50=DIRECTION('',(0.0,-1.0,0.0));
#51=VECTOR('',#50,1.0);
#52=LINE('',#49,#51);
#53=EDGE_CURVE('',#46,#48,#52,.T.);
#54=ORIENTED_EDGE('',*,*,#53,.F.);
#55=CARTESIAN_POINT('',(55.0,-10.0,1.200000000000000));
#56=VERTEX_POINT('',#55);
#57=CARTESIAN_POINT('',(55.0,-10.0,1.260000000000000));
#58=DIRECTION('',(0.0,0.0,-1.0));
#59=VECTOR('',#58,1.0);
#60=LINE('',#57,#59);
#61=EDGE_CURVE('',#46,#56,#60,.F.);
#62=ORIENTED_EDGE('',*,*,#61,.T.);
#63=CARTESIAN_POINT('',(55.0,-50.000000000000071,1.200000000000000));
#64=VERTEX_POINT('',#63);
#65=CARTESIAN_POINT('',(55.0,-10.0,1.200000000000000));
#66=DIRECTION('',(0.0,-1.0,0.0));
#67=VECTOR('',#66,1.0);
#68=LINE('',#65,#67);
#69=EDGE_CURVE('',#56,#64,#68,.T.);
#70=ORIENTED_EDGE('',*,*,#69,.T.);
#71=CARTESIAN_POINT('',(55.0,-50.000000000000071,1.260000000000000));
#72=DIRECTION('',(0.0,0.0,-1.0));
#73=VECTOR('',#72,1.0);
#74=LINE('',#71,#73);
#75=EDGE_CURVE('',#64,#48,#74,.T.);
#76=ORIENTED_EDGE('',*,*,#75,.T.);
#77=EDGE_LOOP('',(#54,#62,#70,#76));
#78=FACE_OUTER_BOUND('',#77,.T.);
#79=ADVANCED_FACE('',(#78),#44,.T.);
#80=CARTESIAN_POINT('',(-49.500000000000007,0.0,-0.060000000000000));
#81=DIRECTION('',(0.0,1.0,0.0));
#82=DIRECTION('',(0.0,0.0,1.0));
#83=AXIS2_PLACEMENT_3D('',#80,#81,#82);
#84=PLANE('',#83);
#85=CARTESIAN_POINT('',(-45.0,0.0,1.200000000000000));
#86=VERTEX_POINT('',#85);
#87=CARTESIAN_POINT('',(45.0,0.0,1.200000000000000));
#88=VERTEX_POINT('',#87);
#89=CARTESIAN_POINT('',(-45.000000000000007,0.0,1.200000000000000));
#90=DIRECTION('',(1.0,0.0,0.0));
#91=VECTOR('',#90,1.0);
#92=LINE('',#89,#91);
#93=EDGE_CURVE('',#86,#88,#92,.T.);
#94=ORIENTED_EDGE('',*,*,#93,.T.);
#95=CARTESIAN_POINT('',(45.0,0.0,0.0));
#96=VERTEX_POINT('',#95);
#97=CARTESIAN_POINT('',(45.0,0.0,-0.060000000000000));
#98=DIRECTION('',(0.0,0.0,-1.0));
#99=VECTOR('',#98,1.0);
#100=LINE('',#97,#99);
#101=EDGE_CURVE('',#88,#96,#100,.T.);
#102=ORIENTED_EDGE('',*,*,#101,.T.);
#103=CARTESIAN_POINT('',(-45.0,0.0,0.0));
#104=VERTEX_POINT('',#103);
#105=CARTESIAN_POINT('',(-45.000000000000007,0.0,0.0));
#106=DIRECTION('',(1.0,0.0,0.0));
#107=VECTOR('',#106,1.0);
#108=LINE('',#105,#107);
#109=EDGE_CURVE('',#104,#96,#108,.T.);
#110=ORIENTED_EDGE('',*,*,#109,.F.);
#111=CARTESIAN_POINT('',(-45.0,0.0,-0.060000000000000));
#112=DIRECTION('',(0.0,0.0,-1.0));
#113=VECTOR('',#112,1.0);
#114=LINE('',#111,#113);
#115=EDGE_CURVE('',#104,#86,#114,.F.);
#116=ORIENTED_EDGE('',*,*,#115,.T.);
#117=EDGE_LOOP('',(#94,#102,#110,#116));
#118=FACE_OUTER_BOUND('',#117,.T.);
#119=ADVANCED_FACE('',(#118),#84,.T.);
#120=CARTESIAN_POINT('',(-55.0,-8.0,-0.060000000000000));
#121=DIRECTION('',(-1.0,0.0,0.0));
#122=DIRECTION('',(0.0,-1.0,0.0));
#123=AXIS2_PLACEMENT_3D('',#120,#121,#122);
#124=PLANE('',#123);
#125=CARTESIAN_POINT('',(-55.0,-50.0,1.200000000000000));
#126=VERTEX_POINT('',#125);
#127=CARTESIAN_POINT('',(-55.000000000000021,-10.0,1.200000000000000));
#128=VERTEX_POINT('',#127);
#129=CARTESIAN_POINT('',(-55.0,-49.999999999999993,1.200000000000000));
#130=DIRECTION('',(0.0,1.0,0.0));
#131=VECTOR('',#130,1.0);
#132=LINE('',#129,#131);
#133=EDGE_CURVE('',#126,#128,#132,.T.);
#134=ORIENTED_EDGE('',*,*,#133,.T.);
#135=CARTESIAN_POINT('',(-55.000000000000021,-10.0,0.0));
#136=VERTEX_POINT('',#135);
#137=CARTESIAN_POINT('',(-55.0,-10.0,-0.060000000000000));
#138=DIRECTION('',(0.0,0.0,-1.0));
#139=VECTOR('',#138,1.0);
#140=LINE('',#137,#139);
#141=EDGE_CURVE('',#128,#136,#140,.T.);
#142=ORIENTED_EDGE('',*,*,#141,.T.);
#143=CARTESIAN_POINT('',(-55.0,-50.0,0.0));
#144=VERTEX_POINT('',#143);
#145=CARTESIAN_POINT('',(-55.0,-49.999999999999993,0.0));
#146=DIRECTION('',(0.0,1.0,0.0));
#147=VECTOR('',#146,1.0);
#148=LINE('',#145,#147);
#149=EDGE_CURVE('',#144,#136,#148,.T.);
#150=ORIENTED_EDGE('',*,*,#149,.F.);
#151=CARTESIAN_POINT('',(-55.0,-50.0,-0.060000000000000));
#152=DIRECTION('',(0.0,0.0,-1.0));
#153=VECTOR('',#152,1.0);
#154=LINE('',#151,#153);
#155=EDGE_CURVE('',#144,#126,#154,.F.);
#156=ORIENTED_EDGE('',*,*,#155,.T.);
#157=EDGE_LOOP('',(#134,#142,#150,#156));
#158=FACE_OUTER_BOUND('',#157,.T.);
#159=ADVANCED_FACE('',(#158),#124,.T.);
#160=CARTESIAN_POINT('',(-53.613961030678958,-55.528174593051993,-0.060000000000000));
#161=DIRECTION('',(-0.707106781186548,-0.707106781186548,0.0));
#162=DIRECTION('',(0.707106781186548,-0.707106781186548,0.0));
#163=AXIS2_PLACEMENT_3D('',#160,#161,#162);
#164=PLANE('',#163);
#165=CARTESIAN_POINT('',(-21.213203435596419,-87.928932188134553,1.200000000000000));
#166=VERTEX_POINT('',#165);
#167=CARTESIAN_POINT('',(-52.071067811865433,-57.071067811865447,1.200000000000000));
#168=VERTEX_POINT('',#167);
#169=CARTESIAN_POINT('',(-21.213203435596419,-87.928932188134553,1.200000000000000));
#170=DIRECTION('',(-0.707106781186540,0.707106781186555,0.0));
#171=VECTOR('',#170,0.999999999999998);
#172=LINE('',#169,#171);
#173=EDGE_CURVE('',#166,#168,#172,.T.);
#174=ORIENTED_EDGE('',*,*,#173,.T.);
#175=CARTESIAN_POINT('',(-52.071067811865433,-57.071067811865447,0.0));
#176=VERTEX_POINT('',#175);
#177=CARTESIAN_POINT('',(-52.071067811865483,-57.071067811865483,-0.060000000000000));
#178=DIRECTION('',(0.0,0.0,-1.0));
#179=VECTOR('',#178,1.0);
#180=LINE('',#177,#179);
#181=EDGE_CURVE('',#168,#176,#180,.T.);
#182=ORIENTED_EDGE('',*,*,#181,.T.);
#183=CARTESIAN_POINT('',(-21.213203435596419,-87.928932188134553,0.0));
#184=VERTEX_POINT('',#183);
#185=CARTESIAN_POINT('',(-21.213203435596419,-87.928932188134553,0.0));
#186=DIRECTION('',(-0.707106781186540,0.707106781186555,0.0));
#187=VECTOR('',#186,0.999999999999998);
#188=LINE('',#185,#187);
#189=EDGE_CURVE('',#184,#176,#188,.T.);
#190=ORIENTED_EDGE('',*,*,#189,.F.);
#191=CARTESIAN_POINT('',(-21.213203435596419,-87.928932188134539,-0.060000000000000));
#192=DIRECTION('',(0.0,0.0,-1.0));
#193=VECTOR('',#192,1.0);
#194=LINE('',#191,#193);
#195=EDGE_CURVE('',#184,#166,#194,.F.);
#196=ORIENTED_EDGE('',*,*,#195,.T.);
#197=EDGE_LOOP('',(#174,#182,#190,#196));
#198=FACE_OUTER_BOUND('',#197,.T.);
#199=ADVANCED_FACE('',(#198),#164,.T.);
#200=CARTESIAN_POINT('',(19.670310216782969,-89.471825406948014,-0.060000000000000));
#201=DIRECTION('',(0.707106781186547,-0.707106781186548,0.0));
#202=DIRECTION('',(0.707106781186548,0.707106781186547,0.0));
#203=AXIS2_PLACEMENT_3D('',#200,#201,#202);
#204=PLANE('',#203);
#205=CARTESIAN_POINT('',(52.071067811865447,-57.071067811865539,0.0));
#206=VERTEX_POINT('',#205);
#207=CARTESIAN_POINT('',(21.213203435596430,-87.928932188134581,0.0));
#208=VERTEX_POINT('',#207);
#209=CARTESIAN_POINT('',(52.071067811865447,-57.071067811865539,0.0));
#210=DIRECTION('',(-0.707106781186540,-0.707106781186555,0.0));
#211=VECTOR('',#210,0.999999999999998);
#212=LINE('',#209,#211);
#213=EDGE_CURVE('',#206,#208,#212,.T.);
#214=ORIENTED_EDGE('',*,*,#213,.F.);
#215=CARTESIAN_POINT('',(52.071067811865447,-57.071067811865539,1.200000000000000));
#216=VERTEX_POINT('',#215);
#217=CARTESIAN_POINT('',(52.071067811865483,-57.071067811865547,-0.060000000000000));
#218=DIRECTION('',(0.0,0.0,-1.0));
#219=VECTOR('',#218,1.0);
#220=LINE('',#217,#219);
#221=EDGE_CURVE('',#206,#216,#220,.F.);
#222=ORIENTED_EDGE('',*,*,#221,.T.);
#223=CARTESIAN_POINT('',(21.213203435596430,-87.928932188134581,1.200000000000000));
#224=VERTEX_POINT('',#223);
#225=CARTESIAN_POINT('',(52.071067811865447,-57.071067811865539,1.200000000000000));
#226=DIRECTION('',(-0.707106781186540,-0.707106781186555,0.0));
#227=VECTOR('',#226,0.999999999999998);
#228=LINE('',#225,#227);
#229=EDGE_CURVE('',#216,#224,#228,.T.);
#230=ORIENTED_EDGE('',*,*,#229,.T.);
#231=CARTESIAN_POINT('',(21.213203435596419,-87.928932188134567,-0.060000000000000));
#232=DIRECTION('',(0.0,0.0,-1.0));
#233=VECTOR('',#232,1.0);
#234=LINE('',#231,#233);
#235=EDGE_CURVE('',#224,#208,#234,.T.);
#236=ORIENTED_EDGE('',*,*,#235,.T.);
#237=EDGE_LOOP('',(#214,#222,#230,#236));
#238=FACE_OUTER_BOUND('',#237,.T.);
#239=ADVANCED_FACE('',(#238),#204,.T.);
#240=CARTESIAN_POINT('',(-60.500000000000043,-101.431648180055010,1.200000000000000));
#241=DIRECTION('',(0.0,0.0,1.0));
#242=DIRECTION('',(1.0,0.0,0.0));
#243=AXIS2_PLACEMENT_3D('',#240,#241,#242);
#244=PLANE('',#243);
#245=ORIENTED_EDGE('',*,*,#69,.F.);
#246=CARTESIAN_POINT('',(45.0,-10.0,1.200000000000000));
#247=DIRECTION('',(0.0,0.0,1.0));
#248=DIRECTION('',(1.0,0.0,0.0));
#249=AXIS2_PLACEMENT_3D('',#246,#247,#248);
#250=CIRCLE('',#249,10.0);
#251=EDGE_CURVE('',#56,#88,#250,.T.);
#252=ORIENTED_EDGE('',*,*,#251,.T.);
#253=ORIENTED_EDGE('',*,*,#93,.F.);
#254=CARTESIAN_POINT('',(-45.0,-10.0,1.200000000000000));
#255=DIRECTION('',(0.0,0.0,1.0));
#256=DIRECTION('',(1.0,0.0,0.0));
#257=AXIS2_PLACEMENT_3D('',#254,#255,#256);
#258=CIRCLE('',#257,10.0);
#259=EDGE_CURVE('',#86,#128,#258,.T.);
#260=ORIENTED_EDGE('',*,*,#259,.T.);
#261=ORIENTED_EDGE('',*,*,#133,.F.);
#262=CARTESIAN_POINT('',(-45.0,-50.0,1.200000000000000));
#263=DIRECTION('',(0.0,0.0,1.0));
#264=DIRECTION('',(1.0,0.0,0.0));
#265=AXIS2_PLACEMENT_3D('',#262,#263,#264);
#266=CIRCLE('',#265,10.0);
#267=EDGE_CURVE('',#126,#168,#266,.T.);
#268=ORIENTED_EDGE('',*,*,#267,.T.);
#269=ORIENTED_EDGE('',*,*,#173,.F.);
#270=CARTESIAN_POINT('',(1.517883E-014,-66.715728752538112,1.200000000000000));
#271=DIRECTION('',(0.0,0.0,1.0));
#272=DIRECTION('',(1.0,0.0,0.0));
#273=AXIS2_PLACEMENT_3D('',#270,#271,#272);
#274=CIRCLE('',#273,30.0);
#275=EDGE_CURVE('',#166,#224,#274,.T.);
#276=ORIENTED_EDGE('',*,*,#275,.T.);
#277=ORIENTED_EDGE('',*,*,#229,.F.);
#278=CARTESIAN_POINT('',(45.0,-50.000000000000071,1.200000000000000));
#279=DIRECTION('',(0.0,0.0,1.0));
#280=DIRECTION('',(1.0,0.0,0.0));
#281=AXIS2_PLACEMENT_3D('',#278,#279,#280);
#282=CIRCLE('',#281,10.0);
#283=EDGE_CURVE('',#216,#64,#282,.T.);
#284=ORIENTED_EDGE('',*,*,#283,.T.);
#285=EDGE_LOOP('',(#245,#252,#253,#260,#261,#268,#269,#276,#277,#284));
#286=FACE_OUTER_BOUND('',#285,.T.);
#287=CARTESIAN_POINT('',(44.000000000000007,-10.0,1.200000000000000));
#288=VERTEX_POINT('',#287);
#289=CARTESIAN_POINT('',(41.0,-10.0,1.200000000000000));
#290=DIRECTION('',(0.0,0.0,1.0));
#291=DIRECTION('',(1.0,0.0,0.0));
#292=AXIS2_PLACEMENT_3D('',#289,#290,#291);
#293=CIRCLE('',#292,3.0);
#294=EDGE_CURVE('',#288,#288,#293,.T.);
#295=ORIENTED_EDGE('',*,*,#294,.F.);
#296=EDGE_LOOP('',(#295));
#297=FACE_BOUND('',#296,.T.);
#298=CARTESIAN_POINT('',(-38.0,-10.0,1.200000000000000));
#299=VERTEX_POINT('',#298);
#300=CARTESIAN_POINT('',(-41.0,-10.0,1.200000000000000));
#301=DIRECTION('',(0.0,0.0,1.0));
#302=DIRECTION('',(1.0,0.0,0.0));
#303=AXIS2_PLACEMENT_3D('',#300,#301,#302);
#304=CIRCLE('',#303,3.0);
#305=EDGE_CURVE('',#299,#299,#304,.T.);
#306=ORIENTED_EDGE('',*,*,#305,.F.);
#307=EDGE_LOOP('',(#306));
#308=FACE_BOUND('',#307,.T.);
#309=CARTESIAN_POINT('',(24.0,-46.0,1.200000000000000));
#310=VERTEX_POINT('',#309);
#311=CARTESIAN_POINT('',(21.0,-46.0,1.200000000000000));
#312=DIRECTION('',(0.0,0.0,1.0));
#313=DIRECTION('',(1.0,0.0,0.0));
#314=AXIS2_PLACEMENT_3D('',#311,#312,#313);
#315=CIRCLE('',#314,3.0);
#316=EDGE_CURVE('',#310,#310,#315,.T.);
#317=ORIENTED_EDGE('',*,*,#316,.F.);
#318=EDGE_LOOP('',(#317));
#319=FACE_BOUND('',#318,.T.);
#320=CARTESIAN_POINT('',(-18.0,-46.0,1.200000000000000));
#321=VERTEX_POINT('',#320);
#322=CARTESIAN_POINT('',(-21.0,-46.0,1.200000000000000));
#323=DIRECTION('',(0.0,0.0,1.0));
#324=DIRECTION('',(1.0,0.0,0.0));
#325=AXIS2_PLACEMENT_3D('',#322,#323,#324);
#326=CIRCLE('',#325,3.0);
#327=EDGE_CURVE('',#321,#321,#326,.T.);
#328=ORIENTED_EDGE('',*,*,#327,.F.);
#329=EDGE_LOOP('',(#328));
#330=FACE_BOUND('',#329,.T.);
#331=ADVANCED_FACE('',(#286,#297,#308,#319,#330),#244,.T.);
#332=CARTESIAN_POINT('',(-60.500000000000043,-101.431648180055010,0.0));
#333=DIRECTION('',(0.0,0.0,1.0));
#334=DIRECTION('',(1.0,0.0,0.0));
#335=AXIS2_PLACEMENT_3D('',#332,#333,#334);
#336=PLANE('',#335);
#337=ORIENTED_EDGE('',*,*,#109,.T.);
#338=CARTESIAN_POINT('',(45.0,-10.0,0.0));
#339=DIRECTION('',(0.0,0.0,1.0));
#340=DIRECTION('',(1.0,0.0,0.0));
#341=AXIS2_PLACEMENT_3D('',#338,#339,#340);
#342=CIRCLE('',#341,10.0);
#343=EDGE_CURVE('',#96,#46,#342,.F.);
#344=ORIENTED_EDGE('',*,*,#343,.T.);
#345=ORIENTED_EDGE('',*,*,#53,.T.);
#346=CARTESIAN_POINT('',(45.0,-50.000000000000071,0.0));
#347=DIRECTION('',(0.0,0.0,1.0));
#348=DIRECTION('',(1.0,0.0,0.0));
#349=AXIS2_PLACEMENT_3D('',#346,#347,#348);
#350=CIRCLE('',#349,10.0);
#351=EDGE_CURVE('',#48,#206,#350,.F.);
#352=ORIENTED_EDGE('',*,*,#351,.T.);
#353=ORIENTED_EDGE('',*,*,#213,.T.);
#354=CARTESIAN_POINT('',(1.517883E-014,-66.715728752538112,0.0));
#355=DIRECTION('',(0.0,0.0,1.0));
#356=DIRECTION('',(1.0,0.0,0.0));
#357=AXIS2_PLACEMENT_3D('',#354,#355,#356);
#358=CIRCLE('',#357,30.0);
#359=EDGE_CURVE('',#208,#184,#358,.F.);
#360=ORIENTED_EDGE('',*,*,#359,.T.);
#361=ORIENTED_EDGE('',*,*,#189,.T.);
#362=CARTESIAN_POINT('',(-45.0,-50.0,0.0));
#363=DIRECTION('',(0.0,0.0,1.0));
#364=DIRECTION('',(1.0,0.0,0.0));
#365=AXIS2_PLACEMENT_3D('',#362,#363,#364);
#366=CIRCLE('',#365,10.0);
#367=EDGE_CURVE('',#176,#144,#366,.F.);
#368=ORIENTED_EDGE('',*,*,#367,.T.);
#369=ORIENTED_EDGE('',*,*,#149,.T.);
#370=CARTESIAN_POINT('',(-45.0,-10.0,0.0));
#371=DIRECTION('',(0.0,0.0,1.0));
#372=DIRECTION('',(1.0,0.0,0.0));
#373=AXIS2_PLACEMENT_3D('',#370,#371,#372);
#374=CIRCLE('',#373,10.0);
#375=EDGE_CURVE('',#136,#104,#374,.F.);
#376=ORIENTED_EDGE('',*,*,#375,.T.);
#377=EDGE_LOOP('',(#337,#344,#345,#352,#353,#360,#361,#368,#369,#376));
#378=FACE_OUTER_BOUND('',#377,.T.);
#379=CARTESIAN_POINT('',(44.000000000000007,-10.0,0.0));
#380=VERTEX_POINT('',#379);
#381=CARTESIAN_POINT('',(41.0,-10.0,0.0));
#382=DIRECTION('',(0.0,0.0,1.0));
#383=DIRECTION('',(1.0,0.0,0.0));
#384=AXIS2_PLACEMENT_3D('',#381,#382,#383);
#385=CIRCLE('',#384,3.0);
#386=EDGE_CURVE('',#380,#380,#385,.T.);
#387=ORIENTED_EDGE('',*,*,#386,.T.);
#388=EDGE_LOOP('',(#387));
#389=FACE_BOUND('',#388,.T.);
#390=CARTESIAN_POINT('',(-38.0,-10.0,0.0));
#391=VERTEX_POINT('',#390);
#392=CARTESIAN_POINT('',(-41.0,-10.0,0.0));
#393=DIRECTION('',(0.0,0.0,1.0));
#394=DIRECTION('',(1.0,0.0,0.0));
#395=AXIS2_PLACEMENT_3D('',#392,#393,#394);
#396=CIRCLE('',#395,3.0);
#397=EDGE_CURVE('',#391,#391,#396,.T.);
#398=ORIENTED_EDGE('',*,*,#397,.T.);
#399=EDGE_LOOP('',(#398));
#400=FACE_BOUND('',#399,.T.);
#401=CARTESIAN_POINT('',(24.0,-46.0,0.0));
#402=VERTEX_POINT('',#401);
#403=CARTESIAN_POINT('',(21.0,-46.0,0.0));
#404=DIRECTION('',(0.0,0.0,1.0));
#405=DIRECTION('',(1.0,0.0,0.0));
#406=AXIS2_PLACEMENT_3D('',#403,#404,#405);
#407=CIRCLE('',#406,3.0);
#408=EDGE_CURVE('',#402,#402,#407,.T.);
#409=ORIENTED_EDGE('',*,*,#408,.T.);
#410=EDGE_LOOP('',(#409));
#411=FACE_BOUND('',#410,.T.);
#412=CARTESIAN_POINT('',(-18.0,-46.0,0.0));
#413=VERTEX_POINT('',#412);
#414=CARTESIAN_POINT('',(-21.0,-46.0,0.0));
#415=DIRECTION('',(0.0,0.0,1.0));
#416=DIRECTION('',(1.0,0.0,0.0));
#417=AXIS2_PLACEMENT_3D('',#414,#415,#416);
#418=CIRCLE('',#417,3.0);
#419=EDGE_CURVE('',#413,#413,#418,.T.);
#420=ORIENTED_EDGE('',*,*,#419,.T.);
#421=EDGE_LOOP('',(#420));
#422=FACE_BOUND('',#421,.T.);
#423=ADVANCED_FACE('',(#378,#389,#400,#411,#422),#336,.F.);
#424=CARTESIAN_POINT('',(1.517883E-014,-66.715728752538112,-0.060000000000000));
#425=DIRECTION('',(0.0,0.0,-1.0));
#426=DIRECTION('',(-1.0,0.0,0.0));
#427=AXIS2_PLACEMENT_3D('',#424,#425,#426);
#428=CYLINDRICAL_SURFACE('',#427,30.0);
#429=ORIENTED_EDGE('',*,*,#275,.F.);
#430=ORIENTED_EDGE('',*,*,#195,.F.);
#431=ORIENTED_EDGE('',*,*,#359,.F.);
#432=ORIENTED_EDGE('',*,*,#235,.F.);
#433=EDGE_LOOP('',(#429,#430,#431,#432));
#434=FACE_OUTER_BOUND('',#433,.T.);
#435=ADVANCED_FACE('',(#434),#428,.T.);
#436=CARTESIAN_POINT('',(45.0,-50.000000000000071,1.260000000000000));
#437=DIRECTION('',(0.0,0.0,-1.0));
#438=DIRECTION('',(-1.0,0.0,0.0));
#439=AXIS2_PLACEMENT_3D('',#436,#437,#438);
#440=CYLINDRICAL_SURFACE('',#439,10.0);
#441=ORIENTED_EDGE('',*,*,#283,.F.);
#442=ORIENTED_EDGE('',*,*,#221,.F.);
#443=ORIENTED_EDGE('',*,*,#351,.F.);
#444=ORIENTED_EDGE('',*,*,#75,.F.);
#445=EDGE_LOOP('',(#441,#442,#443,#444));
#446=FACE_OUTER_BOUND('',#445,.T.);
#447=ADVANCED_FACE('',(#446),#440,.T.);
#448=CARTESIAN_POINT('',(-45.0,-50.0,-0.060000000000000));
#449=DIRECTION('',(0.0,0.0,-1.0));
#450=DIRECTION('',(-1.0,0.0,0.0));
#451=AXIS2_PLACEMENT_3D('',#448,#449,#450);
#452=CYLINDRICAL_SURFACE('',#451,10.0);
#453=ORIENTED_EDGE('',*,*,#267,.F.);
#454=ORIENTED_EDGE('',*,*,#155,.F.);
#455=ORIENTED_EDGE('',*,*,#367,.F.);
#456=ORIENTED_EDGE('',*,*,#181,.F.);
#457=EDGE_LOOP('',(#453,#454,#455,#456));
#458=FACE_OUTER_BOUND('',#457,.T.);
#459=ADVANCED_FACE('',(#458),#452,.T.);
#460=CARTESIAN_POINT('',(-45.0,-10.0,-0.060000000000000));
#461=DIRECTION('',(0.0,0.0,-1.0));
#462=DIRECTION('',(-1.0,0.0,0.0));
#463=AXIS2_PLACEMENT_3D('',#460,#461,#462);
#464=CYLINDRICAL_SURFACE('',#463,10.0);
#465=ORIENTED_EDGE('',*,*,#259,.F.);
#466=ORIENTED_EDGE('',*,*,#115,.F.);
#467=ORIENTED_EDGE('',*,*,#375,.F.);
#468=ORIENTED_EDGE('',*,*,#141,.F.);
#469=EDGE_LOOP('',(#465,#466,#467,#468));
#470=FACE_OUTER_BOUND('',#469,.T.);
#471=ADVANCED_FACE('',(#470),#464,.T.);
#472=CARTESIAN_POINT('',(45.0,-10.0,-0.060000000000000));
#473=DIRECTION('',(0.0,0.0,-1.0));
#474=DIRECTION('',(-1.0,0.0,0.0));
#475=AXIS2_PLACEMENT_3D('',#472,#473,#474);
#476=CYLINDRICAL_SURFACE('',#475,10.0);
#477=ORIENTED_EDGE('',*,*,#251,.F.);
#478=ORIENTED_EDGE('',*,*,#61,.F.);
#479=ORIENTED_EDGE('',*,*,#343,.F.);
#480=ORIENTED_EDGE('',*,*,#101,.F.);
#481=EDGE_LOOP('',(#477,#478,#479,#480));
#482=FACE_OUTER_BOUND('',#481,.T.);
#483=ADVANCED_FACE('',(#482),#476,.T.);
#484=CARTESIAN_POINT('',(-21.0,-46.0,-0.010000000000000));
#485=DIRECTION('',(0.0,0.0,1.0));
#486=DIRECTION('',(1.0,0.0,0.0));
#487=AXIS2_PLACEMENT_3D('',#484,#485,#486);
#488=CYLINDRICAL_SURFACE('',#487,3.0);
#489=ORIENTED_EDGE('',*,*,#327,.T.);
#490=EDGE_LOOP('',(#489));
#491=FACE_BOUND('',#490,.T.);
#492=ORIENTED_EDGE('',*,*,#419,.F.);
#493=EDGE_LOOP('',(#492));
#494=FACE_BOUND('',#493,.T.);
#495=ADVANCED_FACE('',(#491,#494),#488,.F.);
#496=CARTESIAN_POINT('',(21.0,-46.0,-0.010000000000000));
#497=DIRECTION('',(0.0,0.0,1.0));
#498=DIRECTION('',(1.0,0.0,0.0));
#499=AXIS2_PLACEMENT_3D('',#496,#497,#498);
#500=CYLINDRICAL_SURFACE('',#499,3.0);
#501=ORIENTED_EDGE('',*,*,#316,.T.);
#502=EDGE_LOOP('',(#501));
#503=FACE_BOUND('',#502,.T.);
#504=ORIENTED_EDGE('',*,*,#408,.F.);
#505=EDGE_LOOP('',(#504));
#506=FACE_BOUND('',#505,.T.);
#507=ADVANCED_FACE('',(#503,#506),#500,.F.);
#508=CARTESIAN_POINT('',(-41.0,-10.0,-0.010000000000000));
#509=DIRECTION('',(0.0,0.0,1.0));
#510=DIRECTION('',(1.0,0.0,0.0));
#511=AXIS2_PLACEMENT_3D('',#508,#509,#510);
#512=CYLINDRICAL_SURFACE('',#511,3.0);
#513=ORIENTED_EDGE('',*,*,#305,.T.);
#514=EDGE_LOOP('',(#513));
#515=FACE_BOUND('',#514,.T.);
#516=ORIENTED_EDGE('',*,*,#397,.F.);
#517=EDGE_LOOP('',(#516));
#518=FACE_BOUND('',#517,.T.);
#519=ADVANCED_FACE('',(#515,#518),#512,.F.);
#520=CARTESIAN_POINT('',(41.0,-10.0,-0.010000000000000));
#521=DIRECTION('',(0.0,0.0,1.0));
#522=DIRECTION('',(1.0,0.0,0.0));
#523=AXIS2_PLACEMENT_3D('',#520,#521,#522);
#524=CYLINDRICAL_SURFACE('',#523,3.0);
#525=ORIENTED_EDGE('',*,*,#294,.T.);
#526=EDGE_LOOP('',(#525));
#527=FACE_BOUND('',#526,.T.);
#528=ORIENTED_EDGE('',*,*,#386,.F.);
#529=EDGE_LOOP('',(#528));
#530=FACE_BOUND('',#529,.T.);
#531=ADVANCED_FACE('',(#527,#530),#524,.F.);
#532=CLOSED_SHELL('',(#79,#119,#159,#199,#239,#331,#423,#435,#447,#459,#471,#483,#495,#507,#519,#531));
#533=MANIFOLD_SOLID_BREP('',#532);
#534=COLOUR_RGB('',0.501960784313725,0.501960784313725,0.501960784313725);
#535=FILL_AREA_STYLE_COLOUR('',#534);
#536=FILL_AREA_STYLE('',(#535));
#537=SURFACE_STYLE_FILL_AREA(#536);
#538=SURFACE_SIDE_STYLE('',(#537));
#539=SURFACE_STYLE_USAGE(.BOTH.,#538);
#540=PRESENTATION_STYLE_ASSIGNMENT((#539));
#541=STYLED_ITEM('',(#540),#533);
#542=PRESENTATION_LAYER_ASSIGNMENT('support','',(#533));
#543=MECHANICAL_DESIGN_GEOMETRIC_PRESENTATION_REPRESENTATION('',(#541),#28);
ENDSEC;
END-ISO-10303-21;
