ISO-10303-21;
HEADER;
/****************************************************************
 * Generated by software with PDElib inside                    *
 * PDElib Version v6.3, created Wed 10/28/2009                  *
 * International Technegroup Inc. (www.iti-global.com)              *
 ****************************************************************/
FILE_DESCRIPTION((''),'2;1');
FILE_NAME('C:\\USERS\\DIDIER\\DESKTOP\\CALE BATTERIE.STP','2017-05-20T07:42:44',(''),(''),'STEP Write','Mastercam X5 ... CNC Software, Inc.','');
FILE_SCHEMA(('AUTOMOTIVE_DESIGN'));
ENDSEC;
DATA;
#10=(NAMED_UNIT(*)PLANE_ANGLE_UNIT()SI_UNIT($,.RADIAN.));
#11=DIMENSIONAL_EXPONENTS(0.0,0.0,0.0,0.0,0.0,0.0,0.0);
#12=PLANE_ANGLE_MEASURE_WITH_UNIT(PLANE_ANGLE_MEASURE(0.017453292500000),#10);
#16=(CONVERSION_BASED_UNIT('DEGREE',#12)NAMED_UNIT(#11)PLANE_ANGLE_UNIT());
#20=(NAMED_UNIT(*)SI_UNIT($,.STERADIAN.)SOLID_ANGLE_UNIT());
#24=(LENGTH_UNIT()NAMED_UNIT(*)SI_UNIT(.MILLI.,.METRE.));
#26=UNCERTAINTY_MEASURE_WITH_UNIT(LENGTH_MEASURE(0.001000000000000),#24,'DISTANCE_ACCURACY_VALUE','');
#28=(GEOMETRIC_REPRESENTATION_CONTEXT(3)GLOBAL_UNCERTAINTY_ASSIGNED_CONTEXT((#26))GLOBAL_UNIT_ASSIGNED_CONTEXT((#16,#20,#24))REPRESENTATION_CONTEXT('','3D'));
#29=APPLICATION_CONTEXT('automotive design');
#30=APPLICATION_PROTOCOL_DEFINITION('Draft International Standard','automotive_design',1998,#29);
#31=PRODUCT_CONTEXT('None',#29,'mechanical');
#32=PRODUCT('None','None','None',(#31));
#33=PRODUCT_RELATED_PRODUCT_CATEGORY('part','description',(#32));
#34=PRODUCT_DEFINITION_FORMATION('None','None',#32);
#35=PRODUCT_DEFINITION_CONTEXT('part definition',#29,'design');
#36=PRODUCT_DEFINITION('None','None',#34,#35);
#37=PRODUCT_DEFINITION_SHAPE('None','None',#36);
#38=ADVANCED_BREP_SHAPE_REPRESENTATION('',(#505),#28);
#39=SHAPE_DEFINITION_REPRESENTATION(#37,#38);
#40=CARTESIAN_POINT('',(-35.850000000000001,-24.999996829059299,-68.0));
#41=DIRECTION('',(0.0,1.0,-7.273662E-016));
#42=DIRECTION('',(0.0,7.273662E-016,1.0));
#43=AXIS2_PLACEMENT_3D('',#40,#41,#42);
#44=PLANE('',#43);
#45=CARTESIAN_POINT('',(-50.649999999999999,-24.999996829059199,56.500000000000000));
#46=VERTEX_POINT('',#45);
#47=CARTESIAN_POINT('',(-25.649999999999999,-24.999996829059299,56.500000000000000));
#48=VERTEX_POINT('',#47);
#49=CARTESIAN_POINT('',(-35.850000000000001,-24.999996829059199,56.500000000000000));
#50=DIRECTION('',(1.0,0.0,0.0));
#51=VECTOR('',#50,1.0);
#52=LINE('',#49,#51);
#53=EDGE_CURVE('',#46,#48,#52,.T.);
#54=ORIENTED_EDGE('',*,*,#53,.F.);
#55=CARTESIAN_POINT('',(-50.649999999999999,-24.999996829059299,-56.500000000000000));
#56=VERTEX_POINT('',#55);
#57=CARTESIAN_POINT('',(-50.649999999999999,-24.999996829059299,-68.0));
#58=DIRECTION('',(0.0,0.0,1.0));
#59=VECTOR('',#58,1.0);
#60=LINE('',#57,#59);
#61=EDGE_CURVE('',#56,#46,#60,.T.);
#62=ORIENTED_EDGE('',*,*,#61,.F.);
#63=CARTESIAN_POINT('',(-25.649999999999999,-24.999996829059299,-56.500000000000000));
#64=VERTEX_POINT('',#63);
#65=CARTESIAN_POINT('',(-35.850000000000001,-24.999996829059299,-56.500000000000000));
#66=DIRECTION('',(1.0,0.0,0.0));
#67=VECTOR('',#66,1.0);
#68=LINE('',#65,#67);
#69=EDGE_CURVE('',#56,#64,#68,.T.);
#70=ORIENTED_EDGE('',*,*,#69,.T.);
#71=CARTESIAN_POINT('',(-25.649999999999999,-24.999996829059199,68.0));
#72=DIRECTION('',(0.0,0.0,-1.0));
#73=VECTOR('',#72,1.0);
#74=LINE('',#71,#73);
#75=EDGE_CURVE('',#48,#64,#74,.T.);
#76=ORIENTED_EDGE('',*,*,#75,.F.);
#77=EDGE_LOOP('',(#54,#62,#70,#76));
#78=FACE_OUTER_BOUND('',#77,.T.);
#79=ADVANCED_FACE('',(#78),#44,.F.);
#80=CARTESIAN_POINT('',(-50.649999999999999,25.000003170940701,-68.0));
#81=DIRECTION('',(-1.0,0.0,-1.454732E-015));
#82=DIRECTION('',(-1.454732E-015,0.0,1.0));
#83=AXIS2_PLACEMENT_3D('',#80,#81,#82);
#84=PLANE('',#83);
#85=ORIENTED_EDGE('',*,*,#61,.T.);
#86=CARTESIAN_POINT('',(-50.649999999999999,-21.0,56.500000000000000));
#87=VERTEX_POINT('',#86);
#88=CARTESIAN_POINT('',(-50.649999999999999,25.000003170940751,56.500000000000000));
#89=DIRECTION('',(0.0,1.0,0.0));
#90=VECTOR('',#89,1.0);
#91=LINE('',#88,#90);
#92=EDGE_CURVE('',#46,#87,#91,.T.);
#93=ORIENTED_EDGE('',*,*,#92,.T.);
#94=CARTESIAN_POINT('',(-50.649999999999999,-16.0,61.500000000000000));
#95=VERTEX_POINT('',#94);
#96=CARTESIAN_POINT('',(-50.650000000000006,-21.0,61.500000000000000));
#97=DIRECTION('',(-1.0,0.0,-1.454732E-015));
#98=DIRECTION('',(-1.454732E-015,0.0,1.0));
#99=AXIS2_PLACEMENT_3D('',#96,#97,#98);
#100=CIRCLE('',#99,5.0);
#101=EDGE_CURVE('',#87,#95,#100,.F.);
#102=ORIENTED_EDGE('',*,*,#101,.T.);
#103=CARTESIAN_POINT('',(-50.649999999999999,-16.0,68.0));
#104=VERTEX_POINT('',#103);
#105=CARTESIAN_POINT('',(-50.649999999999999,-16.0,-68.0));
#106=DIRECTION('',(0.0,0.0,-1.0));
#107=VECTOR('',#106,1.0);
#108=LINE('',#105,#107);
#109=EDGE_CURVE('',#104,#95,#108,.T.);
#110=ORIENTED_EDGE('',*,*,#109,.F.);
#111=CARTESIAN_POINT('',(-50.649999999999999,25.000003170940801,68.0));
#112=VERTEX_POINT('',#111);
#113=CARTESIAN_POINT('',(-50.649999999999999,25.000003170940801,68.0));
#114=DIRECTION('',(0.0,-1.0,0.0));
#115=VECTOR('',#114,1.0);
#116=LINE('',#113,#115);
#117=EDGE_CURVE('',#112,#104,#116,.T.);
#118=ORIENTED_EDGE('',*,*,#117,.F.);
#119=CARTESIAN_POINT('',(-50.649999999999999,25.000003170940701,-68.0));
#120=VERTEX_POINT('',#119);
#121=CARTESIAN_POINT('',(-50.649999999999999,25.000003170940701,-68.0));
#122=DIRECTION('',(0.0,0.0,1.0));
#123=VECTOR('',#122,1.0);
#124=LINE('',#121,#123);
#125=EDGE_CURVE('',#120,#112,#124,.T.);
#126=ORIENTED_EDGE('',*,*,#125,.F.);
#127=CARTESIAN_POINT('',(-50.649999999999999,-16.0,-68.0));
#128=VERTEX_POINT('',#127);
#129=CARTESIAN_POINT('',(-50.649999999999999,25.000003170940701,-68.0));
#130=DIRECTION('',(0.0,-1.0,0.0));
#131=VECTOR('',#130,1.0);
#132=LINE('',#129,#131);
#133=EDGE_CURVE('',#120,#128,#132,.T.);
#134=ORIENTED_EDGE('',*,*,#133,.T.);
#135=CARTESIAN_POINT('',(-50.649999999999999,-16.0,-61.500000000000000));
#136=VERTEX_POINT('',#135);
#137=CARTESIAN_POINT('',(-50.649999999999999,-16.0,-68.0));
#138=DIRECTION('',(0.0,0.0,1.0));
#139=VECTOR('',#138,1.0);
#140=LINE('',#137,#139);
#141=EDGE_CURVE('',#128,#136,#140,.T.);
#142=ORIENTED_EDGE('',*,*,#141,.T.);
#143=CARTESIAN_POINT('',(-50.649999999999999,-21.0,-56.500000000000000));
#144=VERTEX_POINT('',#143);
#145=CARTESIAN_POINT('',(-50.649999999999999,-21.0,-61.500000000000000));
#146=DIRECTION('',(-1.0,0.0,-1.454732E-015));
#147=DIRECTION('',(-1.454732E-015,0.0,1.0));
#148=AXIS2_PLACEMENT_3D('',#145,#146,#147);
#149=CIRCLE('',#148,5.0);
#150=EDGE_CURVE('',#136,#144,#149,.F.);
#151=ORIENTED_EDGE('',*,*,#150,.T.);
#152=CARTESIAN_POINT('',(-50.649999999999999,25.000003170940701,-56.500000000000000));
#153=DIRECTION('',(0.0,1.0,0.0));
#154=VECTOR('',#153,1.0);
#155=LINE('',#152,#154);
#156=EDGE_CURVE('',#56,#144,#155,.T.);
#157=ORIENTED_EDGE('',*,*,#156,.F.);
#158=EDGE_LOOP('',(#85,#93,#102,#110,#118,#126,#134,#142,#151,#157));
#159=FACE_OUTER_BOUND('',#158,.T.);
#160=ADVANCED_FACE('',(#159),#84,.T.);
#161=CARTESIAN_POINT('',(-25.649999999999999,-24.999996829059199,68.0));
#162=DIRECTION('',(-1.0,0.0,-1.454732E-015));
#163=DIRECTION('',(-1.454732E-015,0.0,1.0));
#164=AXIS2_PLACEMENT_3D('',#161,#162,#163);
#165=PLANE('',#164);
#166=CARTESIAN_POINT('',(-25.649999999999999,-21.0,56.500000000000000));
#167=VERTEX_POINT('',#166);
#168=CARTESIAN_POINT('',(-25.649999999999999,-24.999996829059199,56.500000000000000));
#169=DIRECTION('',(0.0,1.0,0.0));
#170=VECTOR('',#169,1.0);
#171=LINE('',#168,#170);
#172=EDGE_CURVE('',#48,#167,#171,.T.);
#173=ORIENTED_EDGE('',*,*,#172,.F.);
#174=ORIENTED_EDGE('',*,*,#75,.T.);
#175=CARTESIAN_POINT('',(-25.649999999999999,-21.0,-56.500000000000000));
#176=VERTEX_POINT('',#175);
#177=CARTESIAN_POINT('',(-25.649999999999999,-24.999996829059199,-56.500000000000000));
#178=DIRECTION('',(0.0,1.0,0.0));
#179=VECTOR('',#178,1.0);
#180=LINE('',#177,#179);
#181=EDGE_CURVE('',#64,#176,#180,.T.);
#182=ORIENTED_EDGE('',*,*,#181,.T.);
#183=CARTESIAN_POINT('',(-25.649999999999999,-19.958134151270599,-56.609753017152300));
#184=VERTEX_POINT('',#183);
#185=CARTESIAN_POINT('',(-25.650000000000002,-21.0,-61.499999999999993));
#186=DIRECTION('',(-1.0,0.0,-1.454732E-015));
#187=DIRECTION('',(-1.454732E-015,0.0,1.0));
#188=AXIS2_PLACEMENT_3D('',#185,#186,#187);
#189=CIRCLE('',#188,5.0);
#190=EDGE_CURVE('',#176,#184,#189,.T.);
#191=ORIENTED_EDGE('',*,*,#190,.T.);
#192=CARTESIAN_POINT('',(-25.649999999999999,-19.958134151270549,56.609753017152300));
#193=VERTEX_POINT('',#192);
#194=CARTESIAN_POINT('',(-25.649999999999999,-19.958134151270500,68.0));
#195=DIRECTION('',(0.0,0.0,-1.0));
#196=VECTOR('',#195,1.0);
#197=LINE('',#194,#196);
#198=EDGE_CURVE('',#193,#184,#197,.T.);
#199=ORIENTED_EDGE('',*,*,#198,.F.);
#200=CARTESIAN_POINT('',(-25.649999999999999,-21.0,61.500000000000007));
#201=DIRECTION('',(-1.0,0.0,-1.454732E-015));
#202=DIRECTION('',(-1.454732E-015,0.0,1.0));
#203=AXIS2_PLACEMENT_3D('',#200,#201,#202);
#204=CIRCLE('',#203,5.0);
#205=EDGE_CURVE('',#193,#167,#204,.T.);
#206=ORIENTED_EDGE('',*,*,#205,.T.);
#207=EDGE_LOOP('',(#173,#174,#182,#191,#199,#206));
#208=FACE_OUTER_BOUND('',#207,.T.);
#209=ADVANCED_FACE('',(#208),#165,.F.);
#210=CARTESIAN_POINT('',(0.000004963503454,0.000003170940774,68.0));
#211=DIRECTION('',(1.454732E-015,-7.273662E-016,-1.0));
#212=DIRECTION('',(-1.0,0.0,-1.454732E-015));
#213=AXIS2_PLACEMENT_3D('',#210,#211,#212);
#214=CYLINDRICAL_SURFACE('',#213,32.500000000000000);
#215=CARTESIAN_POINT('',(-28.288683562652800,-16.0,68.0));
#216=VERTEX_POINT('',#215);
#217=CARTESIAN_POINT('',(-28.288683562652800,-16.0,61.500000000000000));
#218=VERTEX_POINT('',#217);
#219=CARTESIAN_POINT('',(-28.288683562652800,-16.0,68.0));
#220=DIRECTION('',(0.0,0.0,-1.0));
#221=VECTOR('',#220,1.0);
#222=LINE('',#219,#221);
#223=EDGE_CURVE('',#216,#218,#222,.T.);
#224=ORIENTED_EDGE('',*,*,#223,.T.);
#225=CARTESIAN_POINT('',(-28.288683562652800,-16.0,61.500000000000000));
#226=CARTESIAN_POINT('',(-28.288683562652800,-16.0,61.187428813792863));
#227=CARTESIAN_POINT('',(-28.272309187993070,-16.029047614213209,60.880681439627928));
#228=CARTESIAN_POINT('',(-28.224101021990450,-16.113683417115229,60.428836601133860));
#229=CARTESIAN_POINT('',(-28.204053859907400,-16.148786819388551,60.279611391233722));
#230=CARTESIAN_POINT('',(-28.167811155448359,-16.211866651984138,60.057889233916271));
#231=CARTESIAN_POINT('',(-28.154662141188030,-16.234697592046341,59.984166380526283));
#232=CARTESIAN_POINT('',(-28.126563829002770,-16.283329307398741,59.839013492308830));
#233=CARTESIAN_POINT('',(-28.111594155266690,-16.309165807710411,59.767427374307168));
#234=CARTESIAN_POINT('',(-28.032204429423579,-16.445701470979500,59.414311127178003));
#235=CARTESIAN_POINT('',(-27.954288897949230,-16.578290772914482,59.147106344153137));
#236=CARTESIAN_POINT('',(-27.815332876073882,-16.809668887594650,58.768145240031572));
#237=CARTESIAN_POINT('',(-27.765076763122210,-16.892615577775629,58.645065477998443));
#238=CARTESIAN_POINT('',(-27.658871194097269,-17.065954205491209,58.410575845961667));
#239=CARTESIAN_POINT('',(-27.602773722798300,-17.156598850284659,58.298658686999381));
#240=CARTESIAN_POINT('',(-27.484635253091628,-17.345224884175590,58.084895689337102));
#241=CARTESIAN_POINT('',(-27.422593520070901,-17.443207915575890,57.983051763603733));
#242=CARTESIAN_POINT('',(-27.292491655947369,-17.646077098551839,57.789084210002272));
#243=CARTESIAN_POINT('',(-27.224257612254569,-17.751227675447371,57.696751544339250));
#244=CARTESIAN_POINT('',(-27.011415834309229,-18.074836355478730,57.435482884544577));
#245=CARTESIAN_POINT('',(-26.860726102156569,-18.298337886734000,57.284451966667319));
#246=CARTESIAN_POINT('',(-26.621655489409150,-18.642870385488340,57.088492793920643));
#247=CARTESIAN_POINT('',(-26.539785106756341,-18.759274423615960,57.028301648798319));
#248=CARTESIAN_POINT('',(-26.371632510537090,-18.994935359648860,56.917789502781993));
#249=CARTESIAN_POINT('',(-26.285122642326382,-19.114499228917602,56.867363844446679));
#250=CARTESIAN_POINT('',(-26.020967315269740,-19.474275831454001,56.731573698641910));
#251=CARTESIAN_POINT('',(-25.838626878900609,-19.715712711737329,56.661400841839928));
#252=CARTESIAN_POINT('',(-25.649999999999999,-19.958134151270500,56.609753017152300));
#253=B_SPLINE_CURVE_WITH_KNOTS('',3,(#225,#226,#227,#228,#229,#230,#231,#232,#233,#234,#235,#236,#237,#238,#239,#240,#241,#242,#243,#244,#245,#246,#247,#248,#249,#250,#251,#252),.UNSPECIFIED.,.F.,.U.,(4,2,2,2,2,2,2,2,2,2,2,2,2,4),(0.0,0.124999999999992,0.187499999999987,0.218749999999986,0.249999999999984,0.374999999999983,0.437499999999984,0.499999999999985,0.562499999999985,0.624999999999986,0.749999999999990,0.812499999999993,0.874999999999997,1.0),.UNSPECIFIED.);
#254=EDGE_CURVE('',#218,#193,#253,.T.);
#255=ORIENTED_EDGE('',*,*,#254,.T.);
#256=ORIENTED_EDGE('',*,*,#198,.T.);
#257=CARTESIAN_POINT('',(-28.288683562652601,-16.0,-61.500000000000000));
#258=VERTEX_POINT('',#257);
#259=CARTESIAN_POINT('',(-25.649999999999999,-19.958134151270549,-56.609753017152300));
#260=CARTESIAN_POINT('',(-25.838931444701139,-19.715321286717661,-56.661484234838667));
#261=CARTESIAN_POINT('',(-26.020210362137838,-19.475229517305340,-56.731449452269281));
#262=CARTESIAN_POINT('',(-26.367992390685298,-19.001707525298190,-56.909703001252531));
#263=CARTESIAN_POINT('',(-26.534498440050271,-18.768266764942702,-57.017963315158568));
#264=CARTESIAN_POINT('',(-26.773204390953978,-18.424565146315299,-57.212290024546093));
#265=CARTESIAN_POINT('',(-26.850926824606610,-18.311081155315350,-57.282409404103532));
#266=CARTESIAN_POINT('',(-27.002622941655481,-18.086633700200700,-57.434209573639073));
#267=CARTESIAN_POINT('',(-27.076892829389159,-17.975210461745100,-57.516304410085318));
#268=CARTESIAN_POINT('',(-27.290022667813140,-17.651376061056649,-57.776634998968888));
#269=CARTESIAN_POINT('',(-27.420281886638509,-17.447858367397320,-57.969577198559293));
#270=CARTESIAN_POINT('',(-27.598399503515768,-17.163637808643941,-58.290214341971719));
#271=CARTESIAN_POINT('',(-27.654881819000860,-17.072422980191710,-58.402320225809973));
#272=CARTESIAN_POINT('',(-27.761974524652519,-16.897718348193450,-58.637699093525733));
#273=CARTESIAN_POINT('',(-27.812475826492420,-16.814396996391711,-58.760906897728638));
#274=CARTESIAN_POINT('',(-27.951870894177240,-16.582372978488060,-59.139452265742293));
#275=CARTESIAN_POINT('',(-28.030010226088049,-16.449444196197071,-59.406228272792561));
#276=CARTESIAN_POINT('',(-28.125612275411871,-16.285071974211782,-59.828978380172408));
#277=CARTESIAN_POINT('',(-28.153854570763091,-16.236148170930480,-59.973680338667087));
#278=CARTESIAN_POINT('',(-28.202847428249001,-16.150895690744338,-60.271129235493547));
#279=CARTESIAN_POINT('',(-28.223275046851089,-16.115131010033270,-60.422078635879942));
#280=CARTESIAN_POINT('',(-28.272169267291510,-16.029298158758522,-60.877455808043493));
#281=CARTESIAN_POINT('',(-28.288683562652650,-16.0,-61.186091880973692));
#282=CARTESIAN_POINT('',(-28.288683562652650,-16.0,-61.500000000000000));
#283=B_SPLINE_CURVE_WITH_KNOTS('',3,(#259,#260,#261,#262,#263,#264,#265,#266,#267,#268,#269,#270,#271,#272,#273,#274,#275,#276,#277,#278,#279,#280,#281,#282),.UNSPECIFIED.,.F.,.U.,(4,2,2,2,2,2,2,2,2,2,2,4),(0.0,0.125000000000003,0.250000000000006,0.312500000000006,0.375000000000006,0.500000000000005,0.562500000000005,0.625000000000005,0.750000000000003,0.812500000000003,0.875000000000003,1.0),.UNSPECIFIED.);
#284=EDGE_CURVE('',#184,#258,#283,.T.);
#285=ORIENTED_EDGE('',*,*,#284,.T.);
#286=CARTESIAN_POINT('',(-28.288683562652601,-16.0,-68.0));
#287=VERTEX_POINT('',#286);
#288=CARTESIAN_POINT('',(-28.288683562652800,-16.0,68.0));
#289=DIRECTION('',(0.0,0.0,-1.0));
#290=VECTOR('',#289,1.0);
#291=LINE('',#288,#290);
#292=EDGE_CURVE('',#287,#258,#291,.F.);
#293=ORIENTED_EDGE('',*,*,#292,.F.);
#294=CARTESIAN_POINT('',(-25.649999999999999,19.958140493151848,-68.0));
#295=VERTEX_POINT('',#294);
#296=CARTESIAN_POINT('',(0.000004963503652,0.000003170940675,-68.0));
#297=DIRECTION('',(0.0,0.0,-1.0));
#298=DIRECTION('',(1.0,0.0,0.0));
#299=AXIS2_PLACEMENT_3D('',#296,#297,#298);
#300=CIRCLE('',#299,32.500000000000000);
#301=EDGE_CURVE('',#287,#295,#300,.T.);
#302=ORIENTED_EDGE('',*,*,#301,.T.);
#303=CARTESIAN_POINT('',(-25.649999999999999,19.958140493151951,68.0));
#304=VERTEX_POINT('',#303);
#305=CARTESIAN_POINT('',(-25.649999999999999,19.958140493151951,68.0));
#306=DIRECTION('',(0.0,0.0,-1.0));
#307=VECTOR('',#306,1.0);
#308=LINE('',#305,#307);
#309=EDGE_CURVE('',#304,#295,#308,.T.);
#310=ORIENTED_EDGE('',*,*,#309,.F.);
#311=CARTESIAN_POINT('',(0.000004963503454,0.000003170940774,68.0));
#312=DIRECTION('',(0.0,0.0,-1.0));
#313=DIRECTION('',(1.0,0.0,0.0));
#314=AXIS2_PLACEMENT_3D('',#311,#312,#313);
#315=CIRCLE('',#314,32.500000000000000);
#316=EDGE_CURVE('',#216,#304,#315,.T.);
#317=ORIENTED_EDGE('',*,*,#316,.F.);
#318=EDGE_LOOP('',(#224,#255,#256,#285,#293,#302,#310,#317));
#319=FACE_OUTER_BOUND('',#318,.T.);
#320=ADVANCED_FACE('',(#319),#214,.F.);
#321=CARTESIAN_POINT('',(-35.850000000000001,-24.999996829059299,-68.0));
#322=DIRECTION('',(0.0,0.0,-1.0));
#323=DIRECTION('',(-1.0,0.0,0.0));
#324=AXIS2_PLACEMENT_3D('',#321,#322,#323);
#325=PLANE('',#324);
#326=ORIENTED_EDGE('',*,*,#301,.F.);
#327=CARTESIAN_POINT('',(-35.850000000000001,-16.0,-68.0));
#328=DIRECTION('',(-1.0,0.0,0.0));
#329=VECTOR('',#328,1.0);
#330=LINE('',#327,#329);
#331=EDGE_CURVE('',#287,#128,#330,.T.);
#332=ORIENTED_EDGE('',*,*,#331,.T.);
#333=ORIENTED_EDGE('',*,*,#133,.F.);
#334=CARTESIAN_POINT('',(-25.649999999999999,25.000003170940701,-68.0));
#335=VERTEX_POINT('',#334);
#336=CARTESIAN_POINT('',(-35.850000000000001,25.000003170940701,-68.0));
#337=DIRECTION('',(-1.0,0.0,0.0));
#338=VECTOR('',#337,1.0);
#339=LINE('',#336,#338);
#340=EDGE_CURVE('',#335,#120,#339,.T.);
#341=ORIENTED_EDGE('',*,*,#340,.F.);
#342=CARTESIAN_POINT('',(-25.649999999999999,19.958140493151902,-68.0));
#343=DIRECTION('',(0.0,1.0,0.0));
#344=VECTOR('',#343,1.0);
#345=LINE('',#342,#344);
#346=EDGE_CURVE('',#295,#335,#345,.T.);
#347=ORIENTED_EDGE('',*,*,#346,.F.);
#348=EDGE_LOOP('',(#326,#332,#333,#341,#347));
#349=FACE_OUTER_BOUND('',#348,.T.);
#350=ADVANCED_FACE('',(#349),#325,.T.);
#351=CARTESIAN_POINT('',(-35.850000000000001,25.000003170940701,-68.0));
#352=DIRECTION('',(0.0,1.0,-7.273662E-016));
#353=DIRECTION('',(0.0,7.273662E-016,1.0));
#354=AXIS2_PLACEMENT_3D('',#351,#352,#353);
#355=PLANE('',#354);
#356=ORIENTED_EDGE('',*,*,#125,.T.);
#357=CARTESIAN_POINT('',(-25.649999999999999,25.000003170940801,68.0));
#358=VERTEX_POINT('',#357);
#359=CARTESIAN_POINT('',(-35.850000000000001,25.000003170940801,68.0));
#360=DIRECTION('',(-1.0,0.0,0.0));
#361=VECTOR('',#360,1.0);
#362=LINE('',#359,#361);
#363=EDGE_CURVE('',#358,#112,#362,.T.);
#364=ORIENTED_EDGE('',*,*,#363,.F.);
#365=CARTESIAN_POINT('',(-25.649999999999999,25.000003170940801,68.0));
#366=DIRECTION('',(0.0,0.0,-1.0));
#367=VECTOR('',#366,1.0);
#368=LINE('',#365,#367);
#369=EDGE_CURVE('',#358,#335,#368,.T.);
#370=ORIENTED_EDGE('',*,*,#369,.T.);
#371=ORIENTED_EDGE('',*,*,#340,.T.);
#372=EDGE_LOOP('',(#356,#364,#370,#371));
#373=FACE_OUTER_BOUND('',#372,.T.);
#374=ADVANCED_FACE('',(#373),#355,.T.);
#375=CARTESIAN_POINT('',(-35.850000000000001,-24.999996829059199,68.0));
#376=DIRECTION('',(0.0,0.0,-1.0));
#377=DIRECTION('',(-1.0,0.0,0.0));
#378=AXIS2_PLACEMENT_3D('',#375,#376,#377);
#379=PLANE('',#378);
#380=ORIENTED_EDGE('',*,*,#117,.T.);
#381=CARTESIAN_POINT('',(-35.850000000000001,-16.0,68.0));
#382=DIRECTION('',(1.0,0.0,0.0));
#383=VECTOR('',#382,1.0);
#384=LINE('',#381,#383);
#385=EDGE_CURVE('',#104,#216,#384,.T.);
#386=ORIENTED_EDGE('',*,*,#385,.T.);
#387=ORIENTED_EDGE('',*,*,#316,.T.);
#388=CARTESIAN_POINT('',(-25.649999999999999,19.958140493152001,68.0));
#389=DIRECTION('',(0.0,1.0,0.0));
#390=VECTOR('',#389,1.0);
#391=LINE('',#388,#390);
#392=EDGE_CURVE('',#304,#358,#391,.T.);
#393=ORIENTED_EDGE('',*,*,#392,.T.);
#394=ORIENTED_EDGE('',*,*,#363,.T.);
#395=EDGE_LOOP('',(#380,#386,#387,#393,#394));
#396=FACE_OUTER_BOUND('',#395,.T.);
#397=ADVANCED_FACE('',(#396),#379,.F.);
#398=CARTESIAN_POINT('',(-25.649999999999999,19.958140493152001,68.0));
#399=DIRECTION('',(-1.0,0.0,-1.454732E-015));
#400=DIRECTION('',(-1.454732E-015,0.0,1.0));
#401=AXIS2_PLACEMENT_3D('',#398,#399,#400);
#402=PLANE('',#401);
#403=ORIENTED_EDGE('',*,*,#309,.T.);
#404=ORIENTED_EDGE('',*,*,#346,.T.);
#405=ORIENTED_EDGE('',*,*,#369,.F.);
#406=ORIENTED_EDGE('',*,*,#392,.F.);
#407=EDGE_LOOP('',(#403,#404,#405,#406));
#408=FACE_OUTER_BOUND('',#407,.T.);
#409=ADVANCED_FACE('',(#408),#402,.F.);
#410=CARTESIAN_POINT('',(-25.640000000000001,-44.0,-56.500000000000000));
#411=DIRECTION('',(-7.273662E-016,-2.537653E-016,1.0));
#412=DIRECTION('',(1.0,0.0,7.273662E-016));
#413=AXIS2_PLACEMENT_3D('',#410,#411,#412);
#414=PLANE('',#413);
#415=ORIENTED_EDGE('',*,*,#156,.T.);
#416=CARTESIAN_POINT('',(-25.640000000000001,-21.0,-56.500000000000000));
#417=DIRECTION('',(-1.0,0.0,0.0));
#418=VECTOR('',#417,1.0);
#419=LINE('',#416,#418);
#420=EDGE_CURVE('',#144,#176,#419,.F.);
#421=ORIENTED_EDGE('',*,*,#420,.T.);
#422=ORIENTED_EDGE('',*,*,#181,.F.);
#423=ORIENTED_EDGE('',*,*,#69,.F.);
#424=EDGE_LOOP('',(#415,#421,#422,#423));
#425=FACE_OUTER_BOUND('',#424,.T.);
#426=ADVANCED_FACE('',(#425),#414,.F.);
#427=CARTESIAN_POINT('',(-25.640000000000001,-16.0,-87.500000000000000));
#428=DIRECTION('',(0.0,-1.0,0.0));
#429=DIRECTION('',(0.0,0.0,-1.0));
#430=AXIS2_PLACEMENT_3D('',#427,#428,#429);
#431=PLANE('',#430);
#432=ORIENTED_EDGE('',*,*,#292,.T.);
#433=CARTESIAN_POINT('',(-25.640000000000001,-16.0,-61.500000000000000));
#434=DIRECTION('',(-1.0,0.0,0.0));
#435=VECTOR('',#434,1.0);
#436=LINE('',#433,#435);
#437=EDGE_CURVE('',#258,#136,#436,.T.);
#438=ORIENTED_EDGE('',*,*,#437,.T.);
#439=ORIENTED_EDGE('',*,*,#141,.F.);
#440=ORIENTED_EDGE('',*,*,#331,.F.);
#441=EDGE_LOOP('',(#432,#438,#439,#440));
#442=FACE_OUTER_BOUND('',#441,.T.);
#443=ADVANCED_FACE('',(#442),#431,.T.);
#444=CARTESIAN_POINT('',(-25.640000000000001,-44.0,56.500000000000000));
#445=DIRECTION('',(-7.273662E-016,2.537653E-016,1.0));
#446=DIRECTION('',(1.0,0.0,7.273662E-016));
#447=AXIS2_PLACEMENT_3D('',#444,#445,#446);
#448=PLANE('',#447);
#449=ORIENTED_EDGE('',*,*,#172,.T.);
#450=CARTESIAN_POINT('',(-25.640000000000001,-21.0,56.500000000000000));
#451=DIRECTION('',(-1.0,0.0,0.0));
#452=VECTOR('',#451,1.0);
#453=LINE('',#450,#452);
#454=EDGE_CURVE('',#167,#87,#453,.T.);
#455=ORIENTED_EDGE('',*,*,#454,.T.);
#456=ORIENTED_EDGE('',*,*,#92,.F.);
#457=ORIENTED_EDGE('',*,*,#53,.T.);
#458=EDGE_LOOP('',(#449,#455,#456,#457));
#459=FACE_OUTER_BOUND('',#458,.T.);
#460=ADVANCED_FACE('',(#459),#448,.T.);
#461=CARTESIAN_POINT('',(-25.640000000000001,-16.0,87.500000000000000));
#462=DIRECTION('',(0.0,1.0,0.0));
#463=DIRECTION('',(0.0,0.0,1.0));
#464=AXIS2_PLACEMENT_3D('',#461,#462,#463);
#465=PLANE('',#464);
#466=ORIENTED_EDGE('',*,*,#109,.T.);
#467=CARTESIAN_POINT('',(-25.640000000000001,-16.0,61.500000000000000));
#468=DIRECTION('',(-1.0,0.0,0.0));
#469=VECTOR('',#468,1.0);
#470=LINE('',#467,#469);
#471=EDGE_CURVE('',#95,#218,#470,.F.);
#472=ORIENTED_EDGE('',*,*,#471,.T.);
#473=ORIENTED_EDGE('',*,*,#223,.F.);
#474=ORIENTED_EDGE('',*,*,#385,.F.);
#475=EDGE_LOOP('',(#466,#472,#473,#474));
#476=FACE_OUTER_BOUND('',#475,.T.);
#477=ADVANCED_FACE('',(#476),#465,.F.);
#478=CARTESIAN_POINT('',(-25.640000000000001,-21.0,61.500000000000000));
#479=DIRECTION('',(-1.0,0.0,-7.273662E-016));
#480=DIRECTION('',(-7.273662E-016,0.0,1.0));
#481=AXIS2_PLACEMENT_3D('',#478,#479,#480);
#482=CYLINDRICAL_SURFACE('',#481,5.0);
#483=ORIENTED_EDGE('',*,*,#254,.F.);
#484=ORIENTED_EDGE('',*,*,#471,.F.);
#485=ORIENTED_EDGE('',*,*,#101,.F.);
#486=ORIENTED_EDGE('',*,*,#454,.F.);
#487=ORIENTED_EDGE('',*,*,#205,.F.);
#488=EDGE_LOOP('',(#483,#484,#485,#486,#487));
#489=FACE_OUTER_BOUND('',#488,.T.);
#490=ADVANCED_FACE('',(#489),#482,.F.);
#491=CARTESIAN_POINT('',(-25.640000000000001,-21.0,-61.500000000000000));
#492=DIRECTION('',(-1.0,0.0,-7.273662E-016));
#493=DIRECTION('',(-7.273662E-016,0.0,1.0));
#494=AXIS2_PLACEMENT_3D('',#491,#492,#493);
#495=CYLINDRICAL_SURFACE('',#494,5.0);
#496=ORIENTED_EDGE('',*,*,#190,.F.);
#497=ORIENTED_EDGE('',*,*,#420,.F.);
#498=ORIENTED_EDGE('',*,*,#150,.F.);
#499=ORIENTED_EDGE('',*,*,#437,.F.);
#500=ORIENTED_EDGE('',*,*,#284,.F.);
#501=EDGE_LOOP('',(#496,#497,#498,#499,#500));
#502=FACE_OUTER_BOUND('',#501,.T.);
#503=ADVANCED_FACE('',(#502),#495,.F.);
#504=CLOSED_SHELL('',(#79,#160,#209,#320,#350,#374,#397,#409,#426,#443,#460,#477,#490,#503));
#505=MANIFOLD_SOLID_BREP('',#504);
#506=COLOUR_RGB('',0.0,1.0,0.0);
#507=FILL_AREA_STYLE_COLOUR('',#506);
#508=FILL_AREA_STYLE('',(#507));
#509=SURFACE_STYLE_FILL_AREA(#508);
#510=SURFACE_SIDE_STYLE('',(#509));
#511=SURFACE_STYLE_USAGE(.BOTH.,#510);
#512=PRESENTATION_STYLE_ASSIGNMENT((#511));
#513=STYLED_ITEM('',(#512),#505);
#514=MECHANICAL_DESIGN_GEOMETRIC_PRESENTATION_REPRESENTATION('',(#513),#28);
ENDSEC;
END-ISO-10303-21;
