ISO-10303-21;
HEADER;
FILE_DESCRIPTION(('CATIA V5 STEP Exchange'),'2;1');

FILE_NAME('C:\\Users\\Thorez\\Desktop\\4A_projet\\der_de_der montage\\mise_en_plan\\Support_palier_20.stp','2017-02-26T19:24:41+00:00',('none'),('none'),'CATIA Version 5 Release 20 GA (IN-10)','CATIA V5 STEP AP203','none');

FILE_SCHEMA(('CONFIG_CONTROL_DESIGN'));

ENDSEC;
/* file written by CATIA V5R20 */
DATA;
#5=PRODUCT('Support_palier_20','','',(#2)) ;
#1=APPLICATION_CONTEXT('configuration controlled 3D design of mechanical parts and assemblies') ;
#14=PRODUCT_DEFINITION('',' ',#6,#3) ;
#16=SECURITY_CLASSIFICATION(' ',' ',#15) ;
#15=SECURITY_CLASSIFICATION_LEVEL('unclassified') ;
#47=CARTESIAN_POINT(' ',(0.,0.,0.)) ;
#52=CARTESIAN_POINT('Axis2P3D Location',(0.,-80.,20.)) ;
#57=CARTESIAN_POINT('Line Origine',(12.5,-80.,20.)) ;
#61=CARTESIAN_POINT('Vertex',(0.,-80.,20.)) ;
#63=CARTESIAN_POINT('Vertex',(25.,-80.,20.)) ;
#66=CARTESIAN_POINT('Line Origine',(0.,-80.,3.90798504668E-014)) ;
#70=CARTESIAN_POINT('Vertex',(0.,-80.,-20.)) ;
#73=CARTESIAN_POINT('Line Origine',(12.5,-80.,-20.)) ;
#77=CARTESIAN_POINT('Vertex',(25.,-80.,-20.)) ;
#80=CARTESIAN_POINT('Line Origine',(25.,-80.,3.90798504668E-014)) ;
#92=CARTESIAN_POINT('Axis2P3D Location',(0.,80.,-20.)) ;
#97=CARTESIAN_POINT('Line Origine',(0.,0.,-20.)) ;
#101=CARTESIAN_POINT('Vertex',(0.,80.,-20.)) ;
#104=CARTESIAN_POINT('Line Origine',(12.5,80.,-20.)) ;
#108=CARTESIAN_POINT('Vertex',(25.,80.,-20.)) ;
#111=CARTESIAN_POINT('Line Origine',(25.,0.,-20.)) ;
#123=CARTESIAN_POINT('Axis2P3D Location',(0.,80.,-20.)) ;
#128=CARTESIAN_POINT('Line Origine',(0.,80.,0.)) ;
#132=CARTESIAN_POINT('Vertex',(0.,80.,20.)) ;
#135=CARTESIAN_POINT('Line Origine',(12.5,80.,20.)) ;
#139=CARTESIAN_POINT('Vertex',(25.,80.,20.)) ;
#142=CARTESIAN_POINT('Line Origine',(25.,80.,0.)) ;
#154=CARTESIAN_POINT('Axis2P3D Location',(0.,-80.,20.)) ;
#159=CARTESIAN_POINT('Line Origine',(0.,0.,20.)) ;
#164=CARTESIAN_POINT('Line Origine',(25.,0.,20.)) ;
#176=CARTESIAN_POINT('Axis2P3D Location',(25.,0.,0.)) ;
#187=CARTESIAN_POINT('Axis2P3D Location',(25.,47.5,-2.5)) ;
#191=CARTESIAN_POINT('Vertex',(25.,41.,-2.5)) ;
#193=CARTESIAN_POINT('Vertex',(25.,54.,-2.5)) ;
#196=CARTESIAN_POINT('Line Origine',(25.,41.,-1.91846538655E-013)) ;
#200=CARTESIAN_POINT('Vertex',(25.,41.,2.5)) ;
#203=CARTESIAN_POINT('Axis2P3D Location',(25.,47.5,2.5)) ;
#207=CARTESIAN_POINT('Vertex',(25.,54.,2.5)) ;
#210=CARTESIAN_POINT('Line Origine',(25.,54.,1.02140518266E-014)) ;
#221=CARTESIAN_POINT('Axis2P3D Location',(25.,-47.5,2.5)) ;
#225=CARTESIAN_POINT('Vertex',(25.,-41.,2.5)) ;
#227=CARTESIAN_POINT('Vertex',(25.,-54.,2.5)) ;
#230=CARTESIAN_POINT('Line Origine',(25.,-41.,-2.85105272724E-013)) ;
#234=CARTESIAN_POINT('Vertex',(25.,-41.,-2.5)) ;
#237=CARTESIAN_POINT('Axis2P3D Location',(25.,-47.5,-2.5)) ;
#241=CARTESIAN_POINT('Vertex',(25.,-54.,-2.5)) ;
#244=CARTESIAN_POINT('Line Origine',(25.,-54.,1.06581410364E-014)) ;
#256=CARTESIAN_POINT('Axis2P3D Location',(0.,0.,0.)) ;
#267=CARTESIAN_POINT('Line Origine',(0.,54.,1.02140518266E-014)) ;
#271=CARTESIAN_POINT('Vertex',(0.,54.,-2.5)) ;
#273=CARTESIAN_POINT('Vertex',(0.,54.,2.5)) ;
#276=CARTESIAN_POINT('Axis2P3D Location',(0.,47.5,2.5)) ;
#280=CARTESIAN_POINT('Vertex',(0.,41.,2.5)) ;
#283=CARTESIAN_POINT('Line Origine',(0.,41.,-1.91846538655E-013)) ;
#287=CARTESIAN_POINT('Vertex',(0.,41.,-2.5)) ;
#290=CARTESIAN_POINT('Axis2P3D Location',(0.,47.5,-2.5)) ;
#301=CARTESIAN_POINT('Line Origine',(0.,-54.,1.06581410364E-014)) ;
#305=CARTESIAN_POINT('Vertex',(0.,-54.,2.5)) ;
#307=CARTESIAN_POINT('Vertex',(0.,-54.,-2.5)) ;
#310=CARTESIAN_POINT('Axis2P3D Location',(0.,-47.5,-2.5)) ;
#314=CARTESIAN_POINT('Vertex',(0.,-41.,-2.5)) ;
#317=CARTESIAN_POINT('Line Origine',(0.,-41.,-2.85105272724E-013)) ;
#321=CARTESIAN_POINT('Vertex',(0.,-41.,2.5)) ;
#324=CARTESIAN_POINT('Axis2P3D Location',(0.,-47.5,2.5)) ;
#336=CARTESIAN_POINT('Axis2P3D Location',(12.5,-47.5,-2.5)) ;
#341=CARTESIAN_POINT('Line Origine',(12.5,-54.,-2.5)) ;
#346=CARTESIAN_POINT('Line Origine',(12.5,-41.,-2.5)) ;
#358=CARTESIAN_POINT('Axis2P3D Location',(25.,-54.,-2.5)) ;
#363=CARTESIAN_POINT('Line Origine',(12.5,-54.,2.5)) ;
#375=CARTESIAN_POINT('Axis2P3D Location',(25.,-41.,2.5)) ;
#380=CARTESIAN_POINT('Line Origine',(12.5,-41.,2.5)) ;
#392=CARTESIAN_POINT('Axis2P3D Location',(12.5,-47.5,2.5)) ;
#404=CARTESIAN_POINT('Axis2P3D Location',(12.5,47.5,2.5)) ;
#409=CARTESIAN_POINT('Line Origine',(12.5,54.,2.5)) ;
#414=CARTESIAN_POINT('Line Origine',(12.5,41.,2.5)) ;
#426=CARTESIAN_POINT('Axis2P3D Location',(25.,54.,-2.5)) ;
#431=CARTESIAN_POINT('Line Origine',(12.5,54.,-2.5)) ;
#443=CARTESIAN_POINT('Axis2P3D Location',(25.,41.,2.5)) ;
#448=CARTESIAN_POINT('Line Origine',(12.5,41.,-2.5)) ;
#460=CARTESIAN_POINT('Axis2P3D Location',(12.5,47.5,-2.5)) ;
#53=DIRECTION('Axis2P3D Direction',(0.,-1.,0.)) ;
#54=DIRECTION('Axis2P3D XDirection',(0.,0.,-1.)) ;
#58=DIRECTION('Vector Direction',(1.,0.,0.)) ;
#67=DIRECTION('Vector Direction',(0.,0.,-1.)) ;
#74=DIRECTION('Vector Direction',(1.,0.,0.)) ;
#81=DIRECTION('Vector Direction',(0.,0.,-1.)) ;
#93=DIRECTION('Axis2P3D Direction',(-0.,0.,1.)) ;
#94=DIRECTION('Axis2P3D XDirection',(0.,-1.,0.)) ;
#98=DIRECTION('Vector Direction',(0.,-1.,0.)) ;
#105=DIRECTION('Vector Direction',(1.,0.,0.)) ;
#112=DIRECTION('Vector Direction',(0.,-1.,0.)) ;
#124=DIRECTION('Axis2P3D Direction',(0.,1.,0.)) ;
#125=DIRECTION('Axis2P3D XDirection',(0.,0.,1.)) ;
#129=DIRECTION('Vector Direction',(0.,0.,1.)) ;
#136=DIRECTION('Vector Direction',(1.,0.,0.)) ;
#143=DIRECTION('Vector Direction',(0.,0.,1.)) ;
#155=DIRECTION('Axis2P3D Direction',(0.,0.,-1.)) ;
#156=DIRECTION('Axis2P3D XDirection',(0.,1.,0.)) ;
#160=DIRECTION('Vector Direction',(0.,1.,0.)) ;
#165=DIRECTION('Vector Direction',(0.,1.,0.)) ;
#177=DIRECTION('Axis2P3D Direction',(1.,0.,0.)) ;
#178=DIRECTION('Axis2P3D XDirection',(0.,1.,0.)) ;
#188=DIRECTION('Axis2P3D Direction',(1.,0.,0.)) ;
#197=DIRECTION('Vector Direction',(0.,0.,-1.)) ;
#204=DIRECTION('Axis2P3D Direction',(1.,0.,0.)) ;
#211=DIRECTION('Vector Direction',(0.,0.,1.)) ;
#222=DIRECTION('Axis2P3D Direction',(1.,0.,0.)) ;
#231=DIRECTION('Vector Direction',(0.,0.,-1.)) ;
#238=DIRECTION('Axis2P3D Direction',(1.,0.,0.)) ;
#245=DIRECTION('Vector Direction',(0.,0.,1.)) ;
#257=DIRECTION('Axis2P3D Direction',(1.,0.,0.)) ;
#258=DIRECTION('Axis2P3D XDirection',(0.,1.,0.)) ;
#268=DIRECTION('Vector Direction',(0.,0.,1.)) ;
#277=DIRECTION('Axis2P3D Direction',(1.,0.,0.)) ;
#284=DIRECTION('Vector Direction',(0.,0.,-1.)) ;
#291=DIRECTION('Axis2P3D Direction',(1.,0.,0.)) ;
#302=DIRECTION('Vector Direction',(0.,0.,1.)) ;
#311=DIRECTION('Axis2P3D Direction',(1.,0.,0.)) ;
#318=DIRECTION('Vector Direction',(0.,0.,-1.)) ;
#325=DIRECTION('Axis2P3D Direction',(1.,0.,0.)) ;
#337=DIRECTION('Axis2P3D Direction',(1.,0.,0.)) ;
#338=DIRECTION('Axis2P3D XDirection',(-0.,-1.,-3.21624529935E-016)) ;
#342=DIRECTION('Vector Direction',(1.,0.,0.)) ;
#347=DIRECTION('Vector Direction',(1.,0.,0.)) ;
#359=DIRECTION('Axis2P3D Direction',(0.,-1.,0.)) ;
#360=DIRECTION('Axis2P3D XDirection',(0.,0.,1.)) ;
#364=DIRECTION('Vector Direction',(-1.,0.,0.)) ;
#376=DIRECTION('Axis2P3D Direction',(0.,1.,1.42108547152E-015)) ;
#377=DIRECTION('Axis2P3D XDirection',(0.,1.42108547152E-015,-1.)) ;
#381=DIRECTION('Vector Direction',(-1.,0.,0.)) ;
#393=DIRECTION('Axis2P3D Direction',(1.,0.,0.)) ;
#394=DIRECTION('Axis2P3D XDirection',(0.,1.,6.43249059871E-016)) ;
#405=DIRECTION('Axis2P3D Direction',(1.,0.,0.)) ;
#406=DIRECTION('Axis2P3D XDirection',(0.,1.,0.)) ;
#410=DIRECTION('Vector Direction',(1.,0.,0.)) ;
#415=DIRECTION('Vector Direction',(1.,0.,0.)) ;
#427=DIRECTION('Axis2P3D Direction',(0.,-1.,0.)) ;
#428=DIRECTION('Axis2P3D XDirection',(0.,0.,1.)) ;
#432=DIRECTION('Vector Direction',(-1.,0.,0.)) ;
#444=DIRECTION('Axis2P3D Direction',(0.,1.,0.)) ;
#445=DIRECTION('Axis2P3D XDirection',(0.,0.,-1.)) ;
#449=DIRECTION('Vector Direction',(-1.,0.,0.)) ;
#461=DIRECTION('Axis2P3D Direction',(1.,0.,0.)) ;
#462=DIRECTION('Axis2P3D XDirection',(-0.,-1.,-3.21624529935E-016)) ;
#48=AXIS2_PLACEMENT_3D(' ',#47,$,$) ;
#55=AXIS2_PLACEMENT_3D('Plane Axis2P3D',#52,#53,#54) ;
#95=AXIS2_PLACEMENT_3D('Plane Axis2P3D',#92,#93,#94) ;
#126=AXIS2_PLACEMENT_3D('Plane Axis2P3D',#123,#124,#125) ;
#157=AXIS2_PLACEMENT_3D('Plane Axis2P3D',#154,#155,#156) ;
#179=AXIS2_PLACEMENT_3D('Plane Axis2P3D',#176,#177,#178) ;
#189=AXIS2_PLACEMENT_3D('Circle Axis2P3D',#187,#188,$) ;
#205=AXIS2_PLACEMENT_3D('Circle Axis2P3D',#203,#204,$) ;
#223=AXIS2_PLACEMENT_3D('Circle Axis2P3D',#221,#222,$) ;
#239=AXIS2_PLACEMENT_3D('Circle Axis2P3D',#237,#238,$) ;
#259=AXIS2_PLACEMENT_3D('Plane Axis2P3D',#256,#257,#258) ;
#278=AXIS2_PLACEMENT_3D('Circle Axis2P3D',#276,#277,$) ;
#292=AXIS2_PLACEMENT_3D('Circle Axis2P3D',#290,#291,$) ;
#312=AXIS2_PLACEMENT_3D('Circle Axis2P3D',#310,#311,$) ;
#326=AXIS2_PLACEMENT_3D('Circle Axis2P3D',#324,#325,$) ;
#339=AXIS2_PLACEMENT_3D('Cylinder Axis2P3D',#336,#337,#338) ;
#361=AXIS2_PLACEMENT_3D('Plane Axis2P3D',#358,#359,#360) ;
#378=AXIS2_PLACEMENT_3D('Plane Axis2P3D',#375,#376,#377) ;
#395=AXIS2_PLACEMENT_3D('Cylinder Axis2P3D',#392,#393,#394) ;
#407=AXIS2_PLACEMENT_3D('Cylinder Axis2P3D',#404,#405,#406) ;
#429=AXIS2_PLACEMENT_3D('Plane Axis2P3D',#426,#427,#428) ;
#446=AXIS2_PLACEMENT_3D('Plane Axis2P3D',#443,#444,#445) ;
#463=AXIS2_PLACEMENT_3D('Cylinder Axis2P3D',#460,#461,#462) ;
#40=PRODUCT_DEFINITION_SHAPE(' ',' ',#14) ;
#31=APPROVAL_PERSON_ORGANIZATION(#25,#21,#19) ;
#25=PERSON_AND_ORGANIZATION(#22,#23) ;
#22=PERSON(' ',' ',' ',$,$,$) ;
#23=ORGANIZATION(' ',' ',' ') ;
#21=APPROVAL(#20,' ') ;
#20=APPROVAL_STATUS('not_yet_approved') ;
#19=APPROVAL_ROLE('APPROVER') ;
#13=DATE_AND_TIME(#11,#12) ;
#12=LOCAL_TIME(20,24,41.,#10) ;
#10=COORDINATED_UNIVERSAL_TIME_OFFSET(0,0,.AHEAD.) ;
#86=ORIENTED_EDGE('',*,*,#65,.F.) ;
#87=ORIENTED_EDGE('',*,*,#72,.T.) ;
#88=ORIENTED_EDGE('',*,*,#79,.T.) ;
#89=ORIENTED_EDGE('',*,*,#84,.F.) ;
#117=ORIENTED_EDGE('',*,*,#79,.F.) ;
#118=ORIENTED_EDGE('',*,*,#103,.T.) ;
#119=ORIENTED_EDGE('',*,*,#110,.T.) ;
#120=ORIENTED_EDGE('',*,*,#115,.F.) ;
#148=ORIENTED_EDGE('',*,*,#110,.F.) ;
#149=ORIENTED_EDGE('',*,*,#134,.T.) ;
#150=ORIENTED_EDGE('',*,*,#141,.T.) ;
#151=ORIENTED_EDGE('',*,*,#146,.F.) ;
#170=ORIENTED_EDGE('',*,*,#141,.F.) ;
#171=ORIENTED_EDGE('',*,*,#163,.T.) ;
#172=ORIENTED_EDGE('',*,*,#65,.T.) ;
#173=ORIENTED_EDGE('',*,*,#168,.F.) ;
#182=ORIENTED_EDGE('',*,*,#84,.T.) ;
#183=ORIENTED_EDGE('',*,*,#115,.T.) ;
#184=ORIENTED_EDGE('',*,*,#146,.T.) ;
#185=ORIENTED_EDGE('',*,*,#168,.T.) ;
#216=ORIENTED_EDGE('',*,*,#195,.F.) ;
#217=ORIENTED_EDGE('',*,*,#202,.F.) ;
#218=ORIENTED_EDGE('',*,*,#209,.F.) ;
#219=ORIENTED_EDGE('',*,*,#214,.F.) ;
#250=ORIENTED_EDGE('',*,*,#229,.F.) ;
#251=ORIENTED_EDGE('',*,*,#236,.F.) ;
#252=ORIENTED_EDGE('',*,*,#243,.F.) ;
#253=ORIENTED_EDGE('',*,*,#248,.F.) ;
#262=ORIENTED_EDGE('',*,*,#163,.F.) ;
#263=ORIENTED_EDGE('',*,*,#134,.F.) ;
#264=ORIENTED_EDGE('',*,*,#103,.F.) ;
#265=ORIENTED_EDGE('',*,*,#72,.F.) ;
#296=ORIENTED_EDGE('',*,*,#275,.T.) ;
#297=ORIENTED_EDGE('',*,*,#282,.T.) ;
#298=ORIENTED_EDGE('',*,*,#289,.T.) ;
#299=ORIENTED_EDGE('',*,*,#294,.T.) ;
#330=ORIENTED_EDGE('',*,*,#309,.T.) ;
#331=ORIENTED_EDGE('',*,*,#316,.T.) ;
#332=ORIENTED_EDGE('',*,*,#323,.T.) ;
#333=ORIENTED_EDGE('',*,*,#328,.T.) ;
#352=ORIENTED_EDGE('',*,*,#345,.F.) ;
#353=ORIENTED_EDGE('',*,*,#243,.T.) ;
#354=ORIENTED_EDGE('',*,*,#350,.T.) ;
#355=ORIENTED_EDGE('',*,*,#316,.F.) ;
#369=ORIENTED_EDGE('',*,*,#367,.F.) ;
#370=ORIENTED_EDGE('',*,*,#248,.T.) ;
#371=ORIENTED_EDGE('',*,*,#345,.T.) ;
#372=ORIENTED_EDGE('',*,*,#309,.F.) ;
#386=ORIENTED_EDGE('',*,*,#350,.F.) ;
#387=ORIENTED_EDGE('',*,*,#236,.T.) ;
#388=ORIENTED_EDGE('',*,*,#384,.T.) ;
#389=ORIENTED_EDGE('',*,*,#323,.F.) ;
#398=ORIENTED_EDGE('',*,*,#384,.F.) ;
#399=ORIENTED_EDGE('',*,*,#229,.T.) ;
#400=ORIENTED_EDGE('',*,*,#367,.T.) ;
#401=ORIENTED_EDGE('',*,*,#328,.F.) ;
#420=ORIENTED_EDGE('',*,*,#413,.F.) ;
#421=ORIENTED_EDGE('',*,*,#209,.T.) ;
#422=ORIENTED_EDGE('',*,*,#418,.T.) ;
#423=ORIENTED_EDGE('',*,*,#282,.F.) ;
#437=ORIENTED_EDGE('',*,*,#435,.F.) ;
#438=ORIENTED_EDGE('',*,*,#214,.T.) ;
#439=ORIENTED_EDGE('',*,*,#413,.T.) ;
#440=ORIENTED_EDGE('',*,*,#275,.F.) ;
#454=ORIENTED_EDGE('',*,*,#418,.F.) ;
#455=ORIENTED_EDGE('',*,*,#202,.T.) ;
#456=ORIENTED_EDGE('',*,*,#452,.T.) ;
#457=ORIENTED_EDGE('',*,*,#289,.F.) ;
#466=ORIENTED_EDGE('',*,*,#452,.F.) ;
#467=ORIENTED_EDGE('',*,*,#195,.T.) ;
#468=ORIENTED_EDGE('',*,*,#435,.T.) ;
#469=ORIENTED_EDGE('',*,*,#294,.F.) ;
#220=FACE_BOUND('',#215,.T.) ;
#254=FACE_BOUND('',#249,.T.) ;
#300=FACE_BOUND('',#295,.T.) ;
#334=FACE_BOUND('',#329,.T.) ;
#51=CLOSED_SHELL('Closed Shell',(#91,#122,#153,#175,#255,#335,#357,#374,#391,#403,#425,#442,#459,#471)) ;
#59=VECTOR('Line Direction',#58,1.) ;
#68=VECTOR('Line Direction',#67,1.) ;
#75=VECTOR('Line Direction',#74,1.) ;
#82=VECTOR('Line Direction',#81,1.) ;
#99=VECTOR('Line Direction',#98,1.) ;
#106=VECTOR('Line Direction',#105,1.) ;
#113=VECTOR('Line Direction',#112,1.) ;
#130=VECTOR('Line Direction',#129,1.) ;
#137=VECTOR('Line Direction',#136,1.) ;
#144=VECTOR('Line Direction',#143,1.) ;
#161=VECTOR('Line Direction',#160,1.) ;
#166=VECTOR('Line Direction',#165,1.) ;
#198=VECTOR('Line Direction',#197,1.) ;
#212=VECTOR('Line Direction',#211,1.) ;
#232=VECTOR('Line Direction',#231,1.) ;
#246=VECTOR('Line Direction',#245,1.) ;
#269=VECTOR('Line Direction',#268,1.) ;
#285=VECTOR('Line Direction',#284,1.) ;
#303=VECTOR('Line Direction',#302,1.) ;
#319=VECTOR('Line Direction',#318,1.) ;
#343=VECTOR('Line Direction',#342,1.) ;
#348=VECTOR('Line Direction',#347,1.) ;
#365=VECTOR('Line Direction',#364,1.) ;
#382=VECTOR('Line Direction',#381,1.) ;
#411=VECTOR('Line Direction',#410,1.) ;
#416=VECTOR('Line Direction',#415,1.) ;
#433=VECTOR('Line Direction',#432,1.) ;
#450=VECTOR('Line Direction',#449,1.) ;
#473=ADVANCED_BREP_SHAPE_REPRESENTATION('NONE',(#472),#46) ;
#49=SHAPE_REPRESENTATION(' ',(#48),#46) ;
#91=ADVANCED_FACE('Corps principal',(#90),#56,.T.) ;
#122=ADVANCED_FACE('Corps principal',(#121),#96,.F.) ;
#153=ADVANCED_FACE('Corps principal',(#152),#127,.T.) ;
#175=ADVANCED_FACE('Corps principal',(#174),#158,.F.) ;
#255=ADVANCED_FACE('Corps principal',(#186,#220,#254),#180,.T.) ;
#335=ADVANCED_FACE('Corps principal',(#266,#300,#334),#260,.F.) ;
#357=ADVANCED_FACE('Corps principal',(#356),#340,.F.) ;
#374=ADVANCED_FACE('Corps principal',(#373),#362,.F.) ;
#391=ADVANCED_FACE('Corps principal',(#390),#379,.F.) ;
#403=ADVANCED_FACE('Corps principal',(#402),#396,.F.) ;
#425=ADVANCED_FACE('Corps principal',(#424),#408,.F.) ;
#442=ADVANCED_FACE('Corps principal',(#441),#430,.T.) ;
#459=ADVANCED_FACE('Corps principal',(#458),#447,.T.) ;
#471=ADVANCED_FACE('Corps principal',(#470),#464,.F.) ;
#4=APPLICATION_PROTOCOL_DEFINITION('international standard','config_control_design',1994,#1) ;
#32=APPROVAL_DATE_TIME(#13,#21) ;
#472=MANIFOLD_SOLID_BREP('Corps principal',#51) ;
#11=CALENDAR_DATE(2017,26,2) ;
#30=CC_DESIGN_APPROVAL(#21,(#16,#6,#14)) ;
#18=CC_DESIGN_DATE_AND_TIME_ASSIGNMENT(#13,#17,(#16)) ;
#29=CC_DESIGN_DATE_AND_TIME_ASSIGNMENT(#13,#28,(#14)) ;
#17=DATE_TIME_ROLE('classification_date') ;
#28=DATE_TIME_ROLE('creation_date') ;
#27=CC_DESIGN_PERSON_AND_ORGANIZATION_ASSIGNMENT(#25,#26,(#16)) ;
#33=CC_DESIGN_PERSON_AND_ORGANIZATION_ASSIGNMENT(#25,#34,(#6)) ;
#35=CC_DESIGN_PERSON_AND_ORGANIZATION_ASSIGNMENT(#25,#36,(#6,#14)) ;
#37=CC_DESIGN_PERSON_AND_ORGANIZATION_ASSIGNMENT(#25,#38,(#5)) ;
#26=PERSON_AND_ORGANIZATION_ROLE('classification_officer') ;
#34=PERSON_AND_ORGANIZATION_ROLE('design_supplier') ;
#36=PERSON_AND_ORGANIZATION_ROLE('creator') ;
#38=PERSON_AND_ORGANIZATION_ROLE('design_owner') ;
#39=CC_DESIGN_SECURITY_CLASSIFICATION(#16,(#6)) ;
#190=CIRCLE('generated circle',#189,6.5) ;
#206=CIRCLE('generated circle',#205,6.5) ;
#224=CIRCLE('generated circle',#223,6.5) ;
#240=CIRCLE('generated circle',#239,6.5) ;
#279=CIRCLE('generated circle',#278,6.5) ;
#293=CIRCLE('generated circle',#292,6.5) ;
#313=CIRCLE('generated circle',#312,6.5) ;
#327=CIRCLE('generated circle',#326,6.5) ;
#474=SHAPE_REPRESENTATION_RELATIONSHIP(' ',' ',#49,#473) ;
#340=CYLINDRICAL_SURFACE('generated cylinder',#339,6.5) ;
#396=CYLINDRICAL_SURFACE('generated cylinder',#395,6.5) ;
#408=CYLINDRICAL_SURFACE('generated cylinder',#407,6.5) ;
#464=CYLINDRICAL_SURFACE('generated cylinder',#463,6.5) ;
#3=DESIGN_CONTEXT(' ',#1,'design') ;
#65=EDGE_CURVE('',#62,#64,#60,.T.) ;
#72=EDGE_CURVE('',#62,#71,#69,.T.) ;
#79=EDGE_CURVE('',#71,#78,#76,.T.) ;
#84=EDGE_CURVE('',#64,#78,#83,.T.) ;
#103=EDGE_CURVE('',#71,#102,#100,.F.) ;
#110=EDGE_CURVE('',#102,#109,#107,.T.) ;
#115=EDGE_CURVE('',#78,#109,#114,.F.) ;
#134=EDGE_CURVE('',#102,#133,#131,.T.) ;
#141=EDGE_CURVE('',#133,#140,#138,.T.) ;
#146=EDGE_CURVE('',#109,#140,#145,.T.) ;
#163=EDGE_CURVE('',#133,#62,#162,.F.) ;
#168=EDGE_CURVE('',#140,#64,#167,.F.) ;
#195=EDGE_CURVE('',#192,#194,#190,.T.) ;
#202=EDGE_CURVE('',#201,#192,#199,.T.) ;
#209=EDGE_CURVE('',#208,#201,#206,.T.) ;
#214=EDGE_CURVE('',#194,#208,#213,.T.) ;
#229=EDGE_CURVE('',#226,#228,#224,.T.) ;
#236=EDGE_CURVE('',#235,#226,#233,.F.) ;
#243=EDGE_CURVE('',#242,#235,#240,.T.) ;
#248=EDGE_CURVE('',#228,#242,#247,.F.) ;
#275=EDGE_CURVE('',#272,#274,#270,.T.) ;
#282=EDGE_CURVE('',#274,#281,#279,.T.) ;
#289=EDGE_CURVE('',#281,#288,#286,.T.) ;
#294=EDGE_CURVE('',#288,#272,#293,.T.) ;
#309=EDGE_CURVE('',#306,#308,#304,.F.) ;
#316=EDGE_CURVE('',#308,#315,#313,.T.) ;
#323=EDGE_CURVE('',#315,#322,#320,.F.) ;
#328=EDGE_CURVE('',#322,#306,#327,.T.) ;
#345=EDGE_CURVE('',#242,#308,#344,.F.) ;
#350=EDGE_CURVE('',#235,#315,#349,.F.) ;
#367=EDGE_CURVE('',#228,#306,#366,.T.) ;
#384=EDGE_CURVE('',#226,#322,#383,.T.) ;
#413=EDGE_CURVE('',#208,#274,#412,.F.) ;
#418=EDGE_CURVE('',#201,#281,#417,.F.) ;
#435=EDGE_CURVE('',#194,#272,#434,.T.) ;
#452=EDGE_CURVE('',#192,#288,#451,.T.) ;
#85=EDGE_LOOP('',(#86,#87,#88,#89)) ;
#116=EDGE_LOOP('',(#117,#118,#119,#120)) ;
#147=EDGE_LOOP('',(#148,#149,#150,#151)) ;
#169=EDGE_LOOP('',(#170,#171,#172,#173)) ;
#181=EDGE_LOOP('',(#182,#183,#184,#185)) ;
#215=EDGE_LOOP('',(#216,#217,#218,#219)) ;
#249=EDGE_LOOP('',(#250,#251,#252,#253)) ;
#261=EDGE_LOOP('',(#262,#263,#264,#265)) ;
#295=EDGE_LOOP('',(#296,#297,#298,#299)) ;
#329=EDGE_LOOP('',(#330,#331,#332,#333)) ;
#351=EDGE_LOOP('',(#352,#353,#354,#355)) ;
#368=EDGE_LOOP('',(#369,#370,#371,#372)) ;
#385=EDGE_LOOP('',(#386,#387,#388,#389)) ;
#397=EDGE_LOOP('',(#398,#399,#400,#401)) ;
#419=EDGE_LOOP('',(#420,#421,#422,#423)) ;
#436=EDGE_LOOP('',(#437,#438,#439,#440)) ;
#453=EDGE_LOOP('',(#454,#455,#456,#457)) ;
#465=EDGE_LOOP('',(#466,#467,#468,#469)) ;
#90=FACE_OUTER_BOUND('',#85,.T.) ;
#121=FACE_OUTER_BOUND('',#116,.T.) ;
#152=FACE_OUTER_BOUND('',#147,.T.) ;
#174=FACE_OUTER_BOUND('',#169,.T.) ;
#186=FACE_OUTER_BOUND('',#181,.T.) ;
#266=FACE_OUTER_BOUND('',#261,.T.) ;
#356=FACE_OUTER_BOUND('',#351,.T.) ;
#373=FACE_OUTER_BOUND('',#368,.T.) ;
#390=FACE_OUTER_BOUND('',#385,.T.) ;
#402=FACE_OUTER_BOUND('',#397,.T.) ;
#424=FACE_OUTER_BOUND('',#419,.T.) ;
#441=FACE_OUTER_BOUND('',#436,.T.) ;
#458=FACE_OUTER_BOUND('',#453,.T.) ;
#470=FACE_OUTER_BOUND('',#465,.T.) ;
#45=UNCERTAINTY_MEASURE_WITH_UNIT(LENGTH_MEASURE(0.005),#41,'distance_accuracy_value','CONFUSED CURVE UNCERTAINTY') ;
#60=LINE('Line',#57,#59) ;
#69=LINE('Line',#66,#68) ;
#76=LINE('Line',#73,#75) ;
#83=LINE('Line',#80,#82) ;
#100=LINE('Line',#97,#99) ;
#107=LINE('Line',#104,#106) ;
#114=LINE('Line',#111,#113) ;
#131=LINE('Line',#128,#130) ;
#138=LINE('Line',#135,#137) ;
#145=LINE('Line',#142,#144) ;
#162=LINE('Line',#159,#161) ;
#167=LINE('Line',#164,#166) ;
#199=LINE('Line',#196,#198) ;
#213=LINE('Line',#210,#212) ;
#233=LINE('Line',#230,#232) ;
#247=LINE('Line',#244,#246) ;
#270=LINE('Line',#267,#269) ;
#286=LINE('Line',#283,#285) ;
#304=LINE('Line',#301,#303) ;
#320=LINE('Line',#317,#319) ;
#344=LINE('Line',#341,#343) ;
#349=LINE('Line',#346,#348) ;
#366=LINE('Line',#363,#365) ;
#383=LINE('Line',#380,#382) ;
#412=LINE('Line',#409,#411) ;
#417=LINE('Line',#414,#416) ;
#434=LINE('Line',#431,#433) ;
#451=LINE('Line',#448,#450) ;
#2=MECHANICAL_CONTEXT(' ',#1,'mechanical') ;
#24=PERSONAL_ADDRESS(' ',' ',' ',' ',' ',' ',' ',' ',' ',' ',' ',' ',(#22),' ') ;
#56=PLANE('Plane',#55) ;
#96=PLANE('Plane',#95) ;
#127=PLANE('Plane',#126) ;
#158=PLANE('Plane',#157) ;
#180=PLANE('Plane',#179) ;
#260=PLANE('Plane',#259) ;
#362=PLANE('Plane',#361) ;
#379=PLANE('Plane',#378) ;
#430=PLANE('Plane',#429) ;
#447=PLANE('Plane',#446) ;
#43=PLANE_ANGLE_MEASURE_WITH_UNIT(PLANE_ANGLE_MEASURE(0.0174532925199),#42) ;
#7=PRODUCT_CATEGORY('part',$) ;
#9=PRODUCT_CATEGORY_RELATIONSHIP(' ',' ',#7,#8) ;
#6=PRODUCT_DEFINITION_FORMATION_WITH_SPECIFIED_SOURCE('',' ',#5,.NOT_KNOWN.) ;
#8=PRODUCT_RELATED_PRODUCT_CATEGORY('detail',$,(#5)) ;
#50=SHAPE_DEFINITION_REPRESENTATION(#40,#49) ;
#62=VERTEX_POINT('',#61) ;
#64=VERTEX_POINT('',#63) ;
#71=VERTEX_POINT('',#70) ;
#78=VERTEX_POINT('',#77) ;
#102=VERTEX_POINT('',#101) ;
#109=VERTEX_POINT('',#108) ;
#133=VERTEX_POINT('',#132) ;
#140=VERTEX_POINT('',#139) ;
#192=VERTEX_POINT('',#191) ;
#194=VERTEX_POINT('',#193) ;
#201=VERTEX_POINT('',#200) ;
#208=VERTEX_POINT('',#207) ;
#226=VERTEX_POINT('',#225) ;
#228=VERTEX_POINT('',#227) ;
#235=VERTEX_POINT('',#234) ;
#242=VERTEX_POINT('',#241) ;
#272=VERTEX_POINT('',#271) ;
#274=VERTEX_POINT('',#273) ;
#281=VERTEX_POINT('',#280) ;
#288=VERTEX_POINT('',#287) ;
#306=VERTEX_POINT('',#305) ;
#308=VERTEX_POINT('',#307) ;
#315=VERTEX_POINT('',#314) ;
#322=VERTEX_POINT('',#321) ;
#41=(LENGTH_UNIT()NAMED_UNIT(*)SI_UNIT(.MILLI.,.METRE.)) ;
#42=(NAMED_UNIT(*)PLANE_ANGLE_UNIT()SI_UNIT($,.RADIAN.)) ;
#44=(NAMED_UNIT(*)SI_UNIT($,.STERADIAN.)SOLID_ANGLE_UNIT()) ;
#46=(GEOMETRIC_REPRESENTATION_CONTEXT(3)GLOBAL_UNCERTAINTY_ASSIGNED_CONTEXT((#45))GLOBAL_UNIT_ASSIGNED_CONTEXT((#41,#42,#44))REPRESENTATION_CONTEXT(' ',' ')) ;
ENDSEC;
END-ISO-10303-21;
