ISO-10303-21;
HEADER;
FILE_DESCRIPTION(('CATIA V5 STEP Exchange'),'2;1');

FILE_NAME('C:\\Users\\Thorez\\Desktop\\4A_projet\\der_de_der montage\\mise_en_plan\\bascule.stp','2017-02-26T19:25:31+00:00',('none'),('none'),'CATIA Version 5 Release 20 GA (IN-10)','CATIA V5 STEP AP203','none');

FILE_SCHEMA(('CONFIG_CONTROL_DESIGN'));

ENDSEC;
/* file written by CATIA V5R20 */
DATA;
#5=PRODUCT('bascule','','',(#2)) ;
#1=APPLICATION_CONTEXT('configuration controlled 3D design of mechanical parts and assemblies') ;
#14=PRODUCT_DEFINITION('',' ',#6,#3) ;
#16=SECURITY_CLASSIFICATION(' ',' ',#15) ;
#15=SECURITY_CLASSIFICATION_LEVEL('unclassified') ;
#47=CARTESIAN_POINT(' ',(0.,0.,0.)) ;
#52=CARTESIAN_POINT('Axis2P3D Location',(4.25,11.6079114842,12.2785807259)) ;
#57=CARTESIAN_POINT('Line Origine',(2.82743866718,3.48186827826,25.2386907148)) ;
#61=CARTESIAN_POINT('Vertex',(2.82743866718,17.3493447943,5.43388176981)) ;
#63=CARTESIAN_POINT('Vertex',(2.82743866718,12.1871568672,12.8062501684)) ;
#66=CARTESIAN_POINT('Axis2P3D Location',(4.25,16.7127417677,4.98812753169)) ;
#70=CARTESIAN_POINT('Vertex',(5.67256133282,16.076138741,4.54237329358)) ;
#73=CARTESIAN_POINT('Line Origine',(5.67256133282,2.20866222493,24.3471822386)) ;
#77=CARTESIAN_POINT('Vertex',(5.67256133282,10.9139508139,11.9147416922)) ;
#80=CARTESIAN_POINT('Axis2P3D Location',(4.25,11.5505538405,12.3604959303)) ;
#92=CARTESIAN_POINT('Axis2P3D Location',(4.25,16.7127417677,4.98812753169)) ;
#97=CARTESIAN_POINT('Axis2P3D Location',(4.25,11.5505538405,12.3604959303)) ;
#109=CARTESIAN_POINT('Axis2P3D Location',(0.,3.15467039993,-4.50533624359)) ;
#114=CARTESIAN_POINT('Line Origine',(4.25,3.15467039993,-4.50533624359)) ;
#118=CARTESIAN_POINT('Vertex',(0.,3.15467039993,-4.50533624359)) ;
#120=CARTESIAN_POINT('Vertex',(8.5,3.15467039993,-4.50533624359)) ;
#123=CARTESIAN_POINT('Line Origine',(0.,11.1624341502,1.10176029858)) ;
#127=CARTESIAN_POINT('Vertex',(0.,19.1701979005,6.70885684075)) ;
#130=CARTESIAN_POINT('Line Origine',(4.25,19.1701979005,6.70885684075)) ;
#134=CARTESIAN_POINT('Vertex',(8.5,19.1701979005,6.70885684075)) ;
#137=CARTESIAN_POINT('Line Origine',(8.5,11.1624341502,1.10176029858)) ;
#153=CARTESIAN_POINT('Axis2P3D Location',(0.,0.,0.)) ;
#158=CARTESIAN_POINT('Line Origine',(0.,-19.5325907852,6.9626070704)) ;
#162=CARTESIAN_POINT('Vertex',(0.,-35.9105111705,18.4305503844)) ;
#164=CARTESIAN_POINT('Vertex',(0.,-3.15467039993,-4.50533624359)) ;
#167=CARTESIAN_POINT('Axis2P3D Location',(0.,-33.329417207,22.1167345837)) ;
#171=CARTESIAN_POINT('Vertex',(0.,-30.7483232434,25.802918783)) ;
#174=CARTESIAN_POINT('Line Origine',(0.,-16.2345262762,15.6402487385)) ;
#178=CARTESIAN_POINT('Vertex',(0.,-1.72072930905,5.47757869408)) ;
#181=CARTESIAN_POINT('Axis2P3D Location',(0.,-1.20646349153E-015,7.93503482695)) ;
#185=CARTESIAN_POINT('Vertex',(0.,1.72072930905,5.47757869408)) ;
#188=CARTESIAN_POINT('Line Origine',(0.,7.86436964122,9.77940196672)) ;
#192=CARTESIAN_POINT('Vertex',(0.,14.0080099734,14.0812252393)) ;
#195=CARTESIAN_POINT('Axis2P3D Location',(0.,14.5815864097,13.2620731951)) ;
#199=CARTESIAN_POINT('Vertex',(0.,15.400738454,13.8356496314)) ;
#202=CARTESIAN_POINT('Line Origine',(0.,17.4082559813,10.9686174764)) ;
#206=CARTESIAN_POINT('Vertex',(0.,19.4157735085,8.10158532139)) ;
#209=CARTESIAN_POINT('Axis2P3D Location',(0.,18.5966214642,7.52800888504)) ;
#214=CARTESIAN_POINT('Axis2P3D Location',(0.,0.,0.)) ;
#231=CARTESIAN_POINT('Axis2P3D Location',(0.,-33.329417207,22.1167345837)) ;
#235=CARTESIAN_POINT('Vertex',(0.,-30.329417207,22.1167345837)) ;
#237=CARTESIAN_POINT('Vertex',(0.,-36.329417207,22.1167345837)) ;
#240=CARTESIAN_POINT('Axis2P3D Location',(0.,-33.329417207,22.1167345837)) ;
#249=CARTESIAN_POINT('Axis2P3D Location',(0.,0.,0.)) ;
#253=CARTESIAN_POINT('Vertex',(0.,3.,0.)) ;
#255=CARTESIAN_POINT('Vertex',(0.,-3.,3.67394039744E-016)) ;
#258=CARTESIAN_POINT('Axis2P3D Location',(0.,0.,0.)) ;
#268=CARTESIAN_POINT('Axis2P3D Location',(4.25,18.5966214642,7.52800888504)) ;
#273=CARTESIAN_POINT('Line Origine',(4.25,19.4157735085,8.10158532139)) ;
#277=CARTESIAN_POINT('Vertex',(8.5,19.4157735085,8.10158532139)) ;
#280=CARTESIAN_POINT('Axis2P3D Location',(8.5,18.5966214642,7.52800888504)) ;
#292=CARTESIAN_POINT('Axis2P3D Location',(4.25,-33.329417207,22.1167345837)) ;
#297=CARTESIAN_POINT('Axis2P3D Location',(8.5,-33.329417207,22.1167345837)) ;
#301=CARTESIAN_POINT('Vertex',(8.5,-36.329417207,22.1167345837)) ;
#303=CARTESIAN_POINT('Vertex',(8.5,-30.329417207,22.1167345837)) ;
#306=CARTESIAN_POINT('Line Origine',(4.25,-30.329417207,22.1167345837)) ;
#311=CARTESIAN_POINT('Line Origine',(4.25,-36.329417207,22.1167345837)) ;
#323=CARTESIAN_POINT('Axis2P3D Location',(8.5,-33.329417207,22.1167345837)) ;
#335=CARTESIAN_POINT('Axis2P3D Location',(4.25,0.,0.)) ;
#340=CARTESIAN_POINT('Axis2P3D Location',(8.5,0.,0.)) ;
#344=CARTESIAN_POINT('Vertex',(8.5,-3.,3.67394039744E-016)) ;
#346=CARTESIAN_POINT('Vertex',(8.5,3.,0.)) ;
#349=CARTESIAN_POINT('Line Origine',(4.25,3.,-7.34788079488E-016)) ;
#354=CARTESIAN_POINT('Line Origine',(4.25,-3.,3.67394039744E-016)) ;
#366=CARTESIAN_POINT('Axis2P3D Location',(8.5,0.,0.)) ;
#378=CARTESIAN_POINT('Axis2P3D Location',(0.,-3.15467039993,-4.50533624359)) ;
#383=CARTESIAN_POINT('Line Origine',(4.25,-35.9105111705,18.4305503844)) ;
#387=CARTESIAN_POINT('Vertex',(8.5,-35.9105111705,18.4305503844)) ;
#390=CARTESIAN_POINT('Line Origine',(4.25,-3.15467039993,-4.50533624359)) ;
#394=CARTESIAN_POINT('Vertex',(8.5,-3.15467039993,-4.50533624359)) ;
#397=CARTESIAN_POINT('Line Origine',(8.5,-19.5325907852,6.9626070704)) ;
#409=CARTESIAN_POINT('Axis2P3D Location',(4.25,-33.329417207,22.1167345837)) ;
#414=CARTESIAN_POINT('Line Origine',(4.25,-30.7483232434,25.802918783)) ;
#418=CARTESIAN_POINT('Vertex',(8.5,-30.7483232434,25.802918783)) ;
#421=CARTESIAN_POINT('Axis2P3D Location',(8.5,-33.329417207,22.1167345837)) ;
#433=CARTESIAN_POINT('Axis2P3D Location',(0.,-1.72072930905,5.47757869408)) ;
#438=CARTESIAN_POINT('Line Origine',(4.25,-1.72072930905,5.47757869408)) ;
#442=CARTESIAN_POINT('Vertex',(8.5,-1.72072930905,5.47757869408)) ;
#445=CARTESIAN_POINT('Line Origine',(8.5,-16.2345262762,15.6402487385)) ;
#457=CARTESIAN_POINT('Axis2P3D Location',(4.25,-1.20646349153E-015,7.93503482695)) ;
#462=CARTESIAN_POINT('Line Origine',(4.25,1.72072930905,5.47757869408)) ;
#466=CARTESIAN_POINT('Vertex',(8.5,1.72072930905,5.47757869408)) ;
#469=CARTESIAN_POINT('Axis2P3D Location',(8.5,-1.20646349153E-015,7.93503482695)) ;
#481=CARTESIAN_POINT('Axis2P3D Location',(4.25,14.5815864097,13.2620731951)) ;
#486=CARTESIAN_POINT('Line Origine',(4.25,15.400738454,13.8356496314)) ;
#490=CARTESIAN_POINT('Vertex',(8.5,15.400738454,13.8356496314)) ;
#493=CARTESIAN_POINT('Line Origine',(4.25,14.0080099734,14.0812252393)) ;
#497=CARTESIAN_POINT('Vertex',(8.5,14.0080099734,14.0812252393)) ;
#500=CARTESIAN_POINT('Axis2P3D Location',(8.5,14.5815864097,13.2620731951)) ;
#512=CARTESIAN_POINT('Axis2P3D Location',(0.,19.4157735085,8.10158532139)) ;
#517=CARTESIAN_POINT('Line Origine',(8.5,17.4082559813,10.9686174764)) ;
#529=CARTESIAN_POINT('Axis2P3D Location',(8.5,0.,0.)) ;
#534=CARTESIAN_POINT('Axis2P3D Location',(8.5,0.,0.)) ;
#539=CARTESIAN_POINT('Line Origine',(8.5,7.86436964122,9.77940196672)) ;
#565=CARTESIAN_POINT('Axis2P3D Location',(4.25,0.,0.)) ;
#577=CARTESIAN_POINT('Axis2P3D Location',(0.,1.72072930905,5.47757869408)) ;
#53=DIRECTION('Axis2P3D Direction',(0.,0.573576436351,-0.819152044289)) ;
#54=DIRECTION('Axis2P3D XDirection',(0.87758256189,-0.392722410032,-0.274987191928)) ;
#58=DIRECTION('Vector Direction',(0.,0.573576436351,-0.819152044289)) ;
#67=DIRECTION('Axis2P3D Direction',(0.,0.573576436351,-0.819152044289)) ;
#74=DIRECTION('Vector Direction',(0.,0.573576436351,-0.819152044289)) ;
#81=DIRECTION('Axis2P3D Direction',(0.,0.573576436351,-0.819152044289)) ;
#93=DIRECTION('Axis2P3D Direction',(0.,0.573576436351,-0.819152044289)) ;
#98=DIRECTION('Axis2P3D Direction',(0.,0.573576436351,-0.819152044289)) ;
#110=DIRECTION('Axis2P3D Direction',(0.,0.573576436351,-0.819152044289)) ;
#111=DIRECTION('Axis2P3D XDirection',(0.,0.819152044289,0.573576436351)) ;
#115=DIRECTION('Vector Direction',(1.,0.,0.)) ;
#124=DIRECTION('Vector Direction',(0.,0.819152044289,0.573576436351)) ;
#131=DIRECTION('Vector Direction',(1.,0.,0.)) ;
#138=DIRECTION('Vector Direction',(0.,0.819152044289,0.573576436351)) ;
#154=DIRECTION('Axis2P3D Direction',(1.,0.,0.)) ;
#155=DIRECTION('Axis2P3D XDirection',(0.,1.,0.)) ;
#159=DIRECTION('Vector Direction',(0.,-0.819152044289,0.573576436351)) ;
#168=DIRECTION('Axis2P3D Direction',(1.,0.,0.)) ;
#175=DIRECTION('Vector Direction',(0.,-0.819152044289,0.573576436351)) ;
#182=DIRECTION('Axis2P3D Direction',(1.,0.,0.)) ;
#189=DIRECTION('Vector Direction',(0.,0.819152044289,0.573576436351)) ;
#196=DIRECTION('Axis2P3D Direction',(1.,0.,0.)) ;
#203=DIRECTION('Vector Direction',(0.,-0.573576436351,0.819152044289)) ;
#210=DIRECTION('Axis2P3D Direction',(1.,0.,0.)) ;
#215=DIRECTION('Axis2P3D Direction',(1.,0.,0.)) ;
#232=DIRECTION('Axis2P3D Direction',(1.,0.,0.)) ;
#241=DIRECTION('Axis2P3D Direction',(1.,0.,0.)) ;
#250=DIRECTION('Axis2P3D Direction',(1.,0.,0.)) ;
#259=DIRECTION('Axis2P3D Direction',(1.,0.,0.)) ;
#269=DIRECTION('Axis2P3D Direction',(1.,0.,0.)) ;
#270=DIRECTION('Axis2P3D XDirection',(0.,0.573576436351,-0.819152044289)) ;
#274=DIRECTION('Vector Direction',(1.,0.,0.)) ;
#281=DIRECTION('Axis2P3D Direction',(1.,0.,0.)) ;
#293=DIRECTION('Axis2P3D Direction',(1.,0.,0.)) ;
#294=DIRECTION('Axis2P3D XDirection',(0.,1.,0.)) ;
#298=DIRECTION('Axis2P3D Direction',(1.,0.,0.)) ;
#307=DIRECTION('Vector Direction',(1.,0.,0.)) ;
#312=DIRECTION('Vector Direction',(1.,0.,0.)) ;
#324=DIRECTION('Axis2P3D Direction',(1.,0.,0.)) ;
#336=DIRECTION('Axis2P3D Direction',(1.,0.,0.)) ;
#337=DIRECTION('Axis2P3D XDirection',(0.,1.,0.)) ;
#341=DIRECTION('Axis2P3D Direction',(1.,0.,0.)) ;
#350=DIRECTION('Vector Direction',(1.,0.,0.)) ;
#355=DIRECTION('Vector Direction',(1.,0.,0.)) ;
#367=DIRECTION('Axis2P3D Direction',(1.,0.,0.)) ;
#379=DIRECTION('Axis2P3D Direction',(-0.,0.573576436351,0.819152044289)) ;
#380=DIRECTION('Axis2P3D XDirection',(0.,-0.819152044289,0.573576436351)) ;
#384=DIRECTION('Vector Direction',(1.,0.,0.)) ;
#391=DIRECTION('Vector Direction',(1.,0.,0.)) ;
#398=DIRECTION('Vector Direction',(0.,-0.819152044289,0.573576436351)) ;
#410=DIRECTION('Axis2P3D Direction',(1.,0.,0.)) ;
#411=DIRECTION('Axis2P3D XDirection',(0.,0.573576436351,0.819152044289)) ;
#415=DIRECTION('Vector Direction',(1.,0.,0.)) ;
#422=DIRECTION('Axis2P3D Direction',(1.,0.,0.)) ;
#434=DIRECTION('Axis2P3D Direction',(-0.,0.573576436351,0.819152044289)) ;
#435=DIRECTION('Axis2P3D XDirection',(0.,-0.819152044289,0.573576436351)) ;
#439=DIRECTION('Vector Direction',(1.,0.,0.)) ;
#446=DIRECTION('Vector Direction',(0.,-0.819152044289,0.573576436351)) ;
#458=DIRECTION('Axis2P3D Direction',(1.,0.,0.)) ;
#459=DIRECTION('Axis2P3D XDirection',(-0.,-0.573576436351,-0.819152044289)) ;
#463=DIRECTION('Vector Direction',(1.,0.,0.)) ;
#470=DIRECTION('Axis2P3D Direction',(1.,0.,0.)) ;
#482=DIRECTION('Axis2P3D Direction',(1.,0.,0.)) ;
#483=DIRECTION('Axis2P3D XDirection',(0.,0.819152044289,0.573576436351)) ;
#487=DIRECTION('Vector Direction',(1.,0.,0.)) ;
#494=DIRECTION('Vector Direction',(1.,0.,0.)) ;
#501=DIRECTION('Axis2P3D Direction',(1.,0.,0.)) ;
#513=DIRECTION('Axis2P3D Direction',(-0.,0.819152044289,0.573576436351)) ;
#514=DIRECTION('Axis2P3D XDirection',(0.,-0.573576436351,0.819152044289)) ;
#518=DIRECTION('Vector Direction',(0.,-0.573576436351,0.819152044289)) ;
#530=DIRECTION('Axis2P3D Direction',(1.,0.,0.)) ;
#531=DIRECTION('Axis2P3D XDirection',(0.,1.,0.)) ;
#535=DIRECTION('Axis2P3D Direction',(1.,0.,0.)) ;
#540=DIRECTION('Vector Direction',(0.,0.819152044289,0.573576436351)) ;
#566=DIRECTION('Axis2P3D Direction',(1.,0.,0.)) ;
#567=DIRECTION('Axis2P3D XDirection',(-0.,-0.573576436351,-0.819152044289)) ;
#578=DIRECTION('Axis2P3D Direction',(0.,0.573576436351,-0.819152044289)) ;
#579=DIRECTION('Axis2P3D XDirection',(0.,0.819152044289,0.573576436351)) ;
#48=AXIS2_PLACEMENT_3D(' ',#47,$,$) ;
#55=AXIS2_PLACEMENT_3D('Cylinder Axis2P3D',#52,#53,#54) ;
#68=AXIS2_PLACEMENT_3D('Circle Axis2P3D',#66,#67,$) ;
#82=AXIS2_PLACEMENT_3D('Circle Axis2P3D',#80,#81,$) ;
#94=AXIS2_PLACEMENT_3D('Circle Axis2P3D',#92,#93,$) ;
#99=AXIS2_PLACEMENT_3D('Circle Axis2P3D',#97,#98,$) ;
#112=AXIS2_PLACEMENT_3D('Plane Axis2P3D',#109,#110,#111) ;
#156=AXIS2_PLACEMENT_3D('Plane Axis2P3D',#153,#154,#155) ;
#169=AXIS2_PLACEMENT_3D('Circle Axis2P3D',#167,#168,$) ;
#183=AXIS2_PLACEMENT_3D('Circle Axis2P3D',#181,#182,$) ;
#197=AXIS2_PLACEMENT_3D('Circle Axis2P3D',#195,#196,$) ;
#211=AXIS2_PLACEMENT_3D('Circle Axis2P3D',#209,#210,$) ;
#216=AXIS2_PLACEMENT_3D('Circle Axis2P3D',#214,#215,$) ;
#233=AXIS2_PLACEMENT_3D('Circle Axis2P3D',#231,#232,$) ;
#242=AXIS2_PLACEMENT_3D('Circle Axis2P3D',#240,#241,$) ;
#251=AXIS2_PLACEMENT_3D('Circle Axis2P3D',#249,#250,$) ;
#260=AXIS2_PLACEMENT_3D('Circle Axis2P3D',#258,#259,$) ;
#271=AXIS2_PLACEMENT_3D('Cylinder Axis2P3D',#268,#269,#270) ;
#282=AXIS2_PLACEMENT_3D('Circle Axis2P3D',#280,#281,$) ;
#295=AXIS2_PLACEMENT_3D('Cylinder Axis2P3D',#292,#293,#294) ;
#299=AXIS2_PLACEMENT_3D('Circle Axis2P3D',#297,#298,$) ;
#325=AXIS2_PLACEMENT_3D('Circle Axis2P3D',#323,#324,$) ;
#338=AXIS2_PLACEMENT_3D('Cylinder Axis2P3D',#335,#336,#337) ;
#342=AXIS2_PLACEMENT_3D('Circle Axis2P3D',#340,#341,$) ;
#368=AXIS2_PLACEMENT_3D('Circle Axis2P3D',#366,#367,$) ;
#381=AXIS2_PLACEMENT_3D('Plane Axis2P3D',#378,#379,#380) ;
#412=AXIS2_PLACEMENT_3D('Cylinder Axis2P3D',#409,#410,#411) ;
#423=AXIS2_PLACEMENT_3D('Circle Axis2P3D',#421,#422,$) ;
#436=AXIS2_PLACEMENT_3D('Plane Axis2P3D',#433,#434,#435) ;
#460=AXIS2_PLACEMENT_3D('Cylinder Axis2P3D',#457,#458,#459) ;
#471=AXIS2_PLACEMENT_3D('Circle Axis2P3D',#469,#470,$) ;
#484=AXIS2_PLACEMENT_3D('Cylinder Axis2P3D',#481,#482,#483) ;
#502=AXIS2_PLACEMENT_3D('Circle Axis2P3D',#500,#501,$) ;
#515=AXIS2_PLACEMENT_3D('Plane Axis2P3D',#512,#513,#514) ;
#532=AXIS2_PLACEMENT_3D('Plane Axis2P3D',#529,#530,#531) ;
#536=AXIS2_PLACEMENT_3D('Circle Axis2P3D',#534,#535,$) ;
#568=AXIS2_PLACEMENT_3D('Cylinder Axis2P3D',#565,#566,#567) ;
#580=AXIS2_PLACEMENT_3D('Plane Axis2P3D',#577,#578,#579) ;
#40=PRODUCT_DEFINITION_SHAPE(' ',' ',#14) ;
#31=APPROVAL_PERSON_ORGANIZATION(#25,#21,#19) ;
#25=PERSON_AND_ORGANIZATION(#22,#23) ;
#22=PERSON(' ',' ',' ',$,$,$) ;
#23=ORGANIZATION(' ',' ',' ') ;
#21=APPROVAL(#20,' ') ;
#20=APPROVAL_STATUS('not_yet_approved') ;
#19=APPROVAL_ROLE('APPROVER') ;
#13=DATE_AND_TIME(#11,#12) ;
#12=LOCAL_TIME(20,25,31.,#10) ;
#10=COORDINATED_UNIVERSAL_TIME_OFFSET(0,0,.AHEAD.) ;
#86=ORIENTED_EDGE('',*,*,#65,.F.) ;
#87=ORIENTED_EDGE('',*,*,#72,.T.) ;
#88=ORIENTED_EDGE('',*,*,#79,.T.) ;
#89=ORIENTED_EDGE('',*,*,#84,.F.) ;
#103=ORIENTED_EDGE('',*,*,#79,.F.) ;
#104=ORIENTED_EDGE('',*,*,#96,.T.) ;
#105=ORIENTED_EDGE('',*,*,#65,.T.) ;
#106=ORIENTED_EDGE('',*,*,#101,.F.) ;
#143=ORIENTED_EDGE('',*,*,#122,.F.) ;
#144=ORIENTED_EDGE('',*,*,#129,.T.) ;
#145=ORIENTED_EDGE('',*,*,#136,.T.) ;
#146=ORIENTED_EDGE('',*,*,#141,.F.) ;
#149=ORIENTED_EDGE('',*,*,#96,.F.) ;
#150=ORIENTED_EDGE('',*,*,#72,.F.) ;
#220=ORIENTED_EDGE('',*,*,#166,.F.) ;
#221=ORIENTED_EDGE('',*,*,#173,.F.) ;
#222=ORIENTED_EDGE('',*,*,#180,.F.) ;
#223=ORIENTED_EDGE('',*,*,#187,.F.) ;
#224=ORIENTED_EDGE('',*,*,#194,.F.) ;
#225=ORIENTED_EDGE('',*,*,#201,.F.) ;
#226=ORIENTED_EDGE('',*,*,#208,.F.) ;
#227=ORIENTED_EDGE('',*,*,#213,.F.) ;
#228=ORIENTED_EDGE('',*,*,#129,.F.) ;
#229=ORIENTED_EDGE('',*,*,#218,.F.) ;
#246=ORIENTED_EDGE('',*,*,#239,.T.) ;
#247=ORIENTED_EDGE('',*,*,#244,.T.) ;
#264=ORIENTED_EDGE('',*,*,#257,.T.) ;
#265=ORIENTED_EDGE('',*,*,#262,.T.) ;
#286=ORIENTED_EDGE('',*,*,#136,.F.) ;
#287=ORIENTED_EDGE('',*,*,#213,.T.) ;
#288=ORIENTED_EDGE('',*,*,#279,.T.) ;
#289=ORIENTED_EDGE('',*,*,#284,.F.) ;
#317=ORIENTED_EDGE('',*,*,#305,.T.) ;
#318=ORIENTED_EDGE('',*,*,#310,.F.) ;
#319=ORIENTED_EDGE('',*,*,#244,.F.) ;
#320=ORIENTED_EDGE('',*,*,#315,.T.) ;
#329=ORIENTED_EDGE('',*,*,#327,.T.) ;
#330=ORIENTED_EDGE('',*,*,#315,.F.) ;
#331=ORIENTED_EDGE('',*,*,#239,.F.) ;
#332=ORIENTED_EDGE('',*,*,#310,.T.) ;
#360=ORIENTED_EDGE('',*,*,#348,.T.) ;
#361=ORIENTED_EDGE('',*,*,#353,.F.) ;
#362=ORIENTED_EDGE('',*,*,#262,.F.) ;
#363=ORIENTED_EDGE('',*,*,#358,.T.) ;
#372=ORIENTED_EDGE('',*,*,#370,.T.) ;
#373=ORIENTED_EDGE('',*,*,#358,.F.) ;
#374=ORIENTED_EDGE('',*,*,#257,.F.) ;
#375=ORIENTED_EDGE('',*,*,#353,.T.) ;
#403=ORIENTED_EDGE('',*,*,#389,.F.) ;
#404=ORIENTED_EDGE('',*,*,#166,.T.) ;
#405=ORIENTED_EDGE('',*,*,#396,.T.) ;
#406=ORIENTED_EDGE('',*,*,#401,.F.) ;
#427=ORIENTED_EDGE('',*,*,#420,.F.) ;
#428=ORIENTED_EDGE('',*,*,#173,.T.) ;
#429=ORIENTED_EDGE('',*,*,#389,.T.) ;
#430=ORIENTED_EDGE('',*,*,#425,.F.) ;
#451=ORIENTED_EDGE('',*,*,#444,.F.) ;
#452=ORIENTED_EDGE('',*,*,#180,.T.) ;
#453=ORIENTED_EDGE('',*,*,#420,.T.) ;
#454=ORIENTED_EDGE('',*,*,#449,.F.) ;
#475=ORIENTED_EDGE('',*,*,#468,.F.) ;
#476=ORIENTED_EDGE('',*,*,#187,.T.) ;
#477=ORIENTED_EDGE('',*,*,#444,.T.) ;
#478=ORIENTED_EDGE('',*,*,#473,.F.) ;
#506=ORIENTED_EDGE('',*,*,#492,.F.) ;
#507=ORIENTED_EDGE('',*,*,#201,.T.) ;
#508=ORIENTED_EDGE('',*,*,#499,.T.) ;
#509=ORIENTED_EDGE('',*,*,#504,.F.) ;
#523=ORIENTED_EDGE('',*,*,#279,.F.) ;
#524=ORIENTED_EDGE('',*,*,#208,.T.) ;
#525=ORIENTED_EDGE('',*,*,#492,.T.) ;
#526=ORIENTED_EDGE('',*,*,#521,.F.) ;
#545=ORIENTED_EDGE('',*,*,#538,.T.) ;
#546=ORIENTED_EDGE('',*,*,#141,.T.) ;
#547=ORIENTED_EDGE('',*,*,#284,.T.) ;
#548=ORIENTED_EDGE('',*,*,#521,.T.) ;
#549=ORIENTED_EDGE('',*,*,#504,.T.) ;
#550=ORIENTED_EDGE('',*,*,#543,.T.) ;
#551=ORIENTED_EDGE('',*,*,#473,.T.) ;
#552=ORIENTED_EDGE('',*,*,#449,.T.) ;
#553=ORIENTED_EDGE('',*,*,#425,.T.) ;
#554=ORIENTED_EDGE('',*,*,#401,.T.) ;
#557=ORIENTED_EDGE('',*,*,#305,.F.) ;
#558=ORIENTED_EDGE('',*,*,#327,.F.) ;
#561=ORIENTED_EDGE('',*,*,#348,.F.) ;
#562=ORIENTED_EDGE('',*,*,#370,.F.) ;
#571=ORIENTED_EDGE('',*,*,#396,.F.) ;
#572=ORIENTED_EDGE('',*,*,#218,.T.) ;
#573=ORIENTED_EDGE('',*,*,#122,.T.) ;
#574=ORIENTED_EDGE('',*,*,#538,.F.) ;
#583=ORIENTED_EDGE('',*,*,#499,.F.) ;
#584=ORIENTED_EDGE('',*,*,#194,.T.) ;
#585=ORIENTED_EDGE('',*,*,#468,.T.) ;
#586=ORIENTED_EDGE('',*,*,#543,.F.) ;
#589=ORIENTED_EDGE('',*,*,#84,.T.) ;
#590=ORIENTED_EDGE('',*,*,#101,.T.) ;
#151=FACE_BOUND('',#148,.T.) ;
#248=FACE_BOUND('',#245,.T.) ;
#266=FACE_BOUND('',#263,.T.) ;
#559=FACE_BOUND('',#556,.T.) ;
#563=FACE_BOUND('',#560,.T.) ;
#591=FACE_BOUND('',#588,.T.) ;
#51=CLOSED_SHELL('Closed Shell',(#91,#108,#152,#267,#291,#322,#334,#365,#377,#408,#432,#456,#480,#511,#528,#564,#576,#592)) ;
#59=VECTOR('Line Direction',#58,1.) ;
#75=VECTOR('Line Direction',#74,1.) ;
#116=VECTOR('Line Direction',#115,1.) ;
#125=VECTOR('Line Direction',#124,1.) ;
#132=VECTOR('Line Direction',#131,1.) ;
#139=VECTOR('Line Direction',#138,1.) ;
#160=VECTOR('Line Direction',#159,1.) ;
#176=VECTOR('Line Direction',#175,1.) ;
#190=VECTOR('Line Direction',#189,1.) ;
#204=VECTOR('Line Direction',#203,1.) ;
#275=VECTOR('Line Direction',#274,1.) ;
#308=VECTOR('Line Direction',#307,1.) ;
#313=VECTOR('Line Direction',#312,1.) ;
#351=VECTOR('Line Direction',#350,1.) ;
#356=VECTOR('Line Direction',#355,1.) ;
#385=VECTOR('Line Direction',#384,1.) ;
#392=VECTOR('Line Direction',#391,1.) ;
#399=VECTOR('Line Direction',#398,1.) ;
#416=VECTOR('Line Direction',#415,1.) ;
#440=VECTOR('Line Direction',#439,1.) ;
#447=VECTOR('Line Direction',#446,1.) ;
#464=VECTOR('Line Direction',#463,1.) ;
#488=VECTOR('Line Direction',#487,1.) ;
#495=VECTOR('Line Direction',#494,1.) ;
#519=VECTOR('Line Direction',#518,1.) ;
#541=VECTOR('Line Direction',#540,1.) ;
#594=ADVANCED_BREP_SHAPE_REPRESENTATION('NONE',(#593),#46) ;
#49=SHAPE_REPRESENTATION(' ',(#48),#46) ;
#91=ADVANCED_FACE('Corps principal',(#90),#56,.F.) ;
#108=ADVANCED_FACE('Corps principal',(#107),#56,.F.) ;
#152=ADVANCED_FACE('Corps principal',(#147,#151),#113,.T.) ;
#267=ADVANCED_FACE('Corps principal',(#230,#248,#266),#157,.F.) ;
#291=ADVANCED_FACE('Corps principal',(#290),#272,.T.) ;
#322=ADVANCED_FACE('Corps principal',(#321),#296,.F.) ;
#334=ADVANCED_FACE('Corps principal',(#333),#296,.F.) ;
#365=ADVANCED_FACE('Corps principal',(#364),#339,.F.) ;
#377=ADVANCED_FACE('Corps principal',(#376),#339,.F.) ;
#408=ADVANCED_FACE('Corps principal',(#407),#382,.F.) ;
#432=ADVANCED_FACE('Corps principal',(#431),#413,.T.) ;
#456=ADVANCED_FACE('Corps principal',(#455),#437,.T.) ;
#480=ADVANCED_FACE('Corps principal',(#479),#461,.F.) ;
#511=ADVANCED_FACE('Corps principal',(#510),#485,.T.) ;
#528=ADVANCED_FACE('Corps principal',(#527),#516,.T.) ;
#564=ADVANCED_FACE('Corps principal',(#555,#559,#563),#533,.T.) ;
#576=ADVANCED_FACE('Corps principal',(#575),#569,.T.) ;
#592=ADVANCED_FACE('Corps principal',(#587,#591),#581,.F.) ;
#4=APPLICATION_PROTOCOL_DEFINITION('international standard','config_control_design',1994,#1) ;
#32=APPROVAL_DATE_TIME(#13,#21) ;
#593=MANIFOLD_SOLID_BREP('Corps principal',#51) ;
#11=CALENDAR_DATE(2017,26,2) ;
#30=CC_DESIGN_APPROVAL(#21,(#16,#6,#14)) ;
#18=CC_DESIGN_DATE_AND_TIME_ASSIGNMENT(#13,#17,(#16)) ;
#29=CC_DESIGN_DATE_AND_TIME_ASSIGNMENT(#13,#28,(#14)) ;
#17=DATE_TIME_ROLE('classification_date') ;
#28=DATE_TIME_ROLE('creation_date') ;
#27=CC_DESIGN_PERSON_AND_ORGANIZATION_ASSIGNMENT(#25,#26,(#16)) ;
#33=CC_DESIGN_PERSON_AND_ORGANIZATION_ASSIGNMENT(#25,#34,(#6)) ;
#35=CC_DESIGN_PERSON_AND_ORGANIZATION_ASSIGNMENT(#25,#36,(#6,#14)) ;
#37=CC_DESIGN_PERSON_AND_ORGANIZATION_ASSIGNMENT(#25,#38,(#5)) ;
#26=PERSON_AND_ORGANIZATION_ROLE('classification_officer') ;
#34=PERSON_AND_ORGANIZATION_ROLE('design_supplier') ;
#36=PERSON_AND_ORGANIZATION_ROLE('creator') ;
#38=PERSON_AND_ORGANIZATION_ROLE('design_owner') ;
#39=CC_DESIGN_SECURITY_CLASSIFICATION(#16,(#6)) ;
#69=CIRCLE('generated circle',#68,1.621) ;
#83=CIRCLE('generated circle',#82,1.621) ;
#95=CIRCLE('generated circle',#94,1.621) ;
#100=CIRCLE('generated circle',#99,1.621) ;
#170=CIRCLE('generated circle',#169,4.5) ;
#184=CIRCLE('generated circle',#183,3.) ;
#198=CIRCLE('generated circle',#197,1.) ;
#212=CIRCLE('generated circle',#211,1.) ;
#217=CIRCLE('generated circle',#216,5.5) ;
#234=CIRCLE('generated circle',#233,3.) ;
#243=CIRCLE('generated circle',#242,3.) ;
#252=CIRCLE('generated circle',#251,3.) ;
#261=CIRCLE('generated circle',#260,3.) ;
#283=CIRCLE('generated circle',#282,1.) ;
#300=CIRCLE('generated circle',#299,3.) ;
#326=CIRCLE('generated circle',#325,3.) ;
#343=CIRCLE('generated circle',#342,3.) ;
#369=CIRCLE('generated circle',#368,3.) ;
#424=CIRCLE('generated circle',#423,4.5) ;
#472=CIRCLE('generated circle',#471,3.) ;
#503=CIRCLE('generated circle',#502,1.) ;
#537=CIRCLE('generated circle',#536,5.5) ;
#595=SHAPE_REPRESENTATION_RELATIONSHIP(' ',' ',#49,#594) ;
#56=CYLINDRICAL_SURFACE('generated cylinder',#55,1.621) ;
#272=CYLINDRICAL_SURFACE('generated cylinder',#271,1.) ;
#296=CYLINDRICAL_SURFACE('generated cylinder',#295,3.) ;
#339=CYLINDRICAL_SURFACE('generated cylinder',#338,3.) ;
#413=CYLINDRICAL_SURFACE('generated cylinder',#412,4.5) ;
#461=CYLINDRICAL_SURFACE('generated cylinder',#460,3.) ;
#485=CYLINDRICAL_SURFACE('generated cylinder',#484,1.) ;
#569=CYLINDRICAL_SURFACE('generated cylinder',#568,5.5) ;
#3=DESIGN_CONTEXT(' ',#1,'design') ;
#65=EDGE_CURVE('',#62,#64,#60,.F.) ;
#72=EDGE_CURVE('',#62,#71,#69,.T.) ;
#79=EDGE_CURVE('',#71,#78,#76,.F.) ;
#84=EDGE_CURVE('',#64,#78,#83,.T.) ;
#96=EDGE_CURVE('',#71,#62,#95,.T.) ;
#101=EDGE_CURVE('',#78,#64,#100,.T.) ;
#122=EDGE_CURVE('',#119,#121,#117,.T.) ;
#129=EDGE_CURVE('',#119,#128,#126,.T.) ;
#136=EDGE_CURVE('',#128,#135,#133,.T.) ;
#141=EDGE_CURVE('',#121,#135,#140,.T.) ;
#166=EDGE_CURVE('',#163,#165,#161,.F.) ;
#173=EDGE_CURVE('',#172,#163,#170,.T.) ;
#180=EDGE_CURVE('',#179,#172,#177,.T.) ;
#187=EDGE_CURVE('',#186,#179,#184,.F.) ;
#194=EDGE_CURVE('',#193,#186,#191,.F.) ;
#201=EDGE_CURVE('',#200,#193,#198,.T.) ;
#208=EDGE_CURVE('',#207,#200,#205,.T.) ;
#213=EDGE_CURVE('',#128,#207,#212,.T.) ;
#218=EDGE_CURVE('',#165,#119,#217,.T.) ;
#239=EDGE_CURVE('',#236,#238,#234,.T.) ;
#244=EDGE_CURVE('',#238,#236,#243,.T.) ;
#257=EDGE_CURVE('',#254,#256,#252,.T.) ;
#262=EDGE_CURVE('',#256,#254,#261,.T.) ;
#279=EDGE_CURVE('',#207,#278,#276,.T.) ;
#284=EDGE_CURVE('',#135,#278,#283,.T.) ;
#305=EDGE_CURVE('',#302,#304,#300,.T.) ;
#310=EDGE_CURVE('',#236,#304,#309,.T.) ;
#315=EDGE_CURVE('',#238,#302,#314,.T.) ;
#327=EDGE_CURVE('',#304,#302,#326,.T.) ;
#348=EDGE_CURVE('',#345,#347,#343,.T.) ;
#353=EDGE_CURVE('',#254,#347,#352,.T.) ;
#358=EDGE_CURVE('',#256,#345,#357,.T.) ;
#370=EDGE_CURVE('',#347,#345,#369,.T.) ;
#389=EDGE_CURVE('',#163,#388,#386,.T.) ;
#396=EDGE_CURVE('',#165,#395,#393,.T.) ;
#401=EDGE_CURVE('',#388,#395,#400,.F.) ;
#420=EDGE_CURVE('',#172,#419,#417,.T.) ;
#425=EDGE_CURVE('',#419,#388,#424,.T.) ;
#444=EDGE_CURVE('',#179,#443,#441,.T.) ;
#449=EDGE_CURVE('',#443,#419,#448,.T.) ;
#468=EDGE_CURVE('',#186,#467,#465,.T.) ;
#473=EDGE_CURVE('',#467,#443,#472,.F.) ;
#492=EDGE_CURVE('',#200,#491,#489,.T.) ;
#499=EDGE_CURVE('',#193,#498,#496,.T.) ;
#504=EDGE_CURVE('',#491,#498,#503,.T.) ;
#521=EDGE_CURVE('',#278,#491,#520,.T.) ;
#538=EDGE_CURVE('',#395,#121,#537,.T.) ;
#543=EDGE_CURVE('',#498,#467,#542,.F.) ;
#85=EDGE_LOOP('',(#86,#87,#88,#89)) ;
#102=EDGE_LOOP('',(#103,#104,#105,#106)) ;
#142=EDGE_LOOP('',(#143,#144,#145,#146)) ;
#148=EDGE_LOOP('',(#149,#150)) ;
#219=EDGE_LOOP('',(#220,#221,#222,#223,#224,#225,#226,#227,#228,#229)) ;
#245=EDGE_LOOP('',(#246,#247)) ;
#263=EDGE_LOOP('',(#264,#265)) ;
#285=EDGE_LOOP('',(#286,#287,#288,#289)) ;
#316=EDGE_LOOP('',(#317,#318,#319,#320)) ;
#328=EDGE_LOOP('',(#329,#330,#331,#332)) ;
#359=EDGE_LOOP('',(#360,#361,#362,#363)) ;
#371=EDGE_LOOP('',(#372,#373,#374,#375)) ;
#402=EDGE_LOOP('',(#403,#404,#405,#406)) ;
#426=EDGE_LOOP('',(#427,#428,#429,#430)) ;
#450=EDGE_LOOP('',(#451,#452,#453,#454)) ;
#474=EDGE_LOOP('',(#475,#476,#477,#478)) ;
#505=EDGE_LOOP('',(#506,#507,#508,#509)) ;
#522=EDGE_LOOP('',(#523,#524,#525,#526)) ;
#544=EDGE_LOOP('',(#545,#546,#547,#548,#549,#550,#551,#552,#553,#554)) ;
#556=EDGE_LOOP('',(#557,#558)) ;
#560=EDGE_LOOP('',(#561,#562)) ;
#570=EDGE_LOOP('',(#571,#572,#573,#574)) ;
#582=EDGE_LOOP('',(#583,#584,#585,#586)) ;
#588=EDGE_LOOP('',(#589,#590)) ;
#90=FACE_OUTER_BOUND('',#85,.T.) ;
#107=FACE_OUTER_BOUND('',#102,.T.) ;
#147=FACE_OUTER_BOUND('',#142,.T.) ;
#230=FACE_OUTER_BOUND('',#219,.T.) ;
#290=FACE_OUTER_BOUND('',#285,.T.) ;
#321=FACE_OUTER_BOUND('',#316,.T.) ;
#333=FACE_OUTER_BOUND('',#328,.T.) ;
#364=FACE_OUTER_BOUND('',#359,.T.) ;
#376=FACE_OUTER_BOUND('',#371,.T.) ;
#407=FACE_OUTER_BOUND('',#402,.T.) ;
#431=FACE_OUTER_BOUND('',#426,.T.) ;
#455=FACE_OUTER_BOUND('',#450,.T.) ;
#479=FACE_OUTER_BOUND('',#474,.T.) ;
#510=FACE_OUTER_BOUND('',#505,.T.) ;
#527=FACE_OUTER_BOUND('',#522,.T.) ;
#555=FACE_OUTER_BOUND('',#544,.T.) ;
#575=FACE_OUTER_BOUND('',#570,.T.) ;
#587=FACE_OUTER_BOUND('',#582,.T.) ;
#45=UNCERTAINTY_MEASURE_WITH_UNIT(LENGTH_MEASURE(0.005),#41,'distance_accuracy_value','CONFUSED CURVE UNCERTAINTY') ;
#60=LINE('Line',#57,#59) ;
#76=LINE('Line',#73,#75) ;
#117=LINE('Line',#114,#116) ;
#126=LINE('Line',#123,#125) ;
#133=LINE('Line',#130,#132) ;
#140=LINE('Line',#137,#139) ;
#161=LINE('Line',#158,#160) ;
#177=LINE('Line',#174,#176) ;
#191=LINE('Line',#188,#190) ;
#205=LINE('Line',#202,#204) ;
#276=LINE('Line',#273,#275) ;
#309=LINE('Line',#306,#308) ;
#314=LINE('Line',#311,#313) ;
#352=LINE('Line',#349,#351) ;
#357=LINE('Line',#354,#356) ;
#386=LINE('Line',#383,#385) ;
#393=LINE('Line',#390,#392) ;
#400=LINE('Line',#397,#399) ;
#417=LINE('Line',#414,#416) ;
#441=LINE('Line',#438,#440) ;
#448=LINE('Line',#445,#447) ;
#465=LINE('Line',#462,#464) ;
#489=LINE('Line',#486,#488) ;
#496=LINE('Line',#493,#495) ;
#520=LINE('Line',#517,#519) ;
#542=LINE('Line',#539,#541) ;
#2=MECHANICAL_CONTEXT(' ',#1,'mechanical') ;
#24=PERSONAL_ADDRESS(' ',' ',' ',' ',' ',' ',' ',' ',' ',' ',' ',' ',(#22),' ') ;
#113=PLANE('Plane',#112) ;
#157=PLANE('Plane',#156) ;
#382=PLANE('Plane',#381) ;
#437=PLANE('Plane',#436) ;
#516=PLANE('Plane',#515) ;
#533=PLANE('Plane',#532) ;
#581=PLANE('Plane',#580) ;
#43=PLANE_ANGLE_MEASURE_WITH_UNIT(PLANE_ANGLE_MEASURE(0.0174532925199),#42) ;
#7=PRODUCT_CATEGORY('part',$) ;
#9=PRODUCT_CATEGORY_RELATIONSHIP(' ',' ',#7,#8) ;
#6=PRODUCT_DEFINITION_FORMATION_WITH_SPECIFIED_SOURCE('',' ',#5,.NOT_KNOWN.) ;
#8=PRODUCT_RELATED_PRODUCT_CATEGORY('detail',$,(#5)) ;
#50=SHAPE_DEFINITION_REPRESENTATION(#40,#49) ;
#62=VERTEX_POINT('',#61) ;
#64=VERTEX_POINT('',#63) ;
#71=VERTEX_POINT('',#70) ;
#78=VERTEX_POINT('',#77) ;
#119=VERTEX_POINT('',#118) ;
#121=VERTEX_POINT('',#120) ;
#128=VERTEX_POINT('',#127) ;
#135=VERTEX_POINT('',#134) ;
#163=VERTEX_POINT('',#162) ;
#165=VERTEX_POINT('',#164) ;
#172=VERTEX_POINT('',#171) ;
#179=VERTEX_POINT('',#178) ;
#186=VERTEX_POINT('',#185) ;
#193=VERTEX_POINT('',#192) ;
#200=VERTEX_POINT('',#199) ;
#207=VERTEX_POINT('',#206) ;
#236=VERTEX_POINT('',#235) ;
#238=VERTEX_POINT('',#237) ;
#254=VERTEX_POINT('',#253) ;
#256=VERTEX_POINT('',#255) ;
#278=VERTEX_POINT('',#277) ;
#302=VERTEX_POINT('',#301) ;
#304=VERTEX_POINT('',#303) ;
#345=VERTEX_POINT('',#344) ;
#347=VERTEX_POINT('',#346) ;
#388=VERTEX_POINT('',#387) ;
#395=VERTEX_POINT('',#394) ;
#419=VERTEX_POINT('',#418) ;
#443=VERTEX_POINT('',#442) ;
#467=VERTEX_POINT('',#466) ;
#491=VERTEX_POINT('',#490) ;
#498=VERTEX_POINT('',#497) ;
#41=(LENGTH_UNIT()NAMED_UNIT(*)SI_UNIT(.MILLI.,.METRE.)) ;
#42=(NAMED_UNIT(*)PLANE_ANGLE_UNIT()SI_UNIT($,.RADIAN.)) ;
#44=(NAMED_UNIT(*)SI_UNIT($,.STERADIAN.)SOLID_ANGLE_UNIT()) ;
#46=(GEOMETRIC_REPRESENTATION_CONTEXT(3)GLOBAL_UNCERTAINTY_ASSIGNED_CONTEXT((#45))GLOBAL_UNIT_ASSIGNED_CONTEXT((#41,#42,#44))REPRESENTATION_CONTEXT(' ',' ')) ;
ENDSEC;
END-ISO-10303-21;
