  0
SECTION
  2
HEADER
  9
$ACADVER
  1
AC1014
  9
$ACADMAINTVER
 70
     9
  9
$DWGCODEPAGE
  3
ANSI_1252
  9
$INSBASE
 10
0.0
 20
0.0
 30
0.0
  9
$EXTMIN
 10
1.000000000000000E+20
 20
1.000000000000000E+20
 30
1.000000000000000E+20
  9
$EXTMAX
 10
-1.000000000000000E+20
 20
-1.000000000000000E+20
 30
-1.000000000000000E+20
  9
$LIMMIN
 10
0.0
 20
0.0
  9
$LIMMAX
 10
12.0
 20
9.0
  9
$ORTHOMODE
 70
     0
  9
$REGENMODE
 70
     1
  9
$FILLMODE
 70
     1
  9
$QTEXTMODE
 70
     0
  9
$MIRRTEXT
 70
     1
  9
$DRAGMODE
 70
     2
  9
$LTSCALE
 40
1.0
  9
$OSMODE
 70
    37
  9
$ATTMODE
 70
     1
  9
$TEXTSIZE
 40
0.2
  9
$TRACEWID
 40
0.05
  9
$TEXTSTYLE
  7
STANDARD
  9
$CLAYER
  8
0
  9
$CELTYPE
  6
BYLAYER
  9
$CECOLOR
 62
   256
  9
$CELTSCALE
 40
1.0
  9
$DELOBJ
 70
     1
  9
$DISPSILH
 70
     0
  9
$DIMSCALE
 40
1.0
  9
$DIMASZ
 40
0.18
  9
$DIMEXO
 40
0.0625
  9
$DIMDLI
 40
0.38
  9
$DIMRND
 40
0.0
  9
$DIMDLE
 40
0.0
  9
$DIMEXE
 40
0.18
  9
$DIMTP
 40
0.0
  9
$DIMTM
 40
0.0
  9
$DIMTXT
 40
0.18
  9
$DIMCEN
 40
0.09
  9
$DIMTSZ
 40
0.0
  9
$DIMTOL
 70
     0
  9
$DIMLIM
 70
     0
  9
$DIMTIH
 70
     1
  9
$DIMTOH
 70
     1
  9
$DIMSE1
 70
     0
  9
$DIMSE2
 70
     0
  9
$DIMTAD
 70
     0
  9
$DIMZIN
 70
     0
  9
$DIMBLK
  1

  9
$DIMASO
 70
     1
  9
$DIMSHO
 70
     1
  9
$DIMPOST
  1

  9
$DIMAPOST
  1

  9
$DIMALT
 70
     0
  9
$DIMALTD
 70
     2
  9
$DIMALTF
 40
25.4
  9
$DIMLFAC
 40
1.0
  9
$DIMTOFL
 70
     0
  9
$DIMTVP
 40
0.0
  9
$DIMTIX
 70
     0
  9
$DIMSOXD
 70
     0
  9
$DIMSAH
 70
     0
  9
$DIMBLK1
  1

  9
$DIMBLK2
  1

  9
$DIMSTYLE
  2
STANDARD
  9
$DIMCLRD
 70
     0
  9
$DIMCLRE
 70
     0
  9
$DIMCLRT
 70
     0
  9
$DIMTFAC
 40
1.0
  9
$DIMGAP
 40
0.09
  9
$DIMJUST
 70
     0
  9
$DIMSD1
 70
     0
  9
$DIMSD2
 70
     0
  9
$DIMTOLJ
 70
     1
  9
$DIMTZIN
 70
     0
  9
$DIMALTZ
 70
     0
  9
$DIMALTTZ
 70
     0
  9
$DIMFIT
 70
     3
  9
$DIMUPT
 70
     0
  9
$DIMUNIT
 70
     2
  9
$DIMDEC
 70
     4
  9
$DIMTDEC
 70
     4
  9
$DIMALTU
 70
     2
  9
$DIMALTTD
 70
     2
  9
$DIMTXSTY
  7
STANDARD
  9
$DIMAUNIT
 70
     0
  9
$LUNITS
 70
     2
  9
$LUPREC
 70
     4
  9
$SKETCHINC
 40
0.1
  9
$FILLETRAD
 40
0.5
  9
$AUNITS
 70
     0
  9
$AUPREC
 70
     0
  9
$MENU
  1
.
  9
$ELEVATION
 40
0.0
  9
$PELEVATION
 40
0.0
  9
$THICKNESS
 40
0.0
  9
$LIMCHECK
 70
     0
  9
$CHAMFERA
 40
0.0
  9
$CHAMFERB
 40
0.0
  9
$CHAMFERC
 40
0.0
  9
$CHAMFERD
 40
0.0
  9
$SKPOLY
 70
     0
  9
$TDCREATE
 40
2456839.464772384
  9
$TDUPDATE
 40
2456839.464773542
  9
$TDINDWG
 40
0.0000000116
  9
$TDUSRTIMER
 40
0.0000000116
  9
$USRTIMER
 70
     1
  9
$ANGBASE
 50
0.0
  9
$ANGDIR
 70
     0
  9
$PDMODE
 70
     0
  9
$PDSIZE
 40
0.0
  9
$PLINEWID
 40
0.0
  9
$COORDS
 70
     1
  9
$SPLFRAME
 70
     0
  9
$SPLINETYPE
 70
     6
  9
$SPLINESEGS
 70
     8
  9
$ATTDIA
 70
     0
  9
$ATTREQ
 70
     1
  9
$HANDLING
 70
     1
  9
$HANDSEED
  5
831
  9
$SURFTAB1
 70
     6
  9
$SURFTAB2
 70
     6
  9
$SURFTYPE
 70
     6
  9
$SURFU
 70
     6
  9
$SURFV
 70
     6
  9
$UCSNAME
  2

  9
$UCSORG
 10
0.0
 20
0.0
 30
0.0
  9
$UCSXDIR
 10
1.0
 20
0.0
 30
0.0
  9
$UCSYDIR
 10
0.0
 20
1.0
 30
0.0
  9
$PUCSNAME
  2

  9
$PUCSORG
 10
0.0
 20
0.0
 30
0.0
  9
$PUCSXDIR
 10
1.0
 20
0.0
 30
0.0
  9
$PUCSYDIR
 10
0.0
 20
1.0
 30
0.0
  9
$USERI1
 70
     0
  9
$USERI2
 70
     0
  9
$USERI3
 70
     0
  9
$USERI4
 70
     0
  9
$USERI5
 70
     0
  9
$USERR1
 40
0.0
  9
$USERR2
 40
0.0
  9
$USERR3
 40
0.0
  9
$USERR4
 40
0.0
  9
$USERR5
 40
0.0
  9
$WORLDVIEW
 70
     1
  9
$SHADEDGE
 70
     3
  9
$SHADEDIF
 70
    70
  9
$TILEMODE
 70
     1
  9
$MAXACTVP
 70
    64
  9
$PINSBASE
 10
0.0
 20
0.0
 30
0.0
  9
$PLIMCHECK
 70
     0
  9
$PEXTMIN
 10
1.000000000000000E+20
 20
1.000000000000000E+20
 30
1.000000000000000E+20
  9
$PEXTMAX
 10
-1.000000000000000E+20
 20
-1.000000000000000E+20
 30
-1.000000000000000E+20
  9
$PLIMMIN
 10
0.0
 20
0.0
  9
$PLIMMAX
 10
12.0
 20
9.0
  9
$UNITMODE
 70
     0
  9
$VISRETAIN
 70
     1
  9
$PLINEGEN
 70
     0
  9
$PSLTSCALE
 70
     1
  9
$TREEDEPTH
 70
  3020
  9
$PICKSTYLE
 70
     1
  9
$CMLSTYLE
  2
STANDARD
  9
$CMLJUST
 70
     0
  9
$CMLSCALE
 40
1.0
  9
$PROXYGRAPHICS
 70
     1
  9
$MEASUREMENT
 70
     0
  0
ENDSEC
  0
SECTION
  2
CLASSES
  0
CLASS
  1
ACDBDICTIONARYWDFLT
  2
AcDbDictionaryWithDefault
  3
ObjectDBX Classes
 90
        0
280
     0
281
     0
  0
CLASS
  1
VISUALSTYLE
  2
AcDbVisualStyle
  3
ObjectDBX Classes
 90
     4095
280
     0
281
     0
  0
CLASS
  1
MATERIAL
  2
AcDbMaterial
  3
ObjectDBX Classes
 90
     1153
280
     0
281
     0
  0
CLASS
  1
SCALE
  2
AcDbScale
  3
ObjectDBX Classes
 90
     1153
280
     0
281
     0
  0
CLASS
  1
SUN
  2
AcDbSun
  3
SCENEOE
 90
     1153
280
     0
281
     0
  0
CLASS
  1
DICTIONARYVAR
  2
AcDbDictionaryVar
  3
ObjectDBX Classes
 90
        0
280
     0
281
     0
  0
CLASS
  1
XRECORD
  2
AcDbXrecord
  3
ObjectDBX Classes
 90
        0
280
     0
281
     0
  0
CLASS
  1
LWPOLYLINE
  2
AcDbPolyline
  3
ObjectDBX Classes
 90
        0
280
     0
281
     1
  0
CLASS
  1
HATCH
  2
AcDbHatch
  3
ObjectDBX Classes
 90
        0
280
     0
281
     1
  0
CLASS
  1
ACDBPLACEHOLDER
  2
AcDbPlaceHolder
  3
ObjectDBX Classes
 90
        0
280
     0
281
     0
  0
CLASS
  1
LAYOUT
  2
AcDbLayout
  3
ObjectDBX Classes
 90
        0
280
     0
281
     0
  0
ENDSEC
  0
SECTION
  2
TABLES
  0
TABLE
  2
VPORT
  5
8
102
{ACAD_XDICTIONARY
360
827
102
}
330
0
100
AcDbSymbolTable
 70
     1
  0
VPORT
  5
29
330
8
100
AcDbSymbolTableRecord
100
AcDbViewportTableRecord
  2
*ACTIVE
 70
     0
 10
0.0
 20
0.0
 11
1.0
 21
1.0
 12
0.0
 22
0.0
 13
0.0
 23
0.0
 14
0.5
 24
0.5
 15
0.5
 25
0.5
 16
0.0
 26
0.0
 36
10835.03083221067
 17
56.883871217253
 27
34.03633857978671
 37
0.0
 40
94.90405843263494
 41
1.3333
 42
50.0
 43
-10809.63083221067
 44
14564.96916778933
 50
0.0
 51
0.0
 71
     0
 72
   100
 73
     1
 74
     3
 75
     0
 76
     0
 77
     0
 78
     0
  0
ENDTAB
  0
TABLE
  2
LTYPE
  5
5
330
0
100
AcDbSymbolTable
 70
     1
  0
LTYPE
  5
14
330
5
100
AcDbSymbolTableRecord
100
AcDbLinetypeTableRecord
  2
BYBLOCK
 70
     0
  3

 72
    65
 73
     0
 40
0.0
  0
LTYPE
  5
15
330
5
100
AcDbSymbolTableRecord
100
AcDbLinetypeTableRecord
  2
BYLAYER
 70
     0
  3

 72
    65
 73
     0
 40
0.0
  0
LTYPE
  5
16
330
5
100
AcDbSymbolTableRecord
100
AcDbLinetypeTableRecord
  2
CONTINUOUS
 70
     0
  3
Solid line
 72
    65
 73
     0
 40
0.0
  0
ENDTAB
  0
TABLE
  2
LAYER
  5
2
330
0
100
AcDbSymbolTable
 70
     1
  0
LAYER
  5
10
330
2
100
AcDbSymbolTableRecord
100
AcDbLayerTableRecord
  2
0
 70
     0
 62
    13
  6
CONTINUOUS
  0
ENDTAB
  0
TABLE
  2
STYLE
  5
3
330
0
100
AcDbSymbolTable
 70
     2
  0
STYLE
  5
11
330
3
100
AcDbSymbolTableRecord
100
AcDbTextStyleTableRecord
  2
STANDARD
 70
     0
 40
0.0
 41
1.0
 50
0.0
 71
     0
 42
0.2
  3
txt
  4

  0
STYLE
  5
6A
330
3
100
AcDbSymbolTableRecord
100
AcDbTextStyleTableRecord
  2
TAHOMA
 70
     0
 40
0.0
 41
1.0
 50
0.0
 71
     0
 42
0.2
  3
Tahoma
  4

1001
ACAD
1000
Tahoma
1071
       34
  0
ENDTAB
  0
TABLE
  2
VIEW
  5
6
330
0
100
AcDbSymbolTable
 70
     0
  0
ENDTAB
  0
TABLE
  2
UCS
  5
7
330
0
100
AcDbSymbolTable
 70
     0
  0
ENDTAB
  0
TABLE
  2
APPID
  5
9
330
0
100
AcDbSymbolTable
 70
     1
  0
APPID
  5
12
330
9
100
AcDbSymbolTableRecord
100
AcDbRegAppTableRecord
  2
ACAD
 70
     0
  0
ENDTAB
  0
TABLE
  2
DIMSTYLE
  5
A
330
0
100
AcDbSymbolTable
 70
     1
  0
DIMSTYLE
105
27
330
A
100
AcDbSymbolTableRecord
100
AcDbDimStyleTableRecord
  2
STANDARD
 70
     0
  3

  4

  5

  6

  7

 40
1.0
 41
0.18
 42
0.0625
 43
0.38
 44
0.18
 45
0.0
 46
0.0
 47
0.0
 48
0.0
140
0.18
141
0.09
142
0.0
143
25.4
144
1.0
145
0.0
146
1.0
147
0.09
 71
     0
 72
     0
 73
     1
 74
     1
 75
     0
 76
     0
 77
     0
 78
     0
170
     0
171
     2
172
     0
173
     0
174
     0
175
     0
176
     0
177
     0
178
     0
270
     2
271
     4
272
     4
273
     2
274
     2
340
11
275
     0
280
     0
281
     0
282
     0
283
     1
284
     0
285
     0
286
     0
287
     3
288
     0
  0
ENDTAB
  0
TABLE
  2
BLOCK_RECORD
  5
1
330
0
100
AcDbSymbolTable
 70
     2
  0
BLOCK_RECORD
  5
1F
330
1
100
AcDbSymbolTableRecord
100
AcDbBlockTableRecord
  2
*MODEL_SPACE
  0
BLOCK_RECORD
  5
1B
330
1
100
AcDbSymbolTableRecord
100
AcDbBlockTableRecord
  2
*PAPER_SPACE
  0
BLOCK_RECORD
  5
6B
330
1
100
AcDbSymbolTableRecord
100
AcDbBlockTableRecord
  2
SOPHIE
  0
ENDTAB
  0
ENDSEC
  0
SECTION
  2
BLOCKS
  0
BLOCK
  5
20
330
1F
100
AcDbEntity
  8
0
100
AcDbBlockBegin
  2
*MODEL_SPACE
 70
     0
 10
0.0
 20
0.0
 30
0.0
  3
*MODEL_SPACE
  1

  0
ENDBLK
  5
21
330
1F
100
AcDbEntity
  8
0
100
AcDbBlockEnd
  0
BLOCK
  5
1C
330
1B
100
AcDbEntity
 67
     1
  8
0
100
AcDbBlockBegin
  2
*PAPER_SPACE
 70
     0
 10
0.0
 20
0.0
 30
0.0
  3
*PAPER_SPACE
  1

  0
ENDBLK
  5
1D
330
1B
100
AcDbEntity
 67
     1
  8
0
100
AcDbBlockEnd
  0
BLOCK
  5
6C
330
6B
100
AcDbEntity
  8
0
100
AcDbBlockBegin
  2
SOPHIE
 70
     0
 10
0.0
 20
0.0
 30
0.0
  3
SOPHIE
  1
SOPHIE
  0
LINE
  5
6E
330
6B
100
AcDbEntity
  8
0
100
AcDbLine
 10
189.3807313005084
 20
-0.0000000000000451
 30
100.5993047031094
 11
189.4875032078094
 21
0.0
 31
92.14519405972055
  0
POLYLINE
  5
6F
330
6B
100
AcDbEntity
  8
0
100
AcDb3dPolyline
 66
     1
 10
0.0
 20
0.0
 30
0.0
 70
     8
  0
VERTEX
  5
70
330
6F
100
AcDbEntity
  8
0
100
AcDbVertex
100
AcDb3dPolylineVertex
 10
-146.3887412365879
 20
-0.0000000000001805
 30
768.8900110863514
 70
    32
  0
VERTEX
  5
71
330
6F
100
AcDbEntity
  8
0
100
AcDbVertex
100
AcDb3dPolylineVertex
 10
-144.5933419564828
 20
-0.0000000000002256
 30
771.3408712418232
 70
    32
  0
VERTEX
  5
72
330
6F
100
AcDbEntity
  8
0
100
AcDbVertex
100
AcDb3dPolylineVertex
 10
-144.9031287819679
 20
-0.0000000000002249
 30
775.8401207799735
 70
    32
  0
VERTEX
  5
73
330
6F
100
AcDbEntity
  8
0
100
AcDbVertex
100
AcDb3dPolylineVertex
 10
-148.7043569761463
 20
-0.0000000000001805
 30
779.4085268985135
 70
    32
  0
VERTEX
  5
74
330
6F
100
AcDbEntity
  8
0
100
AcDbVertex
100
AcDb3dPolylineVertex
 10
-155.7822963698974
 20
-0.00000000000027
 30
780.2615158023841
 70
    32
  0
SEQEND
  5
75
330
6F
100
AcDbEntity
  8
0
  0
POLYLINE
  5
76
330
6B
100
AcDbEntity
  8
0
100
AcDb3dPolyline
 66
     1
 10
0.0
 20
0.0
 30
0.0
 70
     8
  0
VERTEX
  5
77
330
76
100
AcDbEntity
  8
0
100
AcDbVertex
100
AcDb3dPolylineVertex
 10
-40.57734712236904
 20
-0.0000000000004512
 30
1482.035294487082
 70
    32
  0
VERTEX
  5
78
330
76
100
AcDbEntity
  8
0
100
AcDbVertex
100
AcDb3dPolylineVertex
 10
-38.48935225481956
 20
-0.0000000000005866
 30
1458.202029896455
 70
    32
  0
VERTEX
  5
79
330
76
100
AcDbEntity
  8
0
100
AcDbVertex
100
AcDb3dPolylineVertex
 10
-39.79982912260553
 20
-0.0000000000004963
 30
1436.264406892921
 70
    32
  0
VERTEX
  5
7A
330
76
100
AcDbEntity
  8
0
100
AcDbVertex
100
AcDb3dPolylineVertex
 10
-46.02537278974852
 20
-0.0000000000003611
 30
1419.394148950961
 70
    32
  0
SEQEND
  5
7B
330
76
100
AcDbEntity
  8
0
  0
LINE
  5
7C
330
6B
100
AcDbEntity
  8
0
100
AcDbLine
 10
58.72854546183918
 20
-0.0000000000000004
 30
15.85978047482235
 11
54.84857298602623
 21
-0.0000000000000449
 31
38.32399659338467
  0
LINE
  5
7D
330
6B
100
AcDbEntity
  8
0
100
AcDbLine
 10
-156.9690957783947
 20
-0.00000000000027
 30
780.4117379441819
 11
-155.7822963698974
 21
-0.00000000000027
 31
780.2615158023841
  0
LINE
  5
7E
330
6B
100
AcDbEntity
  8
0
100
AcDbLine
 10
-156.9690957783947
 20
-0.00000000000027
 30
780.4117379441819
 11
-173.0275906362467
 21
-0.0000000000002256
 31
782.5461380299623
  0
LINE
  5
7F
330
6B
100
AcDbEntity
  8
0
100
AcDbLine
 10
-167.4797519918251
 20
-0.0000000000002707
 30
777.1550464772289
 11
-173.0275906362467
 21
-0.0000000000002256
 31
782.5461380299623
  0
POLYLINE
  5
80
330
6B
100
AcDbEntity
  8
0
100
AcDb3dPolyline
 66
     1
 10
0.0
 20
0.0
 30
0.0
 70
     8
  0
VERTEX
  5
81
330
80
100
AcDbEntity
  8
0
100
AcDbVertex
100
AcDb3dPolylineVertex
 10
-146.3887412365879
 20
-0.0000000000001805
 30
768.8900110863514
 70
    32
  0
VERTEX
  5
82
330
80
100
AcDbEntity
  8
0
100
AcDbVertex
100
AcDb3dPolylineVertex
 10
-147.5402465979498
 20
-0.0000000000002249
 30
770.5652919707443
 70
    32
  0
VERTEX
  5
83
330
80
100
AcDbEntity
  8
0
100
AcDbVertex
100
AcDb3dPolylineVertex
 10
-167.4797519918251
 20
-0.0000000000002707
 30
777.1550464772289
 70
    32
  0
SEQEND
  5
84
330
80
100
AcDbEntity
  8
0
  0
POLYLINE
  5
85
330
6B
100
AcDbEntity
  8
0
100
AcDb3dPolyline
 66
     1
 10
0.0
 20
0.0
 30
0.0
 70
     8
  0
VERTEX
  5
86
330
85
100
AcDbEntity
  8
0
100
AcDbVertex
100
AcDb3dPolylineVertex
 10
-109.1212707245686
 20
-0.0000000000000451
 30
92.67697747579848
 70
    32
  0
VERTEX
  5
87
330
85
100
AcDbEntity
  8
0
100
AcDbVertex
100
AcDb3dPolylineVertex
 10
-89.3959732405097
 20
-0.0000000000000448
 30
110.2784746884447
 70
    32
  0
VERTEX
  5
88
330
85
100
AcDbEntity
  8
0
100
AcDbVertex
100
AcDb3dPolylineVertex
 10
-71.51983495519815
 20
-0.0000000000000451
 30
138.4782700550969
 70
    32
  0
VERTEX
  5
89
330
85
100
AcDbEntity
  8
0
100
AcDbVertex
100
AcDb3dPolylineVertex
 10
-67.41727271152824
 20
-0.0000000000000899
 30
165.8298219359807
 70
    32
  0
VERTEX
  5
8A
330
85
100
AcDbEntity
  8
0
100
AcDbVertex
100
AcDb3dPolylineVertex
 10
-90.7045222821913
 20
-0.0000000000000902
 30
354.5594003957157
 70
    32
  0
VERTEX
  5
8B
330
85
100
AcDbEntity
  8
0
100
AcDbVertex
100
AcDb3dPolylineVertex
 10
-90.7045222821913
 20
-0.0000000000000902
 30
406.4698256043363
 70
    32
  0
VERTEX
  5
8C
330
85
100
AcDbEntity
  8
0
100
AcDbVertex
100
AcDb3dPolylineVertex
 10
-84.81812771504184
 20
-0.000000000000135
 30
442.3755867917015
 70
    32
  0
VERTEX
  5
8D
330
85
100
AcDbEntity
  8
0
100
AcDbVertex
100
AcDb3dPolylineVertex
 10
-89.52810347579306
 20
-0.0000000000001805
 30
457.0912766209456
 70
    32
  0
VERTEX
  5
8E
330
85
100
AcDbEntity
  8
0
100
AcDbVertex
100
AcDb3dPolylineVertex
 10
-94.42226077663571
 20
-0.0000000000001805
 30
493.7525973467715
 70
    32
  0
VERTEX
  5
8F
330
85
100
AcDbEntity
  8
0
100
AcDbVertex
100
AcDb3dPolylineVertex
 10
-102.8395944297322
 20
-0.0000000000000895
 30
530.7082822892488
 70
    32
  0
SEQEND
  5
90
330
85
100
AcDbEntity
  8
0
  0
POLYLINE
  5
91
330
6B
100
AcDbEntity
  8
0
100
AcDb3dPolyline
 66
     1
 10
0.0
 20
0.0
 30
0.0
 70
     8
  0
VERTEX
  5
92
330
91
100
AcDbEntity
  8
0
100
AcDbVertex
100
AcDb3dPolylineVertex
 10
-72.82438264168735
 20
-0.0000000000000906
 30
64.83362759861546
 70
    32
  0
VERTEX
  5
93
330
91
100
AcDbEntity
  8
0
100
AcDbVertex
100
AcDb3dPolylineVertex
 10
-76.96164316389856
 20
-0.0000000000000451
 30
75.46504943047965
 70
    32
  0
VERTEX
  5
94
330
91
100
AcDbEntity
  8
0
100
AcDbVertex
100
AcDb3dPolylineVertex
 10
-102.2490864646394
 20
-0.0000000000000448
 30
92.67697747579848
 70
    32
  0
VERTEX
  5
95
330
91
100
AcDbEntity
  8
0
100
AcDbVertex
100
AcDb3dPolylineVertex
 10
-109.1212707245686
 20
-0.0000000000000451
 30
92.67697747579848
 70
    32
  0
SEQEND
  5
96
330
91
100
AcDbEntity
  8
0
  0
POLYLINE
  5
97
330
6B
100
AcDbEntity
  8
0
100
AcDb3dPolyline
 66
     1
 10
0.0
 20
0.0
 30
0.0
 70
     8
  0
VERTEX
  5
98
330
97
100
AcDbEntity
  8
0
100
AcDbVertex
100
AcDb3dPolylineVertex
 10
-72.82438264168735
 20
-0.0000000000000906
 30
64.83362759861546
 70
    32
  0
VERTEX
  5
99
330
97
100
AcDbEntity
  8
0
100
AcDbVertex
100
AcDb3dPolylineVertex
 10
-59.53350200629846
 20
-0.0000000000000455
 30
71.08235922446448
 70
    32
  0
VERTEX
  5
9A
330
97
100
AcDbEntity
  8
0
100
AcDbVertex
100
AcDb3dPolylineVertex
 10
-20.88696527627946
 20
-0.0000000000000452
 30
80.37403616289205
 70
    32
  0
VERTEX
  5
9B
330
97
100
AcDbEntity
  8
0
100
AcDbVertex
100
AcDb3dPolylineVertex
 10
-4.959414299184732
 20
-0.0000000000000451
 30
85.24209366417335
 70
    32
  0
VERTEX
  5
9C
330
97
100
AcDbEntity
  8
0
100
AcDbVertex
100
AcDb3dPolylineVertex
 10
0.3776981226356231
 20
-0.0000000000000902
 30
94.7013431793349
 70
    32
  0
SEQEND
  5
9D
330
97
100
AcDbEntity
  8
0
  0
POLYLINE
  5
9E
330
6B
100
AcDbEntity
  8
0
100
AcDb3dPolyline
 66
     1
 10
0.0
 20
0.0
 30
0.0
 70
     8
  0
VERTEX
  5
9F
330
9E
100
AcDbEntity
  8
0
100
AcDbVertex
100
AcDb3dPolylineVertex
 10
0.3776981226356231
 20
-0.0000000000000902
 30
94.7013431793349
 70
    32
  0
VERTEX
  5
A0
330
9E
100
AcDbEntity
  8
0
100
AcDbVertex
100
AcDb3dPolylineVertex
 10
-0.108114055577345
 20
-0.0000000000000451
 30
103.9173900167586
 70
    32
  0
VERTEX
  5
A1
330
9E
100
AcDbEntity
  8
0
100
AcDbVertex
100
AcDb3dPolylineVertex
 10
-4.230992620496768
 20
-0.0000000000000902
 30
116.2872120660426
 70
    32
  0
VERTEX
  5
A2
330
9E
100
AcDbEntity
  8
0
100
AcDbVertex
100
AcDb3dPolylineVertex
 10
-10.05287916032088
 20
-0.0000000000000452
 30
133.5069997100928
 70
    32
  0
VERTEX
  5
A3
330
9E
100
AcDbEntity
  8
0
100
AcDbVertex
100
AcDb3dPolylineVertex
 10
-10.98179475382684
 20
-0.0000000000000452
 30
169.481124576994
 70
    32
  0
VERTEX
  5
A4
330
9E
100
AcDbEntity
  8
0
100
AcDbVertex
100
AcDb3dPolylineVertex
 10
0.5294032075907056
 20
-0.0000000000001354
 30
258.6924638950269
 70
    32
  0
VERTEX
  5
A5
330
9E
100
AcDbEntity
  8
0
100
AcDbVertex
100
AcDb3dPolylineVertex
 10
12.40080806182765
 20
-0.0000000000001353
 30
318.0459291026361
 70
    32
  0
VERTEX
  5
A6
330
9E
100
AcDbEntity
  8
0
100
AcDbVertex
100
AcDb3dPolylineVertex
 10
13.78127984662137
 20
-0.0000000000000902
 30
353.7513446695005
 70
    32
  0
VERTEX
  5
A7
330
9E
100
AcDbEntity
  8
0
100
AcDbVertex
100
AcDb3dPolylineVertex
 10
9.053805356618179
 20
-0.0000000000001804
 30
407.8534115697599
 70
    32
  0
VERTEX
  5
A8
330
9E
100
AcDbEntity
  8
0
100
AcDbVertex
100
AcDb3dPolylineVertex
 10
5.439131411581324
 20
-0.0000000000001805
 30
445.0783989895367
 70
    32
  0
VERTEX
  5
A9
330
9E
100
AcDbEntity
  8
0
100
AcDbVertex
100
AcDb3dPolylineVertex
 10
11.78835253801184
 20
-0.0000000000001354
 30
479.2064079203647
 70
    32
  0
VERTEX
  5
AA
330
9E
100
AcDbEntity
  8
0
100
AcDbVertex
100
AcDb3dPolylineVertex
 10
13.77253048199541
 20
-0.0000000000000902
 30
506.1912279585378
 70
    32
  0
VERTEX
  5
AB
330
9E
100
AcDbEntity
  8
0
100
AcDbVertex
100
AcDb3dPolylineVertex
 10
11.6326498370701
 20
-0.0000000000001805
 30
521.4388629966857
 70
    32
  0
SEQEND
  5
AC
330
9E
100
AcDbEntity
  8
0
  0
POLYLINE
  5
AD
330
6B
100
AcDbEntity
  8
0
100
AcDb3dPolyline
 66
     1
 10
0.0
 20
0.0
 30
0.0
 70
     8
  0
VERTEX
  5
AE
330
AD
100
AcDbEntity
  8
0
100
AcDbVertex
100
AcDb3dPolylineVertex
 10
-102.8395944297322
 20
-0.0000000000000895
 30
530.7082822892488
 70
    32
  0
VERTEX
  5
AF
330
AD
100
AcDbEntity
  8
0
100
AcDbVertex
100
AcDb3dPolylineVertex
 10
-91.00289044536785
 20
-0.0000000000001812
 30
528.1040858113488
 70
    32
  0
VERTEX
  5
B0
330
AD
100
AcDbEntity
  8
0
100
AcDbVertex
100
AcDb3dPolylineVertex
 10
-0.3606592752039819
 20
-0.0000000000001805
 30
520.1179920282902
 70
    32
  0
VERTEX
  5
B1
330
AD
100
AcDbEntity
  8
0
100
AcDbVertex
100
AcDb3dPolylineVertex
 10
11.6326498370701
 20
-0.0000000000001805
 30
521.4388629966857
 70
    32
  0
SEQEND
  5
B2
330
AD
100
AcDbEntity
  8
0
  0
POLYLINE
  5
B3
330
6B
100
AcDbEntity
  8
0
100
AcDb3dPolyline
 66
     1
 10
0.0
 20
0.0
 30
0.0
 70
     8
  0
VERTEX
  5
B4
330
B3
100
AcDbEntity
  8
0
100
AcDbVertex
100
AcDb3dPolylineVertex
 10
-125.8437501517349
 20
0.0
 30
35.49795181920757
 70
    32
  0
VERTEX
  5
B5
330
B3
100
AcDbEntity
  8
0
100
AcDbVertex
100
AcDb3dPolylineVertex
 10
-152.7047444363031
 20
-0.0000000000000007
 30
35.49795181920757
 70
    32
  0
VERTEX
  5
B6
330
B3
100
AcDbEntity
  8
0
100
AcDbVertex
100
AcDb3dPolylineVertex
 10
-169.8720358925976
 20
0.0000000000000007
 30
38.00368087148597
 70
    32
  0
VERTEX
  5
B7
330
B3
100
AcDbEntity
  8
0
100
AcDbVertex
100
AcDb3dPolylineVertex
 10
-180.9540701043967
 20
-0.0000000000000007
 30
44.9223521701811
 70
    32
  0
SEQEND
  5
B8
330
B3
100
AcDbEntity
  8
0
  0
LINE
  5
B9
330
6B
100
AcDbEntity
  8
0
100
AcDbLine
 10
-180.9540701043967
 20
-0.0000000000000007
 30
44.9223521701811
 11
-179.296732832203
 21
-0.0000000000000007
 31
21.37914661063057
  0
POLYLINE
  5
BA
330
6B
100
AcDbEntity
  8
0
100
AcDb3dPolyline
 66
     1
 10
0.0
 20
0.0
 30
0.0
 70
     8
  0
VERTEX
  5
BB
330
BA
100
AcDbEntity
  8
0
100
AcDbVertex
100
AcDb3dPolylineVertex
 10
-179.296732832203
 20
-0.0000000000000007
 30
21.37914661063057
 70
    32
  0
VERTEX
  5
BC
330
BA
100
AcDbEntity
  8
0
100
AcDbVertex
100
AcDb3dPolylineVertex
 10
-164.9660150464994
 20
0.0000000000000007
 30
19.29828077281491
 70
    32
  0
VERTEX
  5
BD
330
BA
100
AcDbEntity
  8
0
100
AcDbVertex
100
AcDb3dPolylineVertex
 10
-134.2057700250778
 20
-0.0000000000000451
 30
7.22193317428887
 70
    32
  0
VERTEX
  5
BE
330
BA
100
AcDbEntity
  8
0
100
AcDbVertex
100
AcDb3dPolylineVertex
 10
-108.5446250487888
 20
-0.0000000000000004
 30
2.46094416893892
 70
    32
  0
SEQEND
  5
BF
330
BA
100
AcDbEntity
  8
0
  0
POLYLINE
  5
C0
330
6B
100
AcDbEntity
  8
0
100
AcDb3dPolyline
 66
     1
 10
0.0
 20
0.0
 30
0.0
 70
     8
  0
VERTEX
  5
C1
330
C0
100
AcDbEntity
  8
0
100
AcDbVertex
100
AcDb3dPolylineVertex
 10
-0.1001061625300783
 20
-0.0000000000000451
 30
80.97210713808519
 70
    32
  0
VERTEX
  5
C2
330
C0
100
AcDbEntity
  8
0
100
AcDbVertex
100
AcDb3dPolylineVertex
 10
-0.1001061625300306
 20
0.0
 30
54.95416603823646
 70
    32
  0
VERTEX
  5
C3
330
C0
100
AcDbEntity
  8
0
100
AcDbVertex
100
AcDb3dPolylineVertex
 10
-3.595551477749142
 20
-0.0000000000000452
 30
28.13424927911546
 70
    32
  0
VERTEX
  5
C4
330
C0
100
AcDbEntity
  8
0
100
AcDbVertex
100
AcDb3dPolylineVertex
 10
-15.53502342288954
 20
-0.0000000000000001
 30
19.54726692886484
 70
    32
  0
VERTEX
  5
C5
330
C0
100
AcDbEntity
  8
0
100
AcDbVertex
100
AcDb3dPolylineVertex
 10
-59.04309270429922
 20
0.0000000000000004
 30
15.84554422051577
 70
    32
  0
VERTEX
  5
C6
330
C0
100
AcDbEntity
  8
0
100
AcDbVertex
100
AcDb3dPolylineVertex
 10
-86.93443589430795
 20
-0.0000000000000004
 30
11.05964177012919
 70
    32
  0
VERTEX
  5
C7
330
C0
100
AcDbEntity
  8
0
100
AcDbVertex
100
AcDb3dPolylineVertex
 10
-108.5446250487888
 20
-0.0000000000000004
 30
2.46094416893892
 70
    32
  0
SEQEND
  5
C8
330
C0
100
AcDbEntity
  8
0
  0
POLYLINE
  5
C9
330
6B
100
AcDbEntity
  8
0
100
AcDb3dPolyline
 66
     1
 10
0.0
 20
0.0
 30
0.0
 70
     8
  0
VERTEX
  5
CA
330
C9
100
AcDbEntity
  8
0
100
AcDbVertex
100
AcDb3dPolylineVertex
 10
-70.56704397686528
 20
0.0
 30
55.94314082959836
 70
    32
  0
VERTEX
  5
CB
330
C9
100
AcDbEntity
  8
0
100
AcDbVertex
100
AcDb3dPolylineVertex
 10
-56.87695763495955
 20
-0.0000000000000449
 30
63.08855413698927
 70
    32
  0
VERTEX
  5
CC
330
C9
100
AcDbEntity
  8
0
100
AcDbVertex
100
AcDb3dPolylineVertex
 10
-5.599304271403719
 20
0.0
 30
75.72842013515185
 70
    32
  0
VERTEX
  5
CD
330
C9
100
AcDbEntity
  8
0
100
AcDbVertex
100
AcDb3dPolylineVertex
 10
-0.1001061625300783
 20
-0.0000000000000451
 30
80.97210713808519
 70
    32
  0
SEQEND
  5
CE
330
C9
100
AcDbEntity
  8
0
  0
POLYLINE
  5
CF
330
6B
100
AcDbEntity
  8
0
100
AcDb3dPolyline
 66
     1
 10
0.0
 20
0.0
 30
0.0
 70
     8
  0
VERTEX
  5
D0
330
CF
100
AcDbEntity
  8
0
100
AcDbVertex
100
AcDb3dPolylineVertex
 10
-125.8437501517349
 20
0.0
 30
35.49795181920757
 70
    32
  0
VERTEX
  5
D1
330
CF
100
AcDbEntity
  8
0
100
AcDbVertex
100
AcDb3dPolylineVertex
 10
-97.91815097480128
 20
0.0
 30
36.78054935564339
 70
    32
  0
VERTEX
  5
D2
330
CF
100
AcDbEntity
  8
0
100
AcDbVertex
100
AcDb3dPolylineVertex
 10
-88.03122065317949
 20
0.0000000000000004
 30
42.32868458869621
 70
    32
  0
VERTEX
  5
D3
330
CF
100
AcDbEntity
  8
0
100
AcDbVertex
100
AcDb3dPolylineVertex
 10
-70.56704397686528
 20
0.0
 30
55.94314082959836
 70
    32
  0
SEQEND
  5
D4
330
CF
100
AcDbEntity
  8
0
  0
LINE
  5
D5
330
6B
100
AcDbEntity
  8
0
100
AcDbLine
 10
128.938795945253
 20
0.0
 30
44.32142843661658
 11
132.9771927151856
 21
0.0000000000000007
 31
38.06302507426212
  0
POLYLINE
  5
D6
330
6B
100
AcDbEntity
  8
0
100
AcDb3dPolyline
 66
     1
 10
0.0
 20
0.0
 30
0.0
 70
     8
  0
VERTEX
  5
D7
330
D6
100
AcDbEntity
  8
0
100
AcDbVertex
100
AcDb3dPolylineVertex
 10
58.19304335203584
 20
0.0000000000000004
 30
45.19353307075716
 70
    32
  0
VERTEX
  5
D8
330
D6
100
AcDbEntity
  8
0
100
AcDbVertex
100
AcDb3dPolylineVertex
 10
109.4631450413235
 20
-0.0000000000000899
 30
43.2893351657608
 70
    32
  0
VERTEX
  5
D9
330
D6
100
AcDbEntity
  8
0
100
AcDbVertex
100
AcDb3dPolylineVertex
 10
128.938795945253
 20
0.0
 30
44.32142843661658
 70
    32
  0
SEQEND
  5
DA
330
D6
100
AcDbEntity
  8
0
  0
POLYLINE
  5
DB
330
6B
100
AcDbEntity
  8
0
100
AcDb3dPolyline
 66
     1
 10
0.0
 20
0.0
 30
0.0
 70
     8
  0
VERTEX
  5
DC
330
DB
100
AcDbEntity
  8
0
100
AcDbVertex
100
AcDb3dPolylineVertex
 10
54.84857298602623
 20
-0.0000000000000449
 30
38.32399659338467
 70
    32
  0
VERTEX
  5
DD
330
DB
100
AcDbEntity
  8
0
100
AcDbVertex
100
AcDb3dPolylineVertex
 10
55.5884133270224
 20
0.0
 30
45.29027036741751
 70
    32
  0
VERTEX
  5
DE
330
DB
100
AcDbEntity
  8
0
100
AcDbVertex
100
AcDb3dPolylineVertex
 10
58.19304335203584
 20
0.0000000000000004
 30
45.19353307075716
 70
    32
  0
SEQEND
  5
DF
330
DB
100
AcDbEntity
  8
0
  0
POLYLINE
  5
E0
330
6B
100
AcDbEntity
  8
0
100
AcDb3dPolyline
 66
     1
 10
0.0
 20
0.0
 30
0.0
 70
     8
  0
VERTEX
  5
E1
330
E0
100
AcDbEntity
  8
0
100
AcDbVertex
100
AcDb3dPolylineVertex
 10
54.84857298602623
 20
-0.0000000000000449
 30
38.32399659338467
 70
    32
  0
VERTEX
  5
E2
330
E0
100
AcDbEntity
  8
0
100
AcDbVertex
100
AcDb3dPolylineVertex
 10
109.3172234346805
 20
-0.0000000000000448
 30
36.17966078845205
 70
    32
  0
VERTEX
  5
E3
330
E0
100
AcDbEntity
  8
0
100
AcDbVertex
100
AcDb3dPolylineVertex
 10
132.9771927151856
 20
0.0000000000000007
 30
38.06302507426212
 70
    32
  0
SEQEND
  5
E4
330
E0
100
AcDbEntity
  8
0
  0
LINE
  5
E5
330
6B
100
AcDbEntity
  8
0
100
AcDbLine
 10
-172.7786044801964
 20
-0.0000000000000007
 30
50.14246037691922
 11
-180.9540701043967
 21
-0.0000000000000007
 31
44.9223521701811
  0
LINE
  5
E6
330
6B
100
AcDbEntity
  8
0
100
AcDbLine
 10
-127.6527925088837
 20
0.0
 30
43.23179697127159
 11
-125.8437501517349
 21
0.0
 31
35.49795181920757
  0
POLYLINE
  5
E7
330
6B
100
AcDbEntity
  8
0
100
AcDb3dPolyline
 66
     1
 10
0.0
 20
0.0
 30
0.0
 70
     8
  0
VERTEX
  5
E8
330
E7
100
AcDbEntity
  8
0
100
AcDbVertex
100
AcDb3dPolylineVertex
 10
-127.6527925088837
 20
0.0
 30
43.23179697127159
 70
    32
  0
VERTEX
  5
E9
330
E7
100
AcDbEntity
  8
0
100
AcDbVertex
100
AcDb3dPolylineVertex
 10
-155.7673186440116
 20
0.0
 30
43.23179697127159
 70
    32
  0
VERTEX
  5
EA
330
E7
100
AcDbEntity
  8
0
100
AcDbVertex
100
AcDb3dPolylineVertex
 10
-167.595124969435
 20
-0.0000000000000007
 30
44.78903558037241
 70
    32
  0
VERTEX
  5
EB
330
E7
100
AcDbEntity
  8
0
100
AcDbVertex
100
AcDb3dPolylineVertex
 10
-172.7786044801964
 20
-0.0000000000000007
 30
50.14246037691922
 70
    32
  0
SEQEND
  5
EC
330
E7
100
AcDbEntity
  8
0
  0
POLYLINE
  5
ED
330
6B
100
AcDbEntity
  8
0
100
AcDb3dPolyline
 66
     1
 10
0.0
 20
0.0
 30
0.0
 70
     8
  0
VERTEX
  5
EE
330
ED
100
AcDbEntity
  8
0
100
AcDbVertex
100
AcDb3dPolylineVertex
 10
-159.5139745300166
 20
0.0000000000000007
 30
67.51276675139876
 70
    32
  0
VERTEX
  5
EF
330
ED
100
AcDbEntity
  8
0
100
AcDbVertex
100
AcDb3dPolylineVertex
 10
-134.7431886251524
 20
-0.0000000000000007
 30
56.23112839067579
 70
    32
  0
VERTEX
  5
F0
330
ED
100
AcDbEntity
  8
0
100
AcDbVertex
100
AcDb3dPolylineVertex
 10
-127.6527925088837
 20
0.0
 30
43.23179697127159
 70
    32
  0
SEQEND
  5
F1
330
ED
100
AcDbEntity
  8
0
  0
POLYLINE
  5
F2
330
6B
100
AcDbEntity
  8
0
100
AcDb3dPolyline
 66
     1
 10
0.0
 20
0.0
 30
0.0
 70
     8
  0
VERTEX
  5
F3
330
F2
100
AcDbEntity
  8
0
100
AcDbVertex
100
AcDb3dPolylineVertex
 10
-159.5139745300166
 20
0.0000000000000007
 30
67.51276675139876
 70
    32
  0
VERTEX
  5
F4
330
F2
100
AcDbEntity
  8
0
100
AcDbVertex
100
AcDb3dPolylineVertex
 10
-171.0021868725004
 20
0.0
 30
61.59463720068982
 70
    32
  0
VERTEX
  5
F5
330
F2
100
AcDbEntity
  8
0
100
AcDbVertex
100
AcDb3dPolylineVertex
 10
-173.1962606918234
 20
-0.0000000000000451
 30
55.94314082959836
 70
    32
  0
VERTEX
  5
F6
330
F2
100
AcDbEntity
  8
0
100
AcDbVertex
100
AcDb3dPolylineVertex
 10
-172.7786044801964
 20
-0.0000000000000007
 30
50.14246037691922
 70
    32
  0
SEQEND
  5
F7
330
F2
100
AcDbEntity
  8
0
  0
POLYLINE
  5
F8
330
6B
100
AcDbEntity
  8
0
100
AcDb3dPolyline
 66
     1
 10
0.0
 20
0.0
 30
0.0
 70
     8
  0
VERTEX
  5
F9
330
F8
100
AcDbEntity
  8
0
100
AcDbVertex
100
AcDb3dPolylineVertex
 10
126.5193640551634
 20
0.0
 30
0.0
 70
    32
  0
VERTEX
  5
FA
330
F8
100
AcDbEntity
  8
0
100
AcDbVertex
100
AcDb3dPolylineVertex
 10
141.1993149543246
 20
-0.0000000000000895
 30
2.180964500909
 70
    32
  0
SEQEND
  5
FB
330
F8
100
AcDbEntity
  8
0
  0
POLYLINE
  5
FC
330
6B
100
AcDbEntity
  8
0
100
AcDb3dPolyline
 66
     1
 10
0.0
 20
0.0
 30
0.0
 70
     8
  0
VERTEX
  5
FD
330
FC
100
AcDbEntity
  8
0
100
AcDbVertex
100
AcDb3dPolylineVertex
 10
58.72854546183918
 20
-0.0000000000000004
 30
15.85978047482235
 70
    32
  0
VERTEX
  5
FE
330
FC
100
AcDbEntity
  8
0
100
AcDbVertex
100
AcDb3dPolylineVertex
 10
64.87386190419105
 20
-0.0000000000000004
 30
20.22096800506185
 70
    32
  0
VERTEX
  5
FF
330
FC
100
AcDbEntity
  8
0
100
AcDbVertex
100
AcDb3dPolylineVertex
 10
83.50897049722349
 20
0.0000000000000004
 30
19.22947221033295
 70
    32
  0
VERTEX
  5
100
330
FC
100
AcDbEntity
  8
0
100
AcDbVertex
100
AcDb3dPolylineVertex
 10
119.391746065656
 20
0.0000000000000007
 30
6.740273236915363
 70
    32
  0
VERTEX
  5
101
330
FC
100
AcDbEntity
  8
0
100
AcDbVertex
100
AcDb3dPolylineVertex
 10
141.1993149543246
 20
-0.0000000000000895
 30
2.180964500909
 70
    32
  0
SEQEND
  5
102
330
FC
100
AcDbEntity
  8
0
  0
POLYLINE
  5
103
330
6B
100
AcDbEntity
  8
0
100
AcDb3dPolyline
 66
     1
 10
0.0
 20
0.0
 30
0.0
 70
     8
  0
VERTEX
  5
104
330
103
100
AcDbEntity
  8
0
100
AcDbVertex
100
AcDb3dPolylineVertex
 10
58.72854546183918
 20
-0.0000000000000004
 30
15.85978047482235
 70
    32
  0
VERTEX
  5
105
330
103
100
AcDbEntity
  8
0
100
AcDbVertex
100
AcDb3dPolylineVertex
 10
62.08978442135506
 20
0.0000000000000004
 30
7.335526620110377
 70
    32
  0
VERTEX
  5
106
330
103
100
AcDbEntity
  8
0
100
AcDbVertex
100
AcDb3dPolylineVertex
 10
76.16602916132722
 20
0.0
 30
3.370284912773392
 70
    32
  0
VERTEX
  5
107
330
103
100
AcDbEntity
  8
0
100
AcDbVertex
100
AcDb3dPolylineVertex
 10
126.5193640551634
 20
0.0
 30
0.0
 70
    32
  0
SEQEND
  5
108
330
103
100
AcDbEntity
  8
0
  0
POLYLINE
  5
109
330
6B
100
AcDbEntity
  8
0
100
AcDb3dPolyline
 66
     1
 10
0.0
 20
0.0
 30
0.0
 70
     8
  0
VERTEX
  5
10A
330
109
100
AcDbEntity
  8
0
100
AcDbVertex
100
AcDb3dPolylineVertex
 10
-179.296732832203
 20
-0.0000000000000007
 30
21.37914661063057
 70
    32
  0
VERTEX
  5
10B
330
109
100
AcDbEntity
  8
0
100
AcDbVertex
100
AcDb3dPolylineVertex
 10
-166.4535553272239
 20
-0.0000000000000451
 30
12.50640111403814
 70
    32
  0
VERTEX
  5
10C
330
109
100
AcDbEntity
  8
0
100
AcDbVertex
100
AcDb3dPolylineVertex
 10
-129.3212518547552
 20
-0.0000000000000007
 30
3.499004378795599
 70
    32
  0
VERTEX
  5
10D
330
109
100
AcDbEntity
  8
0
100
AcDbVertex
100
AcDb3dPolylineVertex
 10
-108.5446250487888
 20
-0.0000000000000004
 30
2.46094416893892
 70
    32
  0
SEQEND
  5
10E
330
109
100
AcDbEntity
  8
0
  0
POLYLINE
  5
10F
330
6B
100
AcDbEntity
  8
0
100
AcDb3dPolyline
 66
     1
 10
0.0
 20
0.0
 30
0.0
 70
     8
  0
VERTEX
  5
110
330
10F
100
AcDbEntity
  8
0
100
AcDbVertex
100
AcDb3dPolylineVertex
 10
64.46323494403472
 20
0.0000000000000004
 30
59.77921818796617
 70
    32
  0
VERTEX
  5
111
330
10F
100
AcDbEntity
  8
0
100
AcDbVertex
100
AcDb3dPolylineVertex
 10
62.71084101548007
 20
0.0000000000000004
 30
59.41070681346699
 70
    32
  0
VERTEX
  5
112
330
10F
100
AcDbEntity
  8
0
100
AcDbVertex
100
AcDb3dPolylineVertex
 10
87.77280077367736
 20
-0.0000000000000007
 30
96.69289009042791
 70
    32
  0
SEQEND
  5
113
330
10F
100
AcDbEntity
  8
0
  0
POLYLINE
  5
114
330
6B
100
AcDbEntity
  8
0
100
AcDb3dPolyline
 66
     1
 10
0.0
 20
0.0
 30
0.0
 70
     8
  0
VERTEX
  5
115
330
114
100
AcDbEntity
  8
0
100
AcDbVertex
100
AcDb3dPolylineVertex
 10
128.938795945253
 20
0.0
 30
44.32142843661658
 70
    32
  0
VERTEX
  5
116
330
114
100
AcDbEntity
  8
0
100
AcDbVertex
100
AcDb3dPolylineVertex
 10
120.6101321633963
 20
0.0000000000000451
 30
53.69247800031351
 70
    32
  0
VERTEX
  5
117
330
114
100
AcDbEntity
  8
0
100
AcDbVertex
100
AcDb3dPolylineVertex
 10
107.0287455548939
 20
-0.0000000000000451
 30
57.62376030935635
 70
    32
  0
VERTEX
  5
118
330
114
100
AcDbEntity
  8
0
100
AcDbVertex
100
AcDb3dPolylineVertex
 10
76.29326568419323
 20
-0.0000000000000451
 30
62.27011780867505
 70
    32
  0
VERTEX
  5
119
330
114
100
AcDbEntity
  8
0
100
AcDbVertex
100
AcDb3dPolylineVertex
 10
64.46323494403472
 20
0.0000000000000004
 30
59.77921818796617
 70
    32
  0
SEQEND
  5
11A
330
114
100
AcDbEntity
  8
0
  0
POLYLINE
  5
11B
330
6B
100
AcDbEntity
  8
0
100
AcDb3dPolyline
 66
     1
 10
0.0
 20
0.0
 30
0.0
 70
     8
  0
VERTEX
  5
11C
330
11B
100
AcDbEntity
  8
0
100
AcDbVertex
100
AcDb3dPolylineVertex
 10
132.9771927151856
 20
0.0000000000000007
 30
38.06302507426212
 70
    32
  0
VERTEX
  5
11D
330
11B
100
AcDbEntity
  8
0
100
AcDbVertex
100
AcDb3dPolylineVertex
 10
134.585388474381
 20
-0.0000000000000444
 30
35.57076432821324
 70
    32
  0
VERTEX
  5
11E
330
11B
100
AcDbEntity
  8
0
100
AcDbVertex
100
AcDb3dPolylineVertex
 10
156.3739756906426
 20
0.0
 30
42.51242124584092
 70
    32
  0
VERTEX
  5
11F
330
11B
100
AcDbEntity
  8
0
100
AcDbVertex
100
AcDb3dPolylineVertex
 10
171.7983640545878
 20
-0.0000000000000458
 30
61.21515204682926
 70
    32
  0
VERTEX
  5
120
330
11B
100
AcDbEntity
  8
0
100
AcDbVertex
100
AcDb3dPolylineVertex
 10
169.5478495196186
 20
-0.0000000000000451
 30
63.38217688206311
 70
    32
  0
SEQEND
  5
121
330
11B
100
AcDbEntity
  8
0
  0
LINE
  5
122
330
6B
100
AcDbEntity
  8
0
100
AcDbLine
 10
169.5478495196186
 20
-0.0000000000000451
 30
63.38217688206311
 11
165.7621922285875
 21
0.0000000000000007
 31
67.02739945613278
  0
POLYLINE
  5
123
330
6B
100
AcDbEntity
  8
0
100
AcDb3dPolyline
 66
     1
 10
0.0
 20
0.0
 30
0.0
 70
     8
  0
VERTEX
  5
124
330
123
100
AcDbEntity
  8
0
100
AcDbVertex
100
AcDb3dPolylineVertex
 10
87.77280077367736
 20
-0.0000000000000007
 30
96.69289009042791
 70
    32
  0
VERTEX
  5
125
330
123
100
AcDbEntity
  8
0
100
AcDbVertex
100
AcDb3dPolylineVertex
 10
112.3691204516593
 20
0.0
 30
94.49506578620473
 70
    32
  0
VERTEX
  5
126
330
123
100
AcDbEntity
  8
0
100
AcDbVertex
100
AcDb3dPolylineVertex
 10
155.8365570905678
 20
0.0000000000000014
 30
76.1340050885744
 70
    32
  0
VERTEX
  5
127
330
123
100
AcDbEntity
  8
0
100
AcDbVertex
100
AcDb3dPolylineVertex
 10
165.7621922285875
 20
0.0000000000000007
 30
67.02739945613278
 70
    32
  0
SEQEND
  5
128
330
123
100
AcDbEntity
  8
0
  0
LINE
  5
129
330
6B
100
AcDbEntity
  8
0
100
AcDbLine
 10
189.3807313005084
 20
-0.0000000000000451
 30
100.5993047031094
 11
181.062013367349
 21
-0.0000000000000451
 31
112.0577098881389
  0
POLYLINE
  5
12A
330
6B
100
AcDbEntity
  8
0
100
AcDb3dPolyline
 66
     1
 10
0.0
 20
0.0
 30
0.0
 70
     8
  0
VERTEX
  5
12B
330
12A
100
AcDbEntity
  8
0
100
AcDbVertex
100
AcDb3dPolylineVertex
 10
178.296027791028
 20
0.0
 30
86.57348003047238
 70
    32
  0
VERTEX
  5
12C
330
12A
100
AcDbEntity
  8
0
100
AcDbVertex
100
AcDb3dPolylineVertex
 10
182.9417921130846
 20
-0.0000000000000451
 30
101.5836823706852
 70
    32
  0
VERTEX
  5
12D
330
12A
100
AcDbEntity
  8
0
100
AcDbVertex
100
AcDb3dPolylineVertex
 10
181.062013367349
 20
-0.0000000000000451
 30
112.0577098881389
 70
    32
  0
SEQEND
  5
12E
330
12A
100
AcDbEntity
  8
0
  0
LINE
  5
12F
330
6B
100
AcDbEntity
  8
0
100
AcDbLine
 10
178.296027791028
 20
0.0
 30
86.57348003047238
 11
189.3807313005084
 21
-0.0000000000000451
 31
100.5993047031094
  0
LINE
  5
130
330
6B
100
AcDbEntity
  8
0
100
AcDbLine
 10
29.42959262726396
 20
-0.0000000000002254
 30
523.3993003516479
 11
136.0528529735976
 21
-0.0000000000001339
 31
535.1438945889095
  0
POLYLINE
  5
131
330
6B
100
AcDbEntity
  8
0
100
AcDb3dPolyline
 66
     1
 10
0.0
 20
0.0
 30
0.0
 70
     8
  0
VERTEX
  5
132
330
131
100
AcDbEntity
  8
0
100
AcDbVertex
100
AcDb3dPolylineVertex
 10
29.42959262726396
 20
-0.0000000000002254
 30
523.3993003516479
 70
    32
  0
VERTEX
  5
133
330
131
100
AcDbEntity
  8
0
100
AcDbVertex
100
AcDb3dPolylineVertex
 10
43.23994565919784
 20
-0.0000000000000904
 30
468.417699865008
 70
    32
  0
VERTEX
  5
134
330
131
100
AcDbEntity
  8
0
100
AcDbVertex
100
AcDb3dPolylineVertex
 10
59.80545878240695
 20
-0.0000000000000902
 30
415.6541374582019
 70
    32
  0
VERTEX
  5
135
330
131
100
AcDbEntity
  8
0
100
AcDbVertex
100
AcDb3dPolylineVertex
 10
71.93934457542282
 20
-0.0000000000000899
 30
342.5070764763321
 70
    32
  0
VERTEX
  5
136
330
131
100
AcDbEntity
  8
0
100
AcDbVertex
100
AcDb3dPolylineVertex
 10
97.24962520078148
 20
-0.0000000000000899
 30
234.3613706361955
 70
    32
  0
VERTEX
  5
137
330
131
100
AcDbEntity
  8
0
100
AcDbVertex
100
AcDb3dPolylineVertex
 10
103.5177293365269
 20
-0.0000000000000902
 30
207.7858429093386
 70
    32
  0
VERTEX
  5
138
330
131
100
AcDbEntity
  8
0
100
AcDbVertex
100
AcDb3dPolylineVertex
 10
104.8055171740119
 20
-0.0000000000000444
 30
180.9973645451444
 70
    32
  0
VERTEX
  5
139
330
131
100
AcDbEntity
  8
0
100
AcDbVertex
100
AcDb3dPolylineVertex
 10
100.4361734564094
 20
-0.0000000000000004
 30
150.2046430685855
 70
    32
  0
VERTEX
  5
13A
330
131
100
AcDbEntity
  8
0
100
AcDbVertex
100
AcDb3dPolylineVertex
 10
99.33286374764701
 20
-0.0000000000000455
 30
127.8304415996493
 70
    32
  0
VERTEX
  5
13B
330
131
100
AcDbEntity
  8
0
100
AcDbVertex
100
AcDb3dPolylineVertex
 10
95.42323240869587
 20
-0.0000000000000448
 30
109.3240524726392
 70
    32
  0
VERTEX
  5
13C
330
131
100
AcDbEntity
  8
0
100
AcDbVertex
100
AcDb3dPolylineVertex
 10
87.77280077367736
 20
-0.0000000000000007
 30
96.69289009042791
 70
    32
  0
SEQEND
  5
13D
330
131
100
AcDbEntity
  8
0
  0
POLYLINE
  5
13E
330
6B
100
AcDbEntity
  8
0
100
AcDb3dPolyline
 66
     1
 10
0.0
 20
0.0
 30
0.0
 70
     8
  0
VERTEX
  5
13F
330
13E
100
AcDbEntity
  8
0
100
AcDbVertex
100
AcDb3dPolylineVertex
 10
165.7621922285875
 20
0.0000000000000007
 30
67.02739945613278
 70
    32
  0
VERTEX
  5
140
330
13E
100
AcDbEntity
  8
0
100
AcDbVertex
100
AcDb3dPolylineVertex
 10
168.2885341907465
 20
-0.0000000000000444
 30
71.56194304141829
 70
    32
  0
VERTEX
  5
141
330
13E
100
AcDbEntity
  8
0
100
AcDbVertex
100
AcDb3dPolylineVertex
 10
178.296027791028
 20
0.0
 30
86.57348003047238
 70
    32
  0
SEQEND
  5
142
330
13E
100
AcDbEntity
  8
0
  0
POLYLINE
  5
143
330
6B
100
AcDbEntity
  8
0
100
AcDb3dPolyline
 66
     1
 10
0.0
 20
0.0
 30
0.0
 70
     8
  0
VERTEX
  5
144
330
143
100
AcDbEntity
  8
0
100
AcDbVertex
100
AcDb3dPolylineVertex
 10
181.062013367349
 20
-0.0000000000000451
 30
112.0577098881389
 70
    32
  0
VERTEX
  5
145
330
143
100
AcDbEntity
  8
0
100
AcDbVertex
100
AcDb3dPolylineVertex
 10
180.4403635959612
 20
-0.0000000000000451
 30
115.5221616913781
 70
    32
  0
VERTEX
  5
146
330
143
100
AcDbEntity
  8
0
100
AcDbVertex
100
AcDb3dPolylineVertex
 10
172.2201130884214
 20
-0.0000000000000902
 30
126.2447304819354
 70
    32
  0
VERTEX
  5
147
330
143
100
AcDbEntity
  8
0
100
AcDbVertex
100
AcDb3dPolylineVertex
 10
160.4253763953975
 20
-0.0000000000000895
 30
163.7713485398346
 70
    32
  0
VERTEX
  5
148
330
143
100
AcDbEntity
  8
0
100
AcDbVertex
100
AcDb3dPolylineVertex
 10
158.7852412638251
 20
-0.0000000000000902
 30
184.4816877866859
 70
    32
  0
VERTEX
  5
149
330
143
100
AcDbEntity
  8
0
100
AcDbVertex
100
AcDb3dPolylineVertex
 10
174.0201094923121
 20
-0.0000000000000895
 30
347.1492817348109
 70
    32
  0
VERTEX
  5
14A
330
143
100
AcDbEntity
  8
0
100
AcDbVertex
100
AcDb3dPolylineVertex
 10
168.2861614816954
 20
-0.0000000000000902
 30
396.2072657810619
 70
    32
  0
VERTEX
  5
14B
330
143
100
AcDbEntity
  8
0
100
AcDbVertex
100
AcDb3dPolylineVertex
 10
153.631717204833
 20
-0.0000000000000902
 30
454.1855977992414
 70
    32
  0
VERTEX
  5
14C
330
143
100
AcDbEntity
  8
0
100
AcDbVertex
100
AcDb3dPolylineVertex
 10
137.7043145220538
 20
-0.0000000000001347
 30
491.1390583269834
 70
    32
  0
VERTEX
  5
14D
330
143
100
AcDbEntity
  8
0
100
AcDbVertex
100
AcDb3dPolylineVertex
 10
136.0528529735976
 20
-0.0000000000001339
 30
535.1438945889095
 70
    32
  0
SEQEND
  5
14E
330
143
100
AcDbEntity
  8
0
  0
POLYLINE
  5
14F
330
6B
100
AcDbEntity
  8
0
100
AcDb3dPolyline
 66
     1
 10
0.0
 20
0.0
 30
0.0
 70
     8
  0
VERTEX
  5
150
330
14F
100
AcDbEntity
  8
0
100
AcDbVertex
100
AcDb3dPolylineVertex
 10
109.4803471819437
 20
-0.0000000000003617
 30
1071.250850418051
 70
    32
  0
VERTEX
  5
151
330
14F
100
AcDbEntity
  8
0
100
AcDbVertex
100
AcDb3dPolylineVertex
 10
132.727557287369
 20
-0.000000000000361
 30
1205.083504445407
 70
    32
  0
VERTEX
  5
152
330
14F
100
AcDbEntity
  8
0
100
AcDbVertex
100
AcDb3dPolylineVertex
 10
150.8337000563217
 20
-0.0000000000003617
 30
1246.469926952185
 70
    32
  0
VERTEX
  5
153
330
14F
100
AcDbEntity
  8
0
100
AcDbVertex
100
AcDb3dPolylineVertex
 10
163.386517291172
 20
-0.0000000000003603
 30
1275.162356035571
 70
    32
  0
VERTEX
  5
154
330
14F
100
AcDbEntity
  8
0
100
AcDbVertex
100
AcDb3dPolylineVertex
 10
173.7665262124759
 20
-0.0000000000002693
 30
1272.806255947829
 70
    32
  0
SEQEND
  5
155
330
14F
100
AcDbEntity
  8
0
  0
LINE
  5
156
330
6B
100
AcDbEntity
  8
0
100
AcDbLine
 10
189.4875032078094
 20
0.0
 30
92.14519405972055
 11
169.5478495196186
 21
-0.0000000000000451
 31
63.38217688206311
  0
POLYLINE
  5
157
330
6B
100
AcDbEntity
  8
0
100
AcDb3dPolyline
 66
     1
 10
0.0
 20
0.0
 30
0.0
 70
     8
  0
VERTEX
  5
158
330
157
100
AcDbEntity
  8
0
100
AcDbVertex
100
AcDb3dPolylineVertex
 10
173.7665262124759
 20
-0.0000000000002693
 30
1272.806255947829
 70
    32
  0
VERTEX
  5
159
330
157
100
AcDbEntity
  8
0
100
AcDbVertex
100
AcDb3dPolylineVertex
 10
163.9126655232539
 20
-0.0000000000005428
 30
1283.274055104027
 70
    32
  0
VERTEX
  5
15A
330
157
100
AcDbEntity
  8
0
100
AcDbVertex
100
AcDb3dPolylineVertex
 10
159.571201137002
 20
-0.0000000000004526
 30
1306.001048749999
 70
    32
  0
VERTEX
  5
15B
330
157
100
AcDbEntity
  8
0
100
AcDbVertex
100
AcDb3dPolylineVertex
 10
161.189981887114
 20
-0.0000000000004519
 30
1323.521873854909
 70
    32
  0
VERTEX
  5
15C
330
157
100
AcDbEntity
  8
0
100
AcDbVertex
100
AcDb3dPolylineVertex
 10
164.0746029159911
 20
-0.0000000000004519
 30
1338.126861977486
 70
    32
  0
VERTEX
  5
15D
330
157
100
AcDbEntity
  8
0
100
AcDbVertex
100
AcDb3dPolylineVertex
 10
174.5335044132449
 20
-0.0000000000004519
 30
1350.387910146212
 70
    32
  0
VERTEX
  5
15E
330
157
100
AcDbEntity
  8
0
100
AcDbVertex
100
AcDb3dPolylineVertex
 10
187.7400029916732
 20
-0.000000000000497
 30
1355.832165211122
 70
    32
  0
VERTEX
  5
15F
330
157
100
AcDbEntity
  8
0
100
AcDbVertex
100
AcDb3dPolylineVertex
 10
204.2659215325933
 20
-0.0000000000006317
 30
1357.75754445893
 70
    32
  0
VERTEX
  5
160
330
157
100
AcDbEntity
  8
0
100
AcDbVertex
100
AcDb3dPolylineVertex
 10
214.7064345347011
 20
-0.0000000000005428
 30
1355.437257448428
 70
    32
  0
SEQEND
  5
161
330
157
100
AcDbEntity
  8
0
  0
POLYLINE
  5
162
330
6B
100
AcDbEntity
  8
0
100
AcDb3dPolyline
 66
     1
 10
0.0
 20
0.0
 30
0.0
 70
     8
  0
VERTEX
  5
163
330
162
100
AcDbEntity
  8
0
100
AcDbVertex
100
AcDb3dPolylineVertex
 10
214.7064345347011
 20
-0.0000000000005428
 30
1355.437257448428
 70
    32
  0
VERTEX
  5
164
330
162
100
AcDbEntity
  8
0
100
AcDbVertex
100
AcDb3dPolylineVertex
 10
217.2609524168427
 20
-0.0000000000004963
 30
1354.869364366478
 70
    32
  0
VERTEX
  5
165
330
162
100
AcDbEntity
  8
0
100
AcDbVertex
100
AcDb3dPolylineVertex
 10
163.2981338790185
 20
-0.0000000000004068
 30
1403.698752725086
 70
    32
  0
VERTEX
  5
166
330
162
100
AcDbEntity
  8
0
100
AcDbVertex
100
AcDb3dPolylineVertex
 10
160.5895279924385
 20
-0.0000000000004963
 30
1405.179983916314
 70
    32
  0
SEQEND
  5
167
330
162
100
AcDbEntity
  8
0
  0
POLYLINE
  5
168
330
6B
100
AcDbEntity
  8
0
100
AcDb3dPolyline
 66
     1
 10
0.0
 20
0.0
 30
0.0
 70
     8
  0
VERTEX
  5
169
330
168
100
AcDbEntity
  8
0
100
AcDbVertex
100
AcDb3dPolylineVertex
 10
160.5895279924385
 20
-0.0000000000004963
 30
1405.179983916314
 70
    32
  0
VERTEX
  5
16A
330
168
100
AcDbEntity
  8
0
100
AcDbVertex
100
AcDb3dPolylineVertex
 10
151.8361696304118
 20
-0.0000000000003151
 30
1409.966931007991
 70
    32
  0
VERTEX
  5
16B
330
168
100
AcDbEntity
  8
0
100
AcDbVertex
100
AcDb3dPolylineVertex
 10
84.26527150726152
 20
-0.0000000000005411
 30
1426.739833731699
 70
    32
  0
SEQEND
  5
16C
330
168
100
AcDbEntity
  8
0
  0
POLYLINE
  5
16D
330
6B
100
AcDbEntity
  8
0
100
AcDb3dPolyline
 66
     1
 10
0.0
 20
0.0
 30
0.0
 70
     8
  0
VERTEX
  5
16E
330
16D
100
AcDbEntity
  8
0
100
AcDbVertex
100
AcDb3dPolylineVertex
 10
84.26527150726152
 20
-0.0000000000005411
 30
1426.739833731699
 70
    32
  0
VERTEX
  5
16F
330
16D
100
AcDbEntity
  8
0
100
AcDbVertex
100
AcDb3dPolylineVertex
 10
57.45010016624244
 20
-0.000000000000451
 30
1393.121808952539
 70
    32
  0
VERTEX
  5
170
330
16D
100
AcDbEntity
  8
0
100
AcDbVertex
100
AcDb3dPolylineVertex
 10
36.02023689964474
 20
-0.0000000000004514
 30
1366.707699588317
 70
    32
  0
VERTEX
  5
171
330
16D
100
AcDbEntity
  8
0
100
AcDbVertex
100
AcDb3dPolylineVertex
 10
13.59339094863695
 20
-0.0000000000004512
 30
1347.520194669324
 70
    32
  0
VERTEX
  5
172
330
16D
100
AcDbEntity
  8
0
100
AcDbVertex
100
AcDb3dPolylineVertex
 10
-22.78839499210538
 20
-0.0000000000004962
 30
1326.339243411616
 70
    32
  0
VERTEX
  5
173
330
16D
100
AcDbEntity
  8
0
100
AcDbVertex
100
AcDb3dPolylineVertex
 10
-41.22790338273794
 20
-0.0000000000004061
 30
1333.316416817855
 70
    32
  0
VERTEX
  5
174
330
16D
100
AcDbEntity
  8
0
100
AcDbVertex
100
AcDb3dPolylineVertex
 10
-54.43469854979797
 20
-0.0000000000005416
 30
1341.539781506024
 70
    32
  0
VERTEX
  5
175
330
16D
100
AcDbEntity
  8
0
100
AcDbVertex
100
AcDb3dPolylineVertex
 10
-64.90101476283583
 20
-0.0000000000005411
 30
1353.500978568413
 70
    32
  0
VERTEX
  5
176
330
16D
100
AcDbEntity
  8
0
100
AcDbVertex
100
AcDb3dPolylineVertex
 10
-71.37969682686766
 20
-0.0000000000004508
 30
1365.212448003175
 70
    32
  0
VERTEX
  5
177
330
16D
100
AcDbEntity
  8
0
100
AcDbVertex
100
AcDb3dPolylineVertex
 10
-74.12076895815223
 20
-0.000000000000361
 30
1381.160908478781
 70
    32
  0
VERTEX
  5
178
330
16D
100
AcDbEntity
  8
0
100
AcDbVertex
100
AcDb3dPolylineVertex
 10
-73.12467603963682
 20
-0.000000000000361
 30
1392.872377913542
 70
    32
  0
VERTEX
  5
179
330
16D
100
AcDbEntity
  8
0
100
AcDbVertex
100
AcDb3dPolylineVertex
 10
-60.29825579233118
 20
-0.0000000000004956
 30
1409.315029196201
 70
    32
  0
VERTEX
  5
17A
330
16D
100
AcDbEntity
  8
0
100
AcDbVertex
100
AcDb3dPolylineVertex
 10
-46.02537278974852
 20
-0.0000000000003611
 30
1419.394148950961
 70
    32
  0
SEQEND
  5
17B
330
16D
100
AcDbEntity
  8
0
  0
LINE
  5
17C
330
6B
100
AcDbEntity
  8
0
100
AcDbLine
 10
-109.1466813327885
 20
-0.0000000000004071
 30
1391.728529521642
 11
-46.02537278974852
 21
-0.0000000000003611
 31
1419.394148950961
  0
POLYLINE
  5
17D
330
6B
100
AcDbEntity
  8
0
100
AcDb3dPolyline
 66
     1
 10
0.0
 20
0.0
 30
0.0
 70
     8
  0
VERTEX
  5
17E
330
17D
100
AcDbEntity
  8
0
100
AcDbVertex
100
AcDb3dPolylineVertex
 10
-171.6250229984146
 20
-0.0000000000003624
 30
1323.409021880665
 70
    32
  0
VERTEX
  5
17F
330
17D
100
AcDbEntity
  8
0
100
AcDbVertex
100
AcDb3dPolylineVertex
 10
-180.7313320422243
 20
-0.0000000000004519
 30
1340.121642965043
 70
    32
  0
VERTEX
  5
180
330
17D
100
AcDbEntity
  8
0
100
AcDbVertex
100
AcDb3dPolylineVertex
 10
-155.9399332274792
 20
-0.0000000000004075
 30
1362.6722405225
 70
    32
  0
VERTEX
  5
181
330
17D
100
AcDbEntity
  8
0
100
AcDbVertex
100
AcDb3dPolylineVertex
 10
-129.7118590822935
 20
-0.0000000000004526
 30
1382.714958760095
 70
    32
  0
VERTEX
  5
182
330
17D
100
AcDbEntity
  8
0
100
AcDbVertex
100
AcDb3dPolylineVertex
 10
-109.1466813327885
 20
-0.0000000000004071
 30
1391.728529521642
 70
    32
  0
SEQEND
  5
183
330
17D
100
AcDbEntity
  8
0
  0
POLYLINE
  5
184
330
6B
100
AcDbEntity
  8
0
100
AcDb3dPolyline
 66
     1
 10
0.0
 20
0.0
 30
0.0
 70
     8
  0
VERTEX
  5
185
330
184
100
AcDbEntity
  8
0
100
AcDbVertex
100
AcDb3dPolylineVertex
 10
-140.6980951661536
 20
-0.000000000000361
 30
1274.616558806658
 70
    32
  0
VERTEX
  5
186
330
184
100
AcDbEntity
  8
0
100
AcDbVertex
100
AcDb3dPolylineVertex
 10
-149.799658791861
 20
-0.0000000000004526
 30
1283.353689151554
 70
    32
  0
VERTEX
  5
187
330
184
100
AcDbEntity
  8
0
100
AcDbVertex
100
AcDb3dPolylineVertex
 10
-171.6250229984146
 20
-0.0000000000003624
 30
1323.409021880665
 70
    32
  0
SEQEND
  5
188
330
184
100
AcDbEntity
  8
0
  0
POLYLINE
  5
189
330
6B
100
AcDbEntity
  8
0
100
AcDb3dPolyline
 66
     1
 10
0.0
 20
0.0
 30
0.0
 70
     8
  0
VERTEX
  5
18A
330
189
100
AcDbEntity
  8
0
100
AcDbVertex
100
AcDb3dPolylineVertex
 10
-140.6980951661536
 20
-0.000000000000361
 30
1274.616558806658
 70
    32
  0
VERTEX
  5
18B
330
189
100
AcDbEntity
  8
0
100
AcDbVertex
100
AcDb3dPolylineVertex
 10
-132.8457628558508
 20
-0.000000000000361
 30
1217.208047696533
 70
    32
  0
VERTEX
  5
18C
330
189
100
AcDbEntity
  8
0
100
AcDbVertex
100
AcDb3dPolylineVertex
 10
-119.4481129044919
 20
-0.0000000000004068
 30
1172.549066231025
 70
    32
  0
VERTEX
  5
18D
330
189
100
AcDbEntity
  8
0
100
AcDbVertex
100
AcDb3dPolylineVertex
 10
-118.3375367742614
 20
-0.0000000000001791
 30
1114.696339498238
 70
    32
  0
SEQEND
  5
18E
330
189
100
AcDbEntity
  8
0
  0
POLYLINE
  5
18F
330
6B
100
AcDbEntity
  8
0
100
AcDb3dPolyline
 66
     1
 10
0.0
 20
0.0
 30
0.0
 70
     8
  0
VERTEX
  5
190
330
18F
100
AcDbEntity
  8
0
100
AcDbVertex
100
AcDb3dPolylineVertex
 10
-118.3375367742614
 20
-0.0000000000001791
 30
1114.696339498238
 70
    32
  0
VERTEX
  5
191
330
18F
100
AcDbEntity
  8
0
100
AcDbVertex
100
AcDb3dPolylineVertex
 10
-115.9160388932966
 20
-0.0000000000002707
 30
1046.802604649822
 70
    32
  0
VERTEX
  5
192
330
18F
100
AcDbEntity
  8
0
100
AcDbVertex
100
AcDb3dPolylineVertex
 10
-142.0039749101536
 20
-0.0000000000003158
 30
931.277328777814
 70
    32
  0
VERTEX
  5
193
330
18F
100
AcDbEntity
  8
0
100
AcDbVertex
100
AcDb3dPolylineVertex
 10
-139.3038320099998
 20
-0.0000000000002707
 30
930.6665044914705
 70
    32
  0
SEQEND
  5
194
330
18F
100
AcDbEntity
  8
0
  0
POLYLINE
  5
195
330
6B
100
AcDbEntity
  8
0
100
AcDb3dPolyline
 66
     1
 10
0.0
 20
0.0
 30
0.0
 70
     8
  0
VERTEX
  5
196
330
195
100
AcDbEntity
  8
0
100
AcDbVertex
100
AcDb3dPolylineVertex
 10
-139.3038320099998
 20
-0.0000000000002707
 30
930.6665044914705
 70
    32
  0
VERTEX
  5
197
330
195
100
AcDbEntity
  8
0
100
AcDbVertex
100
AcDb3dPolylineVertex
 10
-100.5193815663866
 20
-0.0000000000001812
 30
921.8940059522881
 70
    32
  0
VERTEX
  5
198
330
195
100
AcDbEntity
  8
0
100
AcDbVertex
100
AcDb3dPolylineVertex
 10
-12.61080781172312
 20
-0.0000000000002707
 30
916.4618368741078
 70
    32
  0
VERTEX
  5
199
330
195
100
AcDbEntity
  8
0
100
AcDbVertex
100
AcDb3dPolylineVertex
 10
78.75480303039467
 20
-0.0000000000002711
 30
916.4618368741078
 70
    32
  0
VERTEX
  5
19A
330
195
100
AcDbEntity
  8
0
100
AcDbVertex
100
AcDb3dPolylineVertex
 10
164.4008504105173
 20
-0.0000000000003158
 30
926.0308241828806
 70
    32
  0
SEQEND
  5
19B
330
195
100
AcDbEntity
  8
0
  0
POLYLINE
  5
19C
330
6B
100
AcDbEntity
  8
0
100
AcDb3dPolyline
 66
     1
 10
0.0
 20
0.0
 30
0.0
 70
     8
  0
VERTEX
  5
19D
330
19C
100
AcDbEntity
  8
0
100
AcDbVertex
100
AcDb3dPolylineVertex
 10
164.4008504105173
 20
-0.0000000000003158
 30
926.0308241828806
 70
    32
  0
VERTEX
  5
19E
330
19C
100
AcDbEntity
  8
0
100
AcDbVertex
100
AcDb3dPolylineVertex
 10
167.156751973372
 20
-0.0000000000003151
 30
926.3386831822635
 70
    32
  0
VERTEX
  5
19F
330
19C
100
AcDbEntity
  8
0
100
AcDbVertex
100
AcDb3dPolylineVertex
 10
135.4775270775961
 20
-0.0000000000003617
 30
999.2481766703914
 70
    32
  0
SEQEND
  5
1A0
330
19C
100
AcDbEntity
  8
0
  0
POLYLINE
  5
1A1
330
6B
100
AcDbEntity
  8
0
100
AcDb3dPolyline
 66
     1
 10
0.0
 20
0.0
 30
0.0
 70
     8
  0
VERTEX
  5
1A2
330
1A1
100
AcDbEntity
  8
0
100
AcDbVertex
100
AcDb3dPolylineVertex
 10
135.4775270775961
 20
-0.0000000000003617
 30
999.2481766703914
 70
    32
  0
VERTEX
  5
1A3
330
1A1
100
AcDbEntity
  8
0
100
AcDbVertex
100
AcDb3dPolylineVertex
 10
108.5158409526709
 20
-0.0000000000004064
 30
994.3590613762797
 70
    32
  0
VERTEX
  5
1A4
330
1A1
100
AcDbEntity
  8
0
100
AcDbVertex
100
AcDb3dPolylineVertex
 10
85.84089861150844
 20
-0.0000000000003155
 30
988.9492847397721
 70
    32
  0
VERTEX
  5
1A5
330
1A1
100
AcDbEntity
  8
0
100
AcDbVertex
100
AcDb3dPolylineVertex
 10
56.37051754799178
 20
-0.0000000000002261
 30
981.2066902230813
 70
    32
  0
VERTEX
  5
1A6
330
1A1
100
AcDbEntity
  8
0
100
AcDbVertex
100
AcDb3dPolylineVertex
 10
51.03666760111633
 20
-0.0000000000003608
 30
982.3132624067872
 70
    32
  0
VERTEX
  5
1A7
330
1A1
100
AcDbEntity
  8
0
100
AcDbVertex
100
AcDb3dPolylineVertex
 10
48.62184296435804
 20
-0.0000000000003158
 30
984.0244305155783
 70
    32
  0
VERTEX
  5
1A8
330
1A1
100
AcDbEntity
  8
0
100
AcDbVertex
100
AcDb3dPolylineVertex
 10
47.81749459603478
 20
-0.0000000000003608
 30
986.640787127366
 70
    32
  0
VERTEX
  5
1A9
330
1A1
100
AcDbEntity
  8
0
100
AcDbVertex
100
AcDb3dPolylineVertex
 10
48.01843339380046
 20
-0.0000000000002707
 30
989.3576872851905
 70
    32
  0
VERTEX
  5
1AA
330
1A1
100
AcDbEntity
  8
0
100
AcDbVertex
100
AcDb3dPolylineVertex
 10
49.93054030035601
 20
-0.0000000000002707
 30
992.2756745350991
 70
    32
  0
VERTEX
  5
1AB
330
1A1
100
AcDbEntity
  8
0
100
AcDbVertex
100
AcDb3dPolylineVertex
 10
56.97481688444417
 20
-0.0000000000002714
 30
994.3885719451026
 70
    32
  0
VERTEX
  5
1AC
330
1A1
100
AcDbEntity
  8
0
100
AcDbVertex
100
AcDb3dPolylineVertex
 10
88.47000853444361
 20
-0.0000000000001808
 30
1008.778310868454
 70
    32
  0
VERTEX
  5
1AD
330
1A1
100
AcDbEntity
  8
0
100
AcDbVertex
100
AcDb3dPolylineVertex
 10
85.95464035164525
 20
-0.0000000000002711
 30
1011.293975639885
 70
    32
  0
VERTEX
  5
1AE
330
1A1
100
AcDbEntity
  8
0
100
AcDbVertex
100
AcDb3dPolylineVertex
 10
25.19608650283711
 20
-0.0000000000003609
 30
1000.496814808533
 70
    32
  0
VERTEX
  5
1AF
330
1A1
100
AcDbEntity
  8
0
100
AcDbVertex
100
AcDb3dPolylineVertex
 10
21.04859108151237
 20
-0.0000000000001805
 30
1001.666263782094
 70
    32
  0
VERTEX
  5
1B0
330
1A1
100
AcDbEntity
  8
0
100
AcDbVertex
100
AcDb3dPolylineVertex
 10
19.02837761881555
 20
-0.0000000000002707
 30
1004.218853838132
 70
    32
  0
VERTEX
  5
1B1
330
1A1
100
AcDbEntity
  8
0
100
AcDbVertex
100
AcDb3dPolylineVertex
 10
18.28379185971683
 20
-0.000000000000361
 30
1007.409109451653
 70
    32
  0
VERTEX
  5
1B2
330
1A1
100
AcDbEntity
  8
0
100
AcDbVertex
100
AcDb3dPolylineVertex
 10
18.81527868716351
 20
-0.0000000000004061
 30
1010.492889746505
 70
    32
  0
VERTEX
  5
1B3
330
1A1
100
AcDbEntity
  8
0
100
AcDbVertex
100
AcDb3dPolylineVertex
 10
20.83623362143859
 20
-0.000000000000361
 30
1013.151213649631
 70
    32
  0
VERTEX
  5
1B4
330
1A1
100
AcDbEntity
  8
0
100
AcDbVertex
100
AcDb3dPolylineVertex
 10
25.62154289456284
 20
-0.0000000000002707
 30
1014.959069652257
 70
    32
  0
VERTEX
  5
1B5
330
1A1
100
AcDbEntity
  8
0
100
AcDbVertex
100
AcDb3dPolylineVertex
 10
54.44017044060471
 20
-0.0000000000003606
 30
1023.254282936379
 70
    32
  0
VERTEX
  5
1B6
330
1A1
100
AcDbEntity
  8
0
100
AcDbVertex
100
AcDb3dPolylineVertex
 10
60.0766890858111
 20
-0.0000000000002711
 30
1025.486928006308
 70
    32
  0
VERTEX
  5
1B7
330
1A1
100
AcDbEntity
  8
0
100
AcDbVertex
100
AcDb3dPolylineVertex
 10
79.8566297959999
 20
-0.0000000000002711
 30
1028.677776797091
 70
    32
  0
VERTEX
  5
1B8
330
1A1
100
AcDbEntity
  8
0
100
AcDbVertex
100
AcDb3dPolylineVertex
 10
74.8586664741714
 20
-0.000000000000361
 30
1030.591959824069
 70
    32
  0
VERTEX
  5
1B9
330
1A1
100
AcDbEntity
  8
0
100
AcDbVertex
100
AcDb3dPolylineVertex
 10
51.35609355712085
 20
-0.000000000000316
 30
1030.591959824069
 70
    32
  0
VERTEX
  5
1BA
330
1A1
100
AcDbEntity
  8
0
100
AcDbVertex
100
AcDb3dPolylineVertex
 10
16.68873820011433
 20
-0.000000000000361
 30
1022.190345368435
 70
    32
  0
VERTEX
  5
1BB
330
1A1
100
AcDbEntity
  8
0
100
AcDbVertex
100
AcDb3dPolylineVertex
 10
12.04178752353293
 20
-0.0000000000004061
 30
1022.35643500201
 70
    32
  0
VERTEX
  5
1BC
330
1A1
100
AcDbEntity
  8
0
100
AcDbVertex
100
AcDb3dPolylineVertex
 10
9.577877468280102
 20
-0.0000000000003158
 30
1023.856357858097
 70
    32
  0
VERTEX
  5
1BD
330
1A1
100
AcDbEntity
  8
0
100
AcDbVertex
100
AcDb3dPolylineVertex
 10
7.756674977244177
 20
-0.0000000000003609
 30
1026.856870894686
 70
    32
  0
VERTEX
  5
1BE
330
1A1
100
AcDbEntity
  8
0
100
AcDbVertex
100
AcDb3dPolylineVertex
 10
7.648716715419284
 20
-0.0000000000001805
 30
1029.642802056469
 70
    32
  0
VERTEX
  5
1BF
330
1A1
100
AcDbEntity
  8
0
100
AcDbVertex
100
AcDb3dPolylineVertex
 10
8.292165751214279
 20
-0.0000000000002707
 30
1032.535950008498
 70
    32
  0
VERTEX
  5
1C0
330
1A1
100
AcDbEntity
  8
0
100
AcDbVertex
100
AcDb3dPolylineVertex
 10
11.07772617720718
 20
-0.0000000000004061
 30
1035.321881170279
 70
    32
  0
VERTEX
  5
1C1
330
1A1
100
AcDbEntity
  8
0
100
AcDbVertex
100
AcDb3dPolylineVertex
 10
46.3309923755199
 20
-0.0000000000002705
 30
1047.108609970255
 70
    32
  0
VERTEX
  5
1C2
330
1A1
100
AcDbEntity
  8
0
100
AcDbVertex
100
AcDb3dPolylineVertex
 10
51.50157028081627
 20
-0.0000000000001805
 30
1048.085721216363
 70
    32
  0
VERTEX
  5
1C3
330
1A1
100
AcDbEntity
  8
0
100
AcDbVertex
100
AcDb3dPolylineVertex
 10
79.54476685009585
 20
-0.0000000000002711
 30
1049.243899821931
 70
    32
  0
VERTEX
  5
1C4
330
1A1
100
AcDbEntity
  8
0
100
AcDbVertex
100
AcDb3dPolylineVertex
 10
57.78806291170815
 20
-0.0000000000001812
 30
1053.958917589415
 70
    32
  0
VERTEX
  5
1C5
330
1A1
100
AcDbEntity
  8
0
100
AcDbVertex
100
AcDb3dPolylineVertex
 10
37.91454848831723
 20
-0.0000000000002707
 30
1051.666213321632
 70
    32
  0
VERTEX
  5
1C6
330
1A1
100
AcDbEntity
  8
0
100
AcDbVertex
100
AcDb3dPolylineVertex
 10
27.9247019116031
 20
-0.0000000000004512
 30
1048.99046483641
 70
    32
  0
VERTEX
  5
1C7
330
1A1
100
AcDbEntity
  8
0
100
AcDbVertex
100
AcDb3dPolylineVertex
 10
22.84087618098828
 20
-0.0000000000003157
 30
1049.525659021749
 70
    32
  0
VERTEX
  5
1C8
330
1A1
100
AcDbEntity
  8
0
100
AcDbVertex
100
AcDb3dPolylineVertex
 10
19.89723401446551
 20
-0.0000000000003609
 30
1051.220292314341
 70
    32
  0
VERTEX
  5
1C9
330
1A1
100
AcDbEntity
  8
0
100
AcDbVertex
100
AcDb3dPolylineVertex
 10
18.73757246573992
 20
-0.0000000000002256
 30
1053.539986147581
 70
    32
  0
VERTEX
  5
1CA
330
1A1
100
AcDbEntity
  8
0
100
AcDbVertex
100
AcDb3dPolylineVertex
 10
18.82714223241872
 20
-0.0000000000001805
 30
1056.126239013279
 70
    32
  0
VERTEX
  5
1CB
330
1A1
100
AcDbEntity
  8
0
100
AcDbVertex
100
AcDb3dPolylineVertex
 10
20.34271013880968
 20
-0.0000000000002706
 30
1058.713085056243
 70
    32
  0
VERTEX
  5
1CC
330
1A1
100
AcDbEntity
  8
0
100
AcDbVertex
100
AcDb3dPolylineVertex
 10
27.47878090431238
 20
-0.0000000000002709
 30
1063.439892221826
 70
    32
  0
VERTEX
  5
1CD
330
1A1
100
AcDbEntity
  8
0
100
AcDbVertex
100
AcDb3dPolylineVertex
 10
56.28880738004456
 20
-0.0000000000001807
 30
1071.021661553147
 70
    32
  0
VERTEX
  5
1CE
330
1A1
100
AcDbEntity
  8
0
100
AcDbVertex
100
AcDb3dPolylineVertex
 10
108.0596876375963
 20
-0.0000000000002707
 30
1062.349261677057
 70
    32
  0
VERTEX
  5
1CF
330
1A1
100
AcDbEntity
  8
0
100
AcDbVertex
100
AcDb3dPolylineVertex
 10
109.4803471819437
 20
-0.0000000000003617
 30
1071.250850418051
 70
    32
  0
SEQEND
  5
1D0
330
1A1
100
AcDbEntity
  8
0
  0
POLYLINE
  5
1D1
330
6B
100
AcDbEntity
  8
0
100
AcDb3dPolyline
 66
     1
 10
0.0
 20
0.0
 30
0.0
 70
     8
  0
VERTEX
  5
1D2
330
1D1
100
AcDbEntity
  8
0
100
AcDbVertex
100
AcDb3dPolylineVertex
 10
189.4875032078094
 20
0.0
 30
92.14519405972055
 70
    32
  0
VERTEX
  5
1D3
330
1D1
100
AcDbEntity
  8
0
100
AcDbVertex
100
AcDb3dPolylineVertex
 10
183.5207331215534
 20
0.0000000000000451
 30
24.17404957851201
 70
    32
  0
VERTEX
  5
1D4
330
1D1
100
AcDbEntity
  8
0
100
AcDbVertex
100
AcDb3dPolylineVertex
 10
168.4297103792873
 20
-0.0000000000000007
 30
17.79368664578543
 70
    32
  0
VERTEX
  5
1D5
330
1D1
100
AcDbEntity
  8
0
100
AcDbVertex
100
AcDb3dPolylineVertex
 10
156.862160577907
 20
0.0000000000000007
 30
9.212042890899905
 70
    32
  0
VERTEX
  5
1D6
330
1D1
100
AcDbEntity
  8
0
100
AcDbVertex
100
AcDb3dPolylineVertex
 10
141.1993149543246
 20
-0.0000000000000895
 30
2.180964500909
 70
    32
  0
SEQEND
  5
1D7
330
1D1
100
AcDbEntity
  8
0
  0
POLYLINE
  5
1D8
330
6B
100
AcDbEntity
  8
0
100
AcDb3dPolyline
 66
     1
 10
0.0
 20
0.0
 30
0.0
 70
     8
  0
VERTEX
  5
1D9
330
1D8
100
AcDbEntity
  8
0
100
AcDbVertex
100
AcDb3dPolylineVertex
 10
-178.5195223236514
 20
-0.0000000000001805
 30
790.0308487316612
 70
    32
  0
VERTEX
  5
1DA
330
1D8
100
AcDbEntity
  8
0
100
AcDbVertex
100
AcDb3dPolylineVertex
 10
-178.2785440606491
 20
-0.000000000000227
 30
787.5531473050497
 70
    32
  0
VERTEX
  5
1DB
330
1D8
100
AcDbEntity
  8
0
100
AcDbVertex
100
AcDb3dPolylineVertex
 10
-173.0275906362467
 20
-0.0000000000002256
 30
782.5461380299623
 70
    32
  0
SEQEND
  5
1DC
330
1D8
100
AcDbEntity
  8
0
  0
POLYLINE
  5
1DD
330
6B
100
AcDbEntity
  8
0
100
AcDb3dPolyline
 66
     1
 10
0.0
 20
0.0
 30
0.0
 70
     8
  0
VERTEX
  5
1DE
330
1DD
100
AcDbEntity
  8
0
100
AcDbVertex
100
AcDb3dPolylineVertex
 10
-178.5195223236514
 20
-0.0000000000001805
 30
790.0308487316612
 70
    32
  0
VERTEX
  5
1DF
330
1DD
100
AcDbEntity
  8
0
100
AcDbVertex
100
AcDb3dPolylineVertex
 10
-172.828579664585
 20
-0.0000000000001798
 30
784.6832074134268
 70
    32
  0
VERTEX
  5
1E0
330
1DD
100
AcDbEntity
  8
0
100
AcDbVertex
100
AcDb3dPolylineVertex
 10
-160.4947931340152
 20
-0.0000000000002707
 30
784.0624474079319
 70
    32
  0
VERTEX
  5
1E1
330
1DD
100
AcDbEntity
  8
0
100
AcDbVertex
100
AcDb3dPolylineVertex
 10
-158.0899042164081
 20
-0.0000000000003617
 30
782.9761915454744
 70
    32
  0
VERTEX
  5
1E2
330
1DD
100
AcDbEntity
  8
0
100
AcDbVertex
100
AcDb3dPolylineVertex
 10
-156.9690957783947
 20
-0.00000000000027
 30
780.4117379441819
 70
    32
  0
SEQEND
  5
1E3
330
1DD
100
AcDbEntity
  8
0
  0
LINE
  5
1E4
330
6B
100
AcDbEntity
  8
0
100
AcDbLine
 10
-153.7170025214628
 20
-0.0000000000002707
 30
761.2973668808156
 11
-154.4154676621468
 21
-0.0000000000001805
 31
759.2907717371745
  0
POLYLINE
  5
1E5
330
6B
100
AcDbEntity
  8
0
100
AcDb3dPolyline
 66
     1
 10
0.0
 20
0.0
 30
0.0
 70
     8
  0
VERTEX
  5
1E6
330
1E5
100
AcDbEntity
  8
0
100
AcDbVertex
100
AcDb3dPolylineVertex
 10
-102.8395944297322
 20
-0.0000000000000895
 30
530.7082822892488
 70
    32
  0
VERTEX
  5
1E7
330
1E5
100
AcDbEntity
  8
0
100
AcDbVertex
100
AcDb3dPolylineVertex
 10
-171.7862189195736
 20
-0.0000000000001361
 30
545.8360820218076
 70
    32
  0
VERTEX
  5
1E8
330
1E5
100
AcDbEntity
  8
0
100
AcDbVertex
100
AcDb3dPolylineVertex
 10
-150.7702450880775
 20
-0.0000000000001368
 30
641.5808240063633
 70
    32
  0
VERTEX
  5
1E9
330
1E5
100
AcDbEntity
  8
0
100
AcDbVertex
100
AcDb3dPolylineVertex
 10
-154.4154676621468
 20
-0.0000000000001805
 30
759.2907717371745
 70
    32
  0
SEQEND
  5
1EA
330
1E5
100
AcDbEntity
  8
0
  0
LINE
  5
1EB
330
6B
100
AcDbEntity
  8
0
100
AcDbLine
 10
29.42959262726396
 20
-0.0000000000002254
 30
523.3993003516479
 11
11.6326498370701
 21
-0.0000000000001805
 31
521.4388629966857
  0
POLYLINE
  5
1EC
330
6B
100
AcDbEntity
  8
0
100
AcDb3dPolyline
 66
     1
 10
0.0
 20
0.0
 30
0.0
 70
     8
  0
VERTEX
  5
1ED
330
1EC
100
AcDbEntity
  8
0
100
AcDbVertex
100
AcDb3dPolylineVertex
 10
164.4008504105173
 20
-0.0000000000003158
 30
926.0308241828806
 70
    32
  0
VERTEX
  5
1EE
330
1EC
100
AcDbEntity
  8
0
100
AcDbVertex
100
AcDb3dPolylineVertex
 10
176.0555972695257
 20
-0.0000000000002707
 30
842.8724139485241
 70
    32
  0
VERTEX
  5
1EF
330
1EC
100
AcDbEntity
  8
0
100
AcDbVertex
100
AcDb3dPolylineVertex
 10
178.5546530775979
 20
-0.0000000000002249
 30
809.8549811479278
 70
    32
  0
VERTEX
  5
1F0
330
1EC
100
AcDbEntity
  8
0
100
AcDbVertex
100
AcDb3dPolylineVertex
 10
181.2316620645028
 20
-0.0000000000001798
 30
694.7320277543967
 70
    32
  0
VERTEX
  5
1F1
330
1EC
100
AcDbEntity
  8
0
100
AcDbVertex
100
AcDb3dPolylineVertex
 10
187.696107874228
 20
-0.0000000000001812
 30
618.3776573126987
 70
    32
  0
VERTEX
  5
1F2
330
1EC
100
AcDbEntity
  8
0
100
AcDbVertex
100
AcDb3dPolylineVertex
 10
203.4218302876641
 20
-0.0000000000002707
 30
542.5647094176005
 70
    32
  0
VERTEX
  5
1F3
330
1EC
100
AcDbEntity
  8
0
100
AcDbVertex
100
AcDb3dPolylineVertex
 10
136.0528529735976
 20
-0.0000000000001339
 30
535.1438945889095
 70
    32
  0
SEQEND
  5
1F4
330
1EC
100
AcDbEntity
  8
0
  0
LINE
  5
1F5
330
6B
100
AcDbEntity
  8
0
100
AcDbLine
 10
-154.0242672573466
 20
-0.00000000000027
 30
858.1686760237068
 11
-139.3038320099998
 21
-0.0000000000002707
 31
930.6665044914705
  0
POLYLINE
  5
1F6
330
6B
100
AcDbEntity
  8
0
100
AcDb3dPolyline
 66
     1
 10
0.0
 20
0.0
 30
0.0
 70
     8
  0
VERTEX
  5
1F7
330
1F6
100
AcDbEntity
  8
0
100
AcDbVertex
100
AcDb3dPolylineVertex
 10
-155.7822963698974
 20
-0.00000000000027
 30
790.4186383672005
 70
    32
  0
VERTEX
  5
1F8
330
1F6
100
AcDbEntity
  8
0
100
AcDbVertex
100
AcDb3dPolylineVertex
 10
-149.2650577837848
 20
-0.0000000000002249
 30
791.3072179068388
 70
    32
  0
VERTEX
  5
1F9
330
1F6
100
AcDbEntity
  8
0
100
AcDbVertex
100
AcDb3dPolylineVertex
 10
-145.1186004226706
 20
-0.0000000000002249
 30
796.7875826376186
 70
    32
  0
VERTEX
  5
1FA
330
1F6
100
AcDbEntity
  8
0
100
AcDbVertex
100
AcDb3dPolylineVertex
 10
-144.2291311171385
 20
-0.00000000000027
 30
807.7483120991799
 70
    32
  0
VERTEX
  5
1FB
330
1F6
100
AcDbEntity
  8
0
100
AcDbVertex
100
AcDb3dPolylineVertex
 10
-150.1542305006853
 20
-0.0000000000002256
 30
824.6336960613409
 70
    32
  0
VERTEX
  5
1FC
330
1F6
100
AcDbEntity
  8
0
100
AcDbVertex
100
AcDb3dPolylineVertex
 10
-152.2279782113476
 20
-0.00000000000027
 30
853.072393570576
 70
    32
  0
VERTEX
  5
1FD
330
1F6
100
AcDbEntity
  8
0
100
AcDbVertex
100
AcDb3dPolylineVertex
 10
-154.0242672573466
 20
-0.00000000000027
 30
858.1686760237068
 70
    32
  0
SEQEND
  5
1FE
330
1F6
100
AcDbEntity
  8
0
  0
LINE
  5
1FF
330
6B
100
AcDbEntity
  8
0
100
AcDbLine
 10
-155.7822963698974
 20
-0.00000000000027
 30
790.4186383672005
 11
-155.7822963698974
 21
-0.00000000000027
 31
780.2615158023841
  0
POLYLINE
  5
200
330
6B
100
AcDbEntity
  8
0
100
AcDb3dPolyline
 66
     1
 10
0.0
 20
0.0
 30
0.0
 70
     8
  0
VERTEX
  5
201
330
200
100
AcDbEntity
  8
0
100
AcDbVertex
100
AcDb3dPolylineVertex
 10
-146.3887412365879
 20
-0.0000000000001805
 30
768.8900110863514
 70
    32
  0
VERTEX
  5
202
330
200
100
AcDbEntity
  8
0
100
AcDbVertex
100
AcDb3dPolylineVertex
 10
-145.6524181326983
 20
-0.0000000000001347
 30
767.8187629080326
 70
    32
  0
VERTEX
  5
203
330
200
100
AcDbEntity
  8
0
100
AcDbVertex
100
AcDb3dPolylineVertex
 10
-146.6875542827107
 20
-0.0000000000002714
 30
763.2736604680794
 70
    32
  0
VERTEX
  5
204
330
200
100
AcDbEntity
  8
0
100
AcDbVertex
100
AcDb3dPolylineVertex
 10
-149.0147369788937
 20
-0.0000000000001805
 30
761.5380237971979
 70
    32
  0
VERTEX
  5
205
330
200
100
AcDbEntity
  8
0
100
AcDbVertex
100
AcDb3dPolylineVertex
 10
-153.7170025214628
 20
-0.0000000000002707
 30
761.2973668808156
 70
    32
  0
SEQEND
  5
206
330
200
100
AcDbEntity
  8
0
  0
POLYLINE
  5
207
330
6B
100
AcDbEntity
  8
0
100
AcDb3dPolyline
 66
     1
 10
0.0
 20
0.0
 30
0.0
 70
     8
  0
VERTEX
  5
208
330
207
100
AcDbEntity
  8
0
100
AcDbVertex
100
AcDb3dPolylineVertex
 10
214.7064345347011
 20
-0.0000000000005428
 30
1355.437257448428
 70
    32
  0
VERTEX
  5
209
330
207
100
AcDbEntity
  8
0
100
AcDbVertex
100
AcDb3dPolylineVertex
 10
215.5748460474038
 20
-0.0000000000003158
 30
1354.318895866623
 70
    32
  0
VERTEX
  5
20A
330
207
100
AcDbEntity
  8
0
100
AcDbVertex
100
AcDb3dPolylineVertex
 10
236.97994416328
 20
-0.0000000000004512
 30
1326.755950438715
 70
    32
  0
VERTEX
  5
20B
330
207
100
AcDbEntity
  8
0
100
AcDbVertex
100
AcDb3dPolylineVertex
 10
253.2576180197266
 20
-0.000000000000361
 30
1302.608964572818
 70
    32
  0
VERTEX
  5
20C
330
207
100
AcDbEntity
  8
0
100
AcDbVertex
100
AcDb3dPolylineVertex
 10
282.1239963354234
 20
-0.0000000000005837
 30
1275.819522295568
 70
    32
  0
VERTEX
  5
20D
330
207
100
AcDbEntity
  8
0
100
AcDbVertex
100
AcDb3dPolylineVertex
 10
319.5807677706319
 20
-0.0000000000004033
 30
1230.957748353347
 70
    32
  0
VERTEX
  5
20E
330
207
100
AcDbEntity
  8
0
100
AcDbVertex
100
AcDb3dPolylineVertex
 10
342.6808699148875
 20
-0.0000000000002256
 30
1196.680777782406
 70
    32
  0
VERTEX
  5
20F
330
207
100
AcDbEntity
  8
0
100
AcDbVertex
100
AcDb3dPolylineVertex
 10
351.0464488518076
 20
-0.0000000000004526
 30
1182.763652843173
 70
    32
  0
VERTEX
  5
210
330
207
100
AcDbEntity
  8
0
100
AcDbVertex
100
AcDb3dPolylineVertex
 10
354.195626939882
 20
-0.0000000000004498
 30
1173.185619581139
 70
    32
  0
VERTEX
  5
211
330
207
100
AcDbEntity
  8
0
100
AcDbVertex
100
AcDb3dPolylineVertex
 10
354.4578112900272
 20
-0.0000000000002693
 30
1165.181582185884
 70
    32
  0
VERTEX
  5
212
330
207
100
AcDbEntity
  8
0
100
AcDbVertex
100
AcDb3dPolylineVertex
 10
350.9936560754207
 20
-0.0000000000004512
 30
1157.833969579043
 70
    32
  0
VERTEX
  5
213
330
207
100
AcDbEntity
  8
0
100
AcDbVertex
100
AcDb3dPolylineVertex
 10
332.7937912989499
 20
-0.000000000000361
 30
1143.952657717048
 70
    32
  0
VERTEX
  5
214
330
207
100
AcDbEntity
  8
0
100
AcDbVertex
100
AcDb3dPolylineVertex
 10
273.5662279653652
 20
-0.0000000000004498
 30
1087.936407789814
 70
    32
  0
VERTEX
  5
215
330
207
100
AcDbEntity
  8
0
100
AcDbVertex
100
AcDb3dPolylineVertex
 10
194.1083540848291
 20
-0.0000000000002707
 30
1036.368690744763
 70
    32
  0
VERTEX
  5
216
330
207
100
AcDbEntity
  8
0
100
AcDbVertex
100
AcDb3dPolylineVertex
 10
180.8146584487721
 20
-0.0000000000001798
 30
1027.213296282459
 70
    32
  0
VERTEX
  5
217
330
207
100
AcDbEntity
  8
0
100
AcDbVertex
100
AcDb3dPolylineVertex
 10
168.0210112452352
 20
-0.0000000000004512
 30
1015.709587183982
 70
    32
  0
VERTEX
  5
218
330
207
100
AcDbEntity
  8
0
100
AcDbVertex
100
AcDb3dPolylineVertex
 10
143.3851731676529
 20
-0.0000000000003158
 30
1000.68218270315
 70
    32
  0
VERTEX
  5
219
330
207
100
AcDbEntity
  8
0
100
AcDbVertex
100
AcDb3dPolylineVertex
 10
135.4775270775961
 20
-0.0000000000003617
 30
999.2481766703914
 70
    32
  0
SEQEND
  5
21A
330
207
100
AcDbEntity
  8
0
  0
POLYLINE
  5
21B
330
6B
100
AcDbEntity
  8
0
100
AcDb3dPolyline
 66
     1
 10
0.0
 20
0.0
 30
0.0
 70
     8
  0
VERTEX
  5
21C
330
21B
100
AcDbEntity
  8
0
100
AcDbVertex
100
AcDb3dPolylineVertex
 10
173.7665262124759
 20
-0.0000000000002693
 30
1272.806255947829
 70
    32
  0
VERTEX
  5
21D
330
21B
100
AcDbEntity
  8
0
100
AcDbVertex
100
AcDb3dPolylineVertex
 10
176.1362693772631
 20
-0.0000000000004512
 30
1270.289108233241
 70
    32
  0
VERTEX
  5
21E
330
21B
100
AcDbEntity
  8
0
100
AcDbVertex
100
AcDb3dPolylineVertex
 10
230.6928583551246
 20
-0.0000000000003172
 30
1212.335022335677
 70
    32
  0
VERTEX
  5
21F
330
21B
100
AcDbEntity
  8
0
100
AcDbVertex
100
AcDb3dPolylineVertex
 10
268.8658913351325
 20
-0.0000000000003595
 30
1177.260599082092
 70
    32
  0
SEQEND
  5
220
330
21B
100
AcDbEntity
  8
0
  0
POLYLINE
  5
221
330
6B
100
AcDbEntity
  8
0
100
AcDb3dPolyline
 66
     1
 10
0.0
 20
0.0
 30
0.0
 70
     8
  0
VERTEX
  5
222
330
221
100
AcDbEntity
  8
0
100
AcDbVertex
100
AcDb3dPolylineVertex
 10
109.4803471819437
 20
-0.0000000000003617
 30
1071.250850418051
 70
    32
  0
VERTEX
  5
223
330
221
100
AcDbEntity
  8
0
100
AcDbVertex
100
AcDb3dPolylineVertex
 10
115.7164197455002
 20
-0.0000000000002256
 30
1061.687127557484
 70
    32
  0
VERTEX
  5
224
330
221
100
AcDbEntity
  8
0
100
AcDbVertex
100
AcDb3dPolylineVertex
 10
128.9169865513011
 20
-0.0000000000004061
 30
1059.34066660026
 70
    32
  0
VERTEX
  5
225
330
221
100
AcDbEntity
  8
0
100
AcDbVertex
100
AcDb3dPolylineVertex
 10
147.1049877825162
 20
-0.0000000000003624
 30
1060.807668118261
 70
    32
  0
VERTEX
  5
226
330
221
100
AcDbEntity
  8
0
100
AcDbVertex
100
AcDb3dPolylineVertex
 10
213.6078702440398
 20
-0.0000000000002693
 30
1110.769431871507
 70
    32
  0
VERTEX
  5
227
330
221
100
AcDbEntity
  8
0
100
AcDbVertex
100
AcDb3dPolylineVertex
 10
268.8658913351325
 20
-0.0000000000003595
 30
1177.260599082092
 70
    32
  0
SEQEND
  5
228
330
221
100
AcDbEntity
  8
0
  0
POLYLINE
  5
229
330
6B
100
AcDbEntity
  8
0
100
AcDb3dPolyline
 66
     1
 10
0.0
 20
0.0
 30
0.0
 70
     8
  0
VERTEX
  5
22A
330
229
100
AcDbEntity
  8
0
100
AcDbVertex
100
AcDb3dPolylineVertex
 10
75.77112139863563
 20
-0.000000000000632
 30
1564.370082742499
 70
    32
  0
VERTEX
  5
22B
330
229
100
AcDbEntity
  8
0
100
AcDbVertex
100
AcDb3dPolylineVertex
 10
79.63834056329846
 20
-0.0000000000005414
 30
1566.83124935291
 70
    32
  0
VERTEX
  5
22C
330
229
100
AcDbEntity
  8
0
100
AcDbVertex
100
AcDb3dPolylineVertex
 10
82.2750134963344
 20
-0.0000000000004064
 30
1567.797831702602
 70
    32
  0
VERTEX
  5
22D
330
229
100
AcDbEntity
  8
0
100
AcDbVertex
100
AcDb3dPolylineVertex
 10
86.839067650443
 20
-0.0000000000005411
 30
1565.374554289849
 70
    32
  0
VERTEX
  5
22E
330
229
100
AcDbEntity
  8
0
100
AcDbVertex
100
AcDb3dPolylineVertex
 10
88.32542157664207
 20
-0.0000000000004505
 30
1562.446557173633
 70
    32
  0
VERTEX
  5
22F
330
229
100
AcDbEntity
  8
0
100
AcDbVertex
100
AcDb3dPolylineVertex
 10
85.96561413100659
 20
-0.0000000000004505
 30
1529.566519056526
 70
    32
  0
VERTEX
  5
230
330
229
100
AcDbEntity
  8
0
100
AcDbVertex
100
AcDb3dPolylineVertex
 10
79.60408457637335
 20
-0.0000000000004512
 30
1521.32825078963
 70
    32
  0
VERTEX
  5
231
330
229
100
AcDbEntity
  8
0
100
AcDbVertex
100
AcDb3dPolylineVertex
 10
76.49079371269738
 20
-0.0000000000005414
 30
1518.676377689236
 70
    32
  0
VERTEX
  5
232
330
229
100
AcDbEntity
  8
0
100
AcDbVertex
100
AcDb3dPolylineVertex
 10
72.68570986630877
 20
-0.0000000000003158
 30
1518.445631734016
 70
    32
  0
VERTEX
  5
233
330
229
100
AcDbEntity
  8
0
100
AcDbVertex
100
AcDb3dPolylineVertex
 10
68.99644388047861
 20
-0.0000000000004057
 30
1519.944590677049
 70
    32
  0
VERTEX
  5
234
330
229
100
AcDbEntity
  8
0
100
AcDbVertex
100
AcDb3dPolylineVertex
 10
66.23075489278928
 20
-0.0000000000004505
 30
1522.668312373399
 70
    32
  0
SEQEND
  5
235
330
229
100
AcDbEntity
  8
0
  0
POLYLINE
  5
236
330
6B
100
AcDbEntity
  8
0
100
AcDb3dPolyline
 66
     1
 10
0.0
 20
0.0
 30
0.0
 70
     8
  0
VERTEX
  5
237
330
236
100
AcDbEntity
  8
0
100
AcDbVertex
100
AcDb3dPolylineVertex
 10
75.77112139863563
 20
-0.000000000000632
 30
1564.370082742499
 70
    32
  0
VERTEX
  5
238
330
236
100
AcDbEntity
  8
0
100
AcDbVertex
100
AcDb3dPolylineVertex
 10
74.18971081607631
 20
-0.0000000000004505
 30
1578.2566590527
 70
    32
  0
VERTEX
  5
239
330
236
100
AcDbEntity
  8
0
100
AcDbVertex
100
AcDb3dPolylineVertex
 10
68.34676648342425
 20
-0.0000000000004956
 30
1595.270243450776
 70
    32
  0
VERTEX
  5
23A
330
236
100
AcDbEntity
  8
0
100
AcDbVertex
100
AcDb3dPolylineVertex
 10
68.87009712350718
 20
-0.0000000000004508
 30
1582.698296249203
 70
    32
  0
VERTEX
  5
23B
330
236
100
AcDbEntity
  8
0
100
AcDbVertex
100
AcDb3dPolylineVertex
 10
61.53738809539585
 20
-0.0000000000005414
 30
1594.222544110399
 70
    32
  0
VERTEX
  5
23C
330
236
100
AcDbEntity
  8
0
100
AcDbVertex
100
AcDb3dPolylineVertex
 10
51.06128445752161
 20
-0.000000000000451
 30
1620.936727022431
 70
    32
  0
VERTEX
  5
23D
330
236
100
AcDbEntity
  8
0
100
AcDbVertex
100
AcDb3dPolylineVertex
 10
32.98954596980996
 20
-0.0000000000004514
 30
1648.437500058481
 70
    32
  0
VERTEX
  5
23E
330
236
100
AcDbEntity
  8
0
100
AcDbVertex
100
AcDb3dPolylineVertex
 10
40.32284817518504
 20
-0.0000000000005414
 30
1622.770682824617
 70
    32
  0
VERTEX
  5
23F
330
236
100
AcDbEntity
  8
0
100
AcDbVertex
100
AcDb3dPolylineVertex
 10
47.39455920767593
 20
-0.0000000000004963
 30
1598.412896588962
 70
    32
  0
VERTEX
  5
240
330
236
100
AcDbEntity
  8
0
100
AcDbVertex
100
AcDb3dPolylineVertex
 10
37.17989844837015
 20
-0.0000000000003611
 30
1616.22296975663
 70
    32
  0
VERTEX
  5
241
330
236
100
AcDbEntity
  8
0
100
AcDbVertex
100
AcDb3dPolylineVertex
 10
38.75166990040926
 20
-0.0000000000006315
 30
1602.342028630425
 70
    32
  0
VERTEX
  5
242
330
236
100
AcDbEntity
  8
0
100
AcDbVertex
100
AcDb3dPolylineVertex
 10
32.27743666584858
 20
-0.0000000000006318
 30
1621.150419131345
 70
    32
  0
VERTEX
  5
243
330
236
100
AcDbEntity
  8
0
100
AcDbVertex
100
AcDb3dPolylineVertex
 10
25.80809714370568
 20
-0.0000000000005413
 30
1631.600200528186
 70
    32
  0
VERTEX
  5
244
330
236
100
AcDbEntity
  8
0
100
AcDbVertex
100
AcDb3dPolylineVertex
 10
11.17886290051015
 20
-0.0000000000005415
 30
1603.556484928799
 70
    32
  0
VERTEX
  5
245
330
236
100
AcDbEntity
  8
0
100
AcDbVertex
100
AcDb3dPolylineVertex
 10
7.977188624680889
 20
-0.0000000000004512
 30
1655.775102799013
 70
    32
  0
VERTEX
  5
246
330
236
100
AcDbEntity
  8
0
100
AcDbVertex
100
AcDb3dPolylineVertex
 10
-7.540625158150931
 20
-0.000000000000361
 30
1604.049341087009
 70
    32
  0
VERTEX
  5
247
330
236
100
AcDbEntity
  8
0
100
AcDbVertex
100
AcDb3dPolylineVertex
 10
-8.033555463517523
 20
-0.0000000000004512
 30
1612.917118724026
 70
    32
  0
VERTEX
  5
248
330
236
100
AcDbEntity
  8
0
100
AcDbVertex
100
AcDb3dPolylineVertex
 10
-15.66937807290798
 20
-0.000000000000767
 30
1600.354439917181
 70
    32
  0
VERTEX
  5
249
330
236
100
AcDbEntity
  8
0
100
AcDbVertex
100
AcDb3dPolylineVertex
 10
-14.4372006038078
 20
-0.0000000000003609
 30
1609.468163676776
 70
    32
  0
VERTEX
  5
24A
330
236
100
AcDbEntity
  8
0
100
AcDbVertex
100
AcDb3dPolylineVertex
 10
-2.122099157014941
 20
-0.0000000000004963
 30
1653.5577320436
 70
    32
  0
VERTEX
  5
24B
330
236
100
AcDbEntity
  8
0
100
AcDbVertex
100
AcDb3dPolylineVertex
 10
-14.4372006038078
 20
-0.0000000000003609
 30
1641.488613792965
 70
    32
  0
VERTEX
  5
24C
330
236
100
AcDbEntity
  8
0
100
AcDbVertex
100
AcDb3dPolylineVertex
 10
-27.98418293106985
 20
-0.0000000000004513
 30
1614.148035691441
 70
    32
  0
VERTEX
  5
24D
330
236
100
AcDbEntity
  8
0
100
AcDbVertex
100
AcDb3dPolylineVertex
 10
-34.14284586183316
 20
-0.0000000000004965
 30
1603.556484928799
 70
    32
  0
VERTEX
  5
24E
330
236
100
AcDbEntity
  8
0
100
AcDbVertex
100
AcDb3dPolylineVertex
 10
-41.77807529396155
 20
-0.0000000000005414
 30
1600.600756775549
 70
    32
  0
VERTEX
  5
24F
330
236
100
AcDbEntity
  8
0
100
AcDbVertex
100
AcDb3dPolylineVertex
 10
-43.74861016090051
 20
-0.0000000000004965
 30
1605.280925378847
 70
    32
  0
VERTEX
  5
250
330
236
100
AcDbEntity
  8
0
100
AcDbVertex
100
AcDb3dPolylineVertex
 10
-41.039273013175
 20
-0.0000000000004512
 30
1617.350006555903
 70
    32
  0
VERTEX
  5
251
330
236
100
AcDbEntity
  8
0
100
AcDbVertex
100
AcDb3dPolylineVertex
 10
-34.38856954293841
 20
-0.0000000000004514
 30
1639.764469931549
 70
    32
  0
VERTEX
  5
252
330
236
100
AcDbEntity
  8
0
100
AcDbVertex
100
AcDb3dPolylineVertex
 10
-49.90667991440338
 20
-0.0000000000004512
 30
1620.552348156155
 70
    32
  0
VERTEX
  5
253
330
236
100
AcDbEntity
  8
0
100
AcDbVertex
100
AcDb3dPolylineVertex
 10
-67.14797023422855
 20
-0.0000000000004061
 30
1593.457790324366
 70
    32
  0
VERTEX
  5
254
330
236
100
AcDbEntity
  8
0
100
AcDbVertex
100
AcDb3dPolylineVertex
 10
-66.4093162477581
 20
-0.0000000000002718
 30
1604.541678215114
 70
    32
  0
VERTEX
  5
255
330
236
100
AcDbEntity
  8
0
100
AcDbVertex
100
AcDb3dPolylineVertex
 10
-69.98662002523997
 20
-0.0000000000004508
 30
1593.143999552358
 70
    32
  0
VERTEX
  5
256
330
236
100
AcDbEntity
  8
0
100
AcDbVertex
100
AcDb3dPolylineVertex
 10
-74.80959605454996
 20
-0.0000000000002711
 30
1571.605955582464
 70
    32
  0
VERTEX
  5
257
330
236
100
AcDbEntity
  8
0
100
AcDbVertex
100
AcDb3dPolylineVertex
 10
-74.8095960545499
 20
-0.0000000000004508
 30
1563.957083073291
 70
    32
  0
VERTEX
  5
258
330
236
100
AcDbEntity
  8
0
100
AcDbVertex
100
AcDb3dPolylineVertex
 10
-77.99851701922968
 20
-0.0000000000005414
 30
1566.163257607868
 70
    32
  0
VERTEX
  5
259
330
236
100
AcDbEntity
  8
0
100
AcDbVertex
100
AcDb3dPolylineVertex
 10
-82.1173916376254
 20
-0.0000000000005411
 30
1562.632814834144
 70
    32
  0
VERTEX
  5
25A
330
236
100
AcDbEntity
  8
0
100
AcDbVertex
100
AcDb3dPolylineVertex
 10
-82.1173916376254
 20
-0.0000000000005411
 30
1548.690908716188
 70
    32
  0
VERTEX
  5
25B
330
236
100
AcDbEntity
  8
0
100
AcDbVertex
100
AcDb3dPolylineVertex
 10
-81.67577116548895
 20
-0.0000000000002711
 30
1538.950509206474
 70
    32
  0
VERTEX
  5
25C
330
236
100
AcDbEntity
  8
0
100
AcDbVertex
100
AcDb3dPolylineVertex
 10
-79.61670459208071
 20
-0.000000000000361
 30
1530.566096891461
 70
    32
  0
VERTEX
  5
25D
330
236
100
AcDbEntity
  8
0
100
AcDbVertex
100
AcDb3dPolylineVertex
 10
-70.93807635473206
 20
-0.0000000000004505
 30
1518.503763105768
 70
    32
  0
VERTEX
  5
25E
330
236
100
AcDbEntity
  8
0
100
AcDbVertex
100
AcDb3dPolylineVertex
 10
-67.70184950334489
 20
-0.0000000000005414
 30
1517.914738083833
 70
    32
  0
VERTEX
  5
25F
330
236
100
AcDbEntity
  8
0
100
AcDbVertex
100
AcDb3dPolylineVertex
 10
-62.91431581548584
 20
-0.0000000000004508
 30
1504.095635687271
 70
    32
  0
VERTEX
  5
260
330
236
100
AcDbEntity
  8
0
100
AcDbVertex
100
AcDb3dPolylineVertex
 10
-48.76955910166198
 20
-0.0000000000004512
 30
1488.021569926273
 70
    32
  0
VERTEX
  5
261
330
236
100
AcDbEntity
  8
0
100
AcDbVertex
100
AcDb3dPolylineVertex
 10
-40.57734712236904
 20
-0.0000000000004512
 30
1482.035294487082
 70
    32
  0
SEQEND
  5
262
330
236
100
AcDbEntity
  8
0
  0
POLYLINE
  5
263
330
6B
100
AcDbEntity
  8
0
100
AcDb3dPolyline
 66
     1
 10
0.0
 20
0.0
 30
0.0
 70
     8
  0
VERTEX
  5
264
330
263
100
AcDbEntity
  8
0
100
AcDbVertex
100
AcDb3dPolylineVertex
 10
-40.57734712236904
 20
-0.0000000000004512
 30
1482.035294487082
 70
    32
  0
VERTEX
  5
265
330
263
100
AcDbEntity
  8
0
100
AcDbVertex
100
AcDb3dPolylineVertex
 10
-32.05293407076084
 20
-0.0000000000004512
 30
1475.806270553942
 70
    32
  0
VERTEX
  5
266
330
263
100
AcDbEntity
  8
0
100
AcDbVertex
100
AcDb3dPolylineVertex
 10
-15.97886830976099
 20
-0.0000000000004963
 30
1468.733299019767
 70
    32
  0
VERTEX
  5
267
330
263
100
AcDbEntity
  8
0
100
AcDbVertex
100
AcDb3dPolylineVertex
 10
0.0943076853447926
 20
-0.0000000000004512
 30
1467.768866937652
 70
    32
  0
VERTEX
  5
268
330
263
100
AcDbEntity
  8
0
100
AcDbVertex
100
AcDb3dPolylineVertex
 10
16.16748368045034
 20
-0.000000000000361
 30
1470.983961849052
 70
    32
  0
VERTEX
  5
269
330
263
100
AcDbEntity
  8
0
100
AcDbVertex
100
AcDb3dPolylineVertex
 10
32.88514677156117
 20
-0.0000000000002252
 30
1482.235793052321
 70
    32
  0
VERTEX
  5
26A
330
263
100
AcDbEntity
  8
0
100
AcDbVertex
100
AcDb3dPolylineVertex
 10
44.13593991462033
 20
-0.0000000000004961
 30
1493.165380707587
 70
    32
  0
VERTEX
  5
26B
330
263
100
AcDbEntity
  8
0
100
AcDbVertex
100
AcDb3dPolylineVertex
 10
57.31663528211828
 20
-0.0000000000005869
 30
1504.738788134435
 70
    32
  0
VERTEX
  5
26C
330
263
100
AcDbEntity
  8
0
100
AcDbVertex
100
AcDb3dPolylineVertex
 10
63.42458155691484
 20
-0.0000000000004061
 30
1514.060865407582
 70
    32
  0
SEQEND
  5
26D
330
263
100
AcDbEntity
  8
0
  0
POLYLINE
  5
26E
330
6B
100
AcDbEntity
  8
0
100
AcDb3dPolyline
 66
     1
 10
0.0
 20
0.0
 30
0.0
 70
     8
  0
VERTEX
  5
26F
330
26E
100
AcDbEntity
  8
0
100
AcDbVertex
100
AcDb3dPolylineVertex
 10
63.42458155691484
 20
-0.0000000000004061
 30
1514.060865407582
 70
    32
  0
VERTEX
  5
270
330
26E
100
AcDbEntity
  8
0
100
AcDbVertex
100
AcDb3dPolylineVertex
 10
66.23075489278928
 20
-0.0000000000004505
 30
1522.668312373399
 70
    32
  0
SEQEND
  5
271
330
26E
100
AcDbEntity
  8
0
  0
LINE
  5
272
330
6B
100
AcDbEntity
  8
0
100
AcDbLine
 10
-72.82438264168735
 20
-0.0000000000000906
 30
64.83362759861546
 11
-70.56704397686528
 21
0.0
 31
55.94314082959836
  0
POLYLINE
  5
273
330
6B
100
AcDbEntity
  8
0
100
AcDb3dPolyline
 66
     1
 10
0.0
 20
0.0
 30
0.0
 70
     8
  0
VERTEX
  5
274
330
273
100
AcDbEntity
  8
0
100
AcDbVertex
100
AcDb3dPolylineVertex
 10
-109.1212707245686
 20
-0.0000000000000451
 30
92.67697747579848
 70
    32
  0
VERTEX
  5
275
330
273
100
AcDbEntity
  8
0
100
AcDbVertex
100
AcDb3dPolylineVertex
 10
-110.6695342983655
 20
-0.0000000000000458
 30
92.67697747579848
 70
    32
  0
VERTEX
  5
276
330
273
100
AcDbEntity
  8
0
100
AcDbVertex
100
AcDb3dPolylineVertex
 10
-159.5139745300166
 20
0.0000000000000007
 30
67.51276675139876
 70
    32
  0
SEQEND
  5
277
330
273
100
AcDbEntity
  8
0
  0
POLYLINE
  5
278
330
6B
100
AcDbEntity
  8
0
100
AcDb3dPolyline
 66
     1
 10
0.0
 20
0.0
 30
0.0
 70
     8
  0
VERTEX
  5
279
330
278
100
AcDbEntity
  8
0
100
AcDbVertex
100
AcDb3dPolylineVertex
 10
-153.7170025214628
 20
-0.0000000000002707
 30
761.2973668808156
 70
    32
  0
VERTEX
  5
27A
330
278
100
AcDbEntity
  8
0
100
AcDbVertex
100
AcDb3dPolylineVertex
 10
-153.3481934720983
 20
-0.0000000000002707
 30
762.3569050084599
 70
    32
  0
VERTEX
  5
27B
330
278
100
AcDbEntity
  8
0
100
AcDbVertex
100
AcDb3dPolylineVertex
 10
-154.1480930109512
 20
-0.0000000000003165
 30
767.5561037166852
 70
    32
  0
VERTEX
  5
27C
330
278
100
AcDbEntity
  8
0
100
AcDbVertex
100
AcDb3dPolylineVertex
 10
-157.3481360493084
 20
-0.0000000000002256
 30
771.4221365268229
 70
    32
  0
VERTEX
  5
27D
330
278
100
AcDbEntity
  8
0
100
AcDbVertex
100
AcDb3dPolylineVertex
 10
-167.4797519918251
 20
-0.0000000000002707
 30
777.1550464772289
 70
    32
  0
SEQEND
  5
27E
330
278
100
AcDbEntity
  8
0
  0
LINE
  5
27F
330
6B
100
AcDbEntity
  8
0
100
AcDbLine
 10
-0.1001061625300783
 20
-0.0000000000000451
 30
80.97210713808519
 11
0.3776981226356231
 21
-0.0000000000000902
 31
94.7013431793349
  0
POLYLINE
  5
280
330
6B
100
AcDbEntity
  8
0
100
AcDb3dPolyline
 66
     1
 10
0.0
 20
0.0
 30
0.0
 70
     8
  0
VERTEX
  5
281
330
280
100
AcDbEntity
  8
0
100
AcDbVertex
100
AcDb3dPolylineVertex
 10
160.5895279924385
 20
-0.0000000000004963
 30
1405.179983916314
 70
    32
  0
VERTEX
  5
282
330
280
100
AcDbEntity
  8
0
100
AcDbVertex
100
AcDb3dPolylineVertex
 10
121.3560525713363
 20
-0.0000000000004519
 30
1508.125533716251
 70
    32
  0
VERTEX
  5
283
330
280
100
AcDbEntity
  8
0
100
AcDbVertex
100
AcDb3dPolylineVertex
 10
97.01383723882735
 20
-0.000000000000361
 30
1595.833835997572
 70
    32
  0
VERTEX
  5
284
330
280
100
AcDbEntity
  8
0
100
AcDbVertex
100
AcDb3dPolylineVertex
 10
80.82795756379448
 20
-0.0000000000005411
 30
1637.985234731857
 70
    32
  0
VERTEX
  5
285
330
280
100
AcDbEntity
  8
0
100
AcDbVertex
100
AcDb3dPolylineVertex
 10
68.48230748796816
 20
-0.0000000000005418
 30
1657.476557630125
 70
    32
  0
VERTEX
  5
286
330
280
100
AcDbEntity
  8
0
100
AcDbVertex
100
AcDb3dPolylineVertex
 10
53.86419531845035
 20
-0.0000000000005869
 30
1672.4970293517
 70
    32
  0
VERTEX
  5
287
330
280
100
AcDbEntity
  8
0
100
AcDbVertex
100
AcDb3dPolylineVertex
 10
35.44455836612112
 20
-0.0000000000004512
 30
1685.451575887766
 70
    32
  0
VERTEX
  5
288
330
280
100
AcDbEntity
  8
0
100
AcDbVertex
100
AcDb3dPolylineVertex
 10
17.2740558641575
 20
-0.000000000000406
 30
1691.717826344567
 70
    32
  0
VERTEX
  5
289
330
280
100
AcDbEntity
  8
0
100
AcDbVertex
100
AcDb3dPolylineVertex
 10
8.189249496122489
 20
-0.000000000000361
 30
1692.657344981643
 70
    32
  0
VERTEX
  5
28A
330
280
100
AcDbEntity
  8
0
100
AcDbVertex
100
AcDb3dPolylineVertex
 10
0.982590636350669
 20
-0.0000000000004963
 30
1689.837862230935
 70
    32
  0
VERTEX
  5
28B
330
280
100
AcDbEntity
  8
0
100
AcDbVertex
100
AcDb3dPolylineVertex
 10
-13.05139022364931
 20
-0.0000000000004512
 30
1691.203430437003
 70
    32
  0
VERTEX
  5
28C
330
280
100
AcDbEntity
  8
0
100
AcDbVertex
100
AcDb3dPolylineVertex
 10
-31.89930115970209
 20
-0.0000000000004965
 30
1684.967988124286
 70
    32
  0
VERTEX
  5
28D
330
280
100
AcDbEntity
  8
0
100
AcDbVertex
100
AcDb3dPolylineVertex
 10
-47.31078791818188
 20
-0.0000000000004514
 30
1675.544180950576
 70
    32
  0
VERTEX
  5
28E
330
280
100
AcDbEntity
  8
0
100
AcDbVertex
100
AcDb3dPolylineVertex
 10
-65.99809611033928
 20
-0.000000000000496
 30
1657.749307950264
 70
    32
  0
VERTEX
  5
28F
330
280
100
AcDbEntity
  8
0
100
AcDbVertex
100
AcDb3dPolylineVertex
 10
-82.8815522463957
 20
-0.000000000000361
 30
1632.577311774292
 70
    32
  0
VERTEX
  5
290
330
280
100
AcDbEntity
  8
0
100
AcDbVertex
100
AcDb3dPolylineVertex
 10
-90.11431090573059
 20
-0.0000000000004064
 30
1612.789585612529
 70
    32
  0
VERTEX
  5
291
330
280
100
AcDbEntity
  8
0
100
AcDbVertex
100
AcDb3dPolylineVertex
 10
-94.69156325393567
 20
-0.0000000000003158
 30
1568.839673417509
 70
    32
  0
VERTEX
  5
292
330
280
100
AcDbEntity
  8
0
100
AcDbVertex
100
AcDb3dPolylineVertex
 10
-94.69156325393571
 20
-0.000000000000496
 30
1530.994000139394
 70
    32
  0
VERTEX
  5
293
330
280
100
AcDbEntity
  8
0
100
AcDbVertex
100
AcDb3dPolylineVertex
 10
-98.37371111261255
 20
-0.0000000000005411
 30
1460.215421820631
 70
    32
  0
VERTEX
  5
294
330
280
100
AcDbEntity
  8
0
100
AcDbVertex
100
AcDb3dPolylineVertex
 10
-109.1466813327885
 20
-0.0000000000004071
 30
1391.728529521642
 70
    32
  0
SEQEND
  5
295
330
280
100
AcDbEntity
  8
0
  0
POLYLINE
  5
296
330
6B
100
AcDbEntity
  8
0
100
AcDb3dPolyline
 66
     1
 10
0.0
 20
0.0
 30
0.0
 70
     8
  0
VERTEX
  5
297
330
296
100
AcDbEntity
  8
0
100
AcDbVertex
100
AcDb3dPolylineVertex
 10
-169.5575036490115
 20
-0.0000000000002263
 30
826.2630057078691
 70
    32
  0
VERTEX
  5
298
330
296
100
AcDbEntity
  8
0
100
AcDbVertex
100
AcDb3dPolylineVertex
 10
-176.0120137395846
 20
-0.0000000000002256
 30
824.2146163251904
 70
    32
  0
VERTEX
  5
299
330
296
100
AcDbEntity
  8
0
100
AcDbVertex
100
AcDb3dPolylineVertex
 10
-178.8112172426212
 20
-0.0000000000002256
 30
815.1490882181965
 70
    32
  0
VERTEX
  5
29A
330
296
100
AcDbEntity
  8
0
100
AcDbVertex
100
AcDb3dPolylineVertex
 10
-180.1451246122871
 20
-0.0000000000002256
 30
802.7512385432454
 70
    32
  0
VERTEX
  5
29B
330
296
100
AcDbEntity
  8
0
100
AcDbVertex
100
AcDb3dPolylineVertex
 10
-178.5195223236514
 20
-0.0000000000001805
 30
790.0308487316612
 70
    32
  0
SEQEND
  5
29C
330
296
100
AcDbEntity
  8
0
  0
POLYLINE
  5
29D
330
6B
100
AcDbEntity
  8
0
100
AcDb3dPolyline
 66
     1
 10
0.0
 20
0.0
 30
0.0
 70
     8
  0
VERTEX
  5
29E
330
29D
100
AcDbEntity
  8
0
100
AcDbVertex
100
AcDb3dPolylineVertex
 10
-155.7822963698974
 20
-0.00000000000027
 30
790.4186383672005
 70
    32
  0
VERTEX
  5
29F
330
29D
100
AcDbEntity
  8
0
100
AcDbVertex
100
AcDb3dPolylineVertex
 10
-162.0038360905153
 20
-0.0000000000001805
 30
796.3434411621162
 70
    32
  0
VERTEX
  5
2A0
330
29D
100
AcDbEntity
  8
0
100
AcDbVertex
100
AcDb3dPolylineVertex
 10
-169.5575036490115
 20
-0.0000000000002263
 30
826.2630057078691
 70
    32
  0
SEQEND
  5
2A1
330
29D
100
AcDbEntity
  8
0
  0
POLYLINE
  5
2A2
330
6B
100
AcDbEntity
  8
0
100
AcDb3dPolyline
 66
     1
 10
0.0
 20
0.0
 30
0.0
 70
     8
  0
VERTEX
  5
2A3
330
2A2
100
AcDbEntity
  8
0
100
AcDbVertex
100
AcDb3dPolylineVertex
 10
-154.0242672573466
 20
-0.00000000000027
 30
858.1686760237068
 70
    32
  0
VERTEX
  5
2A4
330
2A2
100
AcDbEntity
  8
0
100
AcDbVertex
100
AcDb3dPolylineVertex
 10
-157.4119026050568
 20
-0.0000000000002256
 30
867.4398883465706
 70
    32
  0
VERTEX
  5
2A5
330
2A2
100
AcDbEntity
  8
0
100
AcDbVertex
100
AcDb3dPolylineVertex
 10
-166.150293451631
 20
-0.0000000000002256
 30
882.1371896806673
 70
    32
  0
VERTEX
  5
2A6
330
2A2
100
AcDbEntity
  8
0
100
AcDbVertex
100
AcDb3dPolylineVertex
 10
-168.5197400277863
 20
-0.00000000000027
 30
894.5801208275903
 70
    32
  0
VERTEX
  5
2A7
330
2A2
100
AcDbEntity
  8
0
100
AcDbVertex
100
AcDb3dPolylineVertex
 10
-167.7294796194536
 20
-0.0000000000001812
 30
905.2457446009212
 70
    32
  0
VERTEX
  5
2A8
330
2A2
100
AcDbEntity
  8
0
100
AcDbVertex
100
AcDb3dPolylineVertex
 10
-166.3197733088906
 20
-0.0000000000003151
 30
910.854938238521
 70
    32
  0
VERTEX
  5
2A9
330
2A2
100
AcDbEntity
  8
0
100
AcDbVertex
100
AcDb3dPolylineVertex
 10
-126.6224436034437
 20
-0.0000000000003617
 30
1068.241662163992
 70
    32
  0
VERTEX
  5
2AA
330
2A2
100
AcDbEntity
  8
0
100
AcDbVertex
100
AcDb3dPolylineVertex
 10
-124.2544799704443
 20
-0.000000000000361
 30
1084.516073545494
 70
    32
  0
VERTEX
  5
2AB
330
2A2
100
AcDbEntity
  8
0
100
AcDbVertex
100
AcDb3dPolylineVertex
 10
-118.3375367742614
 20
-0.0000000000001791
 30
1114.696339498238
 70
    32
  0
SEQEND
  5
2AC
330
2A2
100
AcDbEntity
  8
0
  0
POLYLINE
  5
2AD
330
6B
100
AcDbEntity
  8
0
100
AcDb3dPolyline
 66
     1
 10
0.0
 20
0.0
 30
0.0
 70
     8
  0
VERTEX
  5
2AE
330
2AD
100
AcDbEntity
  8
0
100
AcDbVertex
100
AcDb3dPolylineVertex
 10
64.46323494403472
 20
0.0000000000000004
 30
59.77921818796617
 70
    32
  0
VERTEX
  5
2AF
330
2AD
100
AcDbEntity
  8
0
100
AcDbVertex
100
AcDb3dPolylineVertex
 10
57.40086645343255
 20
-0.0000000000000449
 30
50.83039770742282
 70
    32
  0
VERTEX
  5
2B0
330
2AD
100
AcDbEntity
  8
0
100
AcDbVertex
100
AcDb3dPolylineVertex
 10
58.19304335203584
 20
0.0000000000000004
 30
45.19353307075716
 70
    32
  0
SEQEND
  5
2B1
330
2AD
100
AcDbEntity
  8
0
  0
POLYLINE
  5
2B2
330
6B
100
AcDbEntity
  8
0
100
AcDb3dPolyline
 66
     1
 10
0.0
 20
0.0
 30
0.0
 70
     8
  0
VERTEX
  5
2B3
330
2B2
100
AcDbEntity
  8
0
100
AcDbVertex
100
AcDb3dPolylineVertex
 10
63.42458155691484
 20
-0.0000000000004061
 30
1514.060865407582
 70
    32
  0
VERTEX
  5
2B4
330
2B2
100
AcDbEntity
  8
0
100
AcDbVertex
100
AcDb3dPolylineVertex
 10
53.89222294411599
 20
-0.0000000000005414
 30
1483.175904866662
 70
    32
  0
VERTEX
  5
2B5
330
2B2
100
AcDbEntity
  8
0
100
AcDbVertex
100
AcDb3dPolylineVertex
 10
51.73824800866324
 20
-0.0000000000003606
 30
1466.75097475473
 70
    32
  0
VERTEX
  5
2B6
330
2B2
100
AcDbEntity
  8
0
100
AcDbVertex
100
AcDb3dPolylineVertex
 10
53.89222294411599
 20
-0.0000000000004508
 30
1454.365285213668
 70
    32
  0
VERTEX
  5
2B7
330
2B2
100
AcDbEntity
  8
0
100
AcDbVertex
100
AcDb3dPolylineVertex
 10
60.08514186180604
 20
-0.0000000000003606
 30
1441.171243357756
 70
    32
  0
VERTEX
  5
2B8
330
2B2
100
AcDbEntity
  8
0
100
AcDbVertex
100
AcDb3dPolylineVertex
 10
77.31797940563739
 20
-0.0000000000005418
 30
1429.054559705362
 70
    32
  0
VERTEX
  5
2B9
330
2B2
100
AcDbEntity
  8
0
100
AcDbVertex
100
AcDb3dPolylineVertex
 10
84.26527150726152
 20
-0.0000000000005411
 30
1426.739833731699
 70
    32
  0
SEQEND
  5
2BA
330
2B2
100
AcDbEntity
  8
0
  0
POLYLINE
  5
2BB
330
6B
100
AcDbEntity
  8
0
100
AcDb3dPolyline
 66
     1
 10
0.0
 20
0.0
 30
0.0
 70
     8
  0
VERTEX
  5
2BC
330
2BB
100
AcDbEntity
  8
0
100
AcDbVertex
100
AcDb3dPolylineVertex
 10
-175.1863109898013
 20
-0.0000000000001812
 30
763.905394252934
 70
    32
  0
VERTEX
  5
2BD
330
2BB
100
AcDbEntity
  8
0
100
AcDbVertex
100
AcDb3dPolylineVertex
 10
-192.8122767645376
 20
-0.0000000000002707
 30
770.7186282931712
 70
    32
  0
VERTEX
  5
2BE
330
2BB
100
AcDbEntity
  8
0
100
AcDbVertex
100
AcDb3dPolylineVertex
 10
-196.2188937846557
 20
-0.0000000000002249
 30
773.3851083836612
 70
    32
  0
VERTEX
  5
2BF
330
2BB
100
AcDbEntity
  8
0
100
AcDbVertex
100
AcDb3dPolylineVertex
 10
-205.4023158726264
 20
-0.0000000000002707
 30
803.1563786137211
 70
    32
  0
VERTEX
  5
2C0
330
2BB
100
AcDbEntity
  8
0
100
AcDbVertex
100
AcDb3dPolylineVertex
 10
-211.0303817418393
 20
-0.0000000000003158
 30
814.2655506852925
 70
    32
  0
VERTEX
  5
2C1
330
2BB
100
AcDbEntity
  8
0
100
AcDbVertex
100
AcDb3dPolylineVertex
 10
-211.0303817418395
 20
-0.0000000000001819
 30
818.7087449721104
 70
    32
  0
VERTEX
  5
2C2
330
2BB
100
AcDbEntity
  8
0
100
AcDbVertex
100
AcDb3dPolylineVertex
 10
-207.2757179627864
 20
-0.0000000000002249
 30
831.1432233430368
 70
    32
  0
VERTEX
  5
2C3
330
2BB
100
AcDbEntity
  8
0
100
AcDbVertex
100
AcDb3dPolylineVertex
 10
-201.5742464073064
 20
-0.0000000000001805
 30
860.7466244077299
 70
    32
  0
VERTEX
  5
2C4
330
2BB
100
AcDbEntity
  8
0
100
AcDbVertex
100
AcDb3dPolylineVertex
 10
-201.9486895544336
 20
-0.0000000000003172
 30
872.4163489926232
 70
    32
  0
VERTEX
  5
2C5
330
2BB
100
AcDbEntity
  8
0
100
AcDbVertex
100
AcDb3dPolylineVertex
 10
-206.7252494629315
 20
-0.0000000000001805
 30
890.4600598546687
 70
    32
  0
VERTEX
  5
2C6
330
2BB
100
AcDbEntity
  8
0
100
AcDbVertex
100
AcDb3dPolylineVertex
 10
-202.4795832046175
 20
-0.0000000000002256
 30
905.3200400530845
 70
    32
  0
VERTEX
  5
2C7
330
2BB
100
AcDbEntity
  8
0
100
AcDbVertex
100
AcDb3dPolylineVertex
 10
-201.4183890815123
 20
-0.0000000000001805
 30
924.9562835713651
 70
    32
  0
VERTEX
  5
2C8
330
2BB
100
AcDbEntity
  8
0
100
AcDbVertex
100
AcDb3dPolylineVertex
 10
-203.3456220082695
 20
-0.0000000000002714
 30
1025.346048406399
 70
    32
  0
VERTEX
  5
2C9
330
2BB
100
AcDbEntity
  8
0
100
AcDbVertex
100
AcDb3dPolylineVertex
 10
-203.3456220082696
 20
-0.0000000000003617
 30
1065.262651803176
 70
    32
  0
VERTEX
  5
2CA
330
2BB
100
AcDbEntity
  8
0
100
AcDbVertex
100
AcDb3dPolylineVertex
 10
-193.3664526222849
 20
-0.0000000000003617
 30
1111.167157226198
 70
    32
  0
VERTEX
  5
2CB
330
2BB
100
AcDbEntity
  8
0
100
AcDbVertex
100
AcDb3dPolylineVertex
 10
-186.7136730316285
 20
-0.0000000000003617
 30
1153.744679676628
 70
    32
  0
VERTEX
  5
2CC
330
2BB
100
AcDbEntity
  8
0
100
AcDbVertex
100
AcDb3dPolylineVertex
 10
-171.6250229984146
 20
-0.0000000000003624
 30
1323.409021880665
 70
    32
  0
SEQEND
  5
2CD
330
2BB
100
AcDbEntity
  8
0
  0
POLYLINE
  5
2CE
330
6B
100
AcDbEntity
  8
0
100
AcDb3dPolyline
 66
     1
 10
0.0
 20
0.0
 30
0.0
 70
     8
  0
VERTEX
  5
2CF
330
2CE
100
AcDbEntity
  8
0
100
AcDbVertex
100
AcDb3dPolylineVertex
 10
-154.4154676621468
 20
-0.0000000000001805
 30
759.2907717371745
 70
    32
  0
VERTEX
  5
2D0
330
2CE
100
AcDbEntity
  8
0
100
AcDbVertex
100
AcDb3dPolylineVertex
 10
-158.0145707040362
 20
-0.0000000000002263
 30
758.3574073141975
 70
    32
  0
VERTEX
  5
2D1
330
2CE
100
AcDbEntity
  8
0
100
AcDbVertex
100
AcDb3dPolylineVertex
 10
-175.1863109898013
 20
-0.0000000000001812
 30
763.905394252934
 70
    32
  0
SEQEND
  5
2D2
330
2CE
100
AcDbEntity
  8
0
  0
LINE
  5
2D3
330
6B
100
AcDbEntity
  8
0
100
AcDbLine
 10
-169.5575036490115
 20
-0.0000000000002263
 30
826.2630057078691
 11
-178.2964876728476
 21
-0.0000000000002707
 31
834.261556213447
  0
LINE
  5
2D4
330
6B
100
AcDbEntity
  8
0
100
AcDbLine
 10
268.8658913351325
 20
-0.0000000000003595
 30
1177.260599082092
 11
278.1052203801213
 21
-0.0000000000002707
 31
1188.378742959763
  0
LINE
  5
2D5
330
6B
100
AcDbEntity
  8
0
100
AcDbLine
 10
-140.6980951661536
 20
-0.000000000000361
 30
1274.616558806658
 11
-142.0257741745605
 21
-0.0000000000005421
 31
1294.030805734352
  0
POLYLINE
  5
2D6
330
6B
100
AcDbEntity
  8
0
100
AcDb3dPolyline
 66
     1
 10
0.0
 20
0.0
 30
0.0
 70
     8
  0
VERTEX
  5
2D7
330
2D6
100
AcDbEntity
  8
0
100
AcDbVertex
100
AcDb3dPolylineVertex
 10
-201.7415223954089
 20
-0.0000000000001354
 30
806.8833113557382
 70
    32
  0
VERTEX
  5
2D8
330
2D6
100
AcDbEntity
  8
0
100
AcDbVertex
100
AcDb3dPolylineVertex
 10
-192.6754011111525
 20
-0.0000000000002249
 30
778.3541543139305
 70
    32
  0
VERTEX
  5
2D9
330
2D6
100
AcDbEntity
  8
0
100
AcDbVertex
100
AcDb3dPolylineVertex
 10
-175.1863109898013
 20
-0.0000000000001812
 30
763.905394252934
 70
    32
  0
SEQEND
  5
2DA
330
2D6
100
AcDbEntity
  8
0
  0
LINE
  5
2DB
330
6B
100
AcDbEntity
  8
0
100
AcDbLine
 10
68.24622293738375
 20
-0.0000000000003158
 30
1528.849367745831
 11
66.23075489278928
 21
-0.0000000000004505
 31
1522.668312373399
  0
POLYLINE
  5
2DC
330
6B
100
AcDbEntity
  8
0
 62
    33
100
AcDbPolyFaceMesh
 66
     1
 10
0.0
 20
0.0
 30
0.0
 70
    64
 71
     9
 72
     7
  0
VERTEX
  5
2DD
330
2DC
100
AcDbEntity
  8
0
 62
    33
100
AcDbVertex
100
AcDbPolyFaceMeshVertex
 10
-144.5933419564828
 20
-0.0000000000002256
 30
771.3408712418232
 70
   192
  0
VERTEX
  5
2DE
330
2DC
100
AcDbEntity
  8
0
 62
    33
100
AcDbVertex
100
AcDbPolyFaceMeshVertex
 10
-147.5402465979498
 20
-0.0000000000002249
 30
770.5652919707443
 70
   192
  0
VERTEX
  5
2DF
330
2DC
100
AcDbEntity
  8
0
 62
    33
100
AcDbVertex
100
AcDbPolyFaceMeshVertex
 10
-146.3887412365879
 20
-0.0000000000001805
 30
768.8900110863514
 70
   192
  0
VERTEX
  5
2E0
330
2DC
100
AcDbEntity
  8
0
 62
    33
100
AcDbVertex
100
AcDbPolyFaceMeshVertex
 10
-167.4797519918251
 20
-0.0000000000002707
 30
777.1550464772289
 70
   192
  0
VERTEX
  5
2E1
330
2DC
100
AcDbEntity
  8
0
 62
    33
100
AcDbVertex
100
AcDbPolyFaceMeshVertex
 10
-144.9031287819679
 20
-0.0000000000002249
 30
775.8401207799735
 70
   192
  0
VERTEX
  5
2E2
330
2DC
100
AcDbEntity
  8
0
 62
    33
100
AcDbVertex
100
AcDbPolyFaceMeshVertex
 10
-148.7043569761463
 20
-0.0000000000001805
 30
779.4085268985135
 70
   192
  0
VERTEX
  5
2E3
330
2DC
100
AcDbEntity
  8
0
 62
    33
100
AcDbVertex
100
AcDbPolyFaceMeshVertex
 10
-155.7822963698974
 20
-0.00000000000027
 30
780.2615158023841
 70
   192
  0
VERTEX
  5
2E4
330
2DC
100
AcDbEntity
  8
0
 62
    33
100
AcDbVertex
100
AcDbPolyFaceMeshVertex
 10
-156.9690957783947
 20
-0.00000000000027
 30
780.4117379441819
 70
   192
  0
VERTEX
  5
2E5
330
2DC
100
AcDbEntity
  8
0
 62
    33
100
AcDbVertex
100
AcDbPolyFaceMeshVertex
 10
-173.0275906362467
 20
-0.0000000000002256
 30
782.5461380299623
 70
   192
  0
VERTEX
  5
2E6
330
2DC
100
AcDbEntity
  8
0
 62
    33
100
AcDbFaceRecord
 10
0.0
 20
0.0
 30
0.0
 70
   128
 71
    -1
 72
     2
 73
     3
  0
VERTEX
  5
2E7
330
2DC
100
AcDbEntity
  8
0
 62
    33
100
AcDbFaceRecord
 10
0.0
 20
0.0
 30
0.0
 70
   128
 71
    -2
 72
    -1
 73
     4
  0
VERTEX
  5
2E8
330
2DC
100
AcDbEntity
  8
0
 62
    33
100
AcDbFaceRecord
 10
0.0
 20
0.0
 30
0.0
 70
   128
 71
    -4
 72
     1
 73
    -5
  0
VERTEX
  5
2E9
330
2DC
100
AcDbEntity
  8
0
 62
    33
100
AcDbFaceRecord
 10
0.0
 20
0.0
 30
0.0
 70
   128
 71
    -4
 72
     5
 73
    -6
  0
VERTEX
  5
2EA
330
2DC
100
AcDbEntity
  8
0
 62
    33
100
AcDbFaceRecord
 10
0.0
 20
0.0
 30
0.0
 70
   128
 71
    -4
 72
     6
 73
    -7
  0
VERTEX
  5
2EB
330
2DC
100
AcDbEntity
  8
0
 62
    33
100
AcDbFaceRecord
 10
0.0
 20
0.0
 30
0.0
 70
   128
 71
    -4
 72
     7
 73
    -8
  0
VERTEX
  5
2EC
330
2DC
100
AcDbEntity
  8
0
 62
    33
100
AcDbFaceRecord
 10
0.0
 20
0.0
 30
0.0
 70
   128
 71
    -4
 72
     8
 73
     9
  0
SEQEND
  5
2ED
330
2DC
100
AcDbEntity
  8
0
 62
    33
  0
POLYLINE
  5
2EE
330
6B
100
AcDbEntity
  8
0
 62
    33
100
AcDbPolyFaceMesh
 66
     1
 10
0.0
 20
0.0
 30
0.0
 70
    64
 71
    31
 72
    29
  0
VERTEX
  5
2EF
330
2EE
100
AcDbEntity
  8
0
 62
    33
100
AcDbVertex
100
AcDbPolyFaceMeshVertex
 10
11.6326498370701
 20
-0.0000000000001805
 30
521.4388629966857
 70
   192
  0
VERTEX
  5
2F0
330
2EE
100
AcDbEntity
  8
0
 62
    33
100
AcDbVertex
100
AcDbPolyFaceMeshVertex
 10
-0.3606592752039819
 20
-0.0000000000001805
 30
520.1179920282902
 70
   192
  0
VERTEX
  5
2F1
330
2EE
100
AcDbEntity
  8
0
 62
    33
100
AcDbVertex
100
AcDbPolyFaceMeshVertex
 10
13.77253048199541
 20
-0.0000000000000902
 30
506.1912279585378
 70
   192
  0
VERTEX
  5
2F2
330
2EE
100
AcDbEntity
  8
0
 62
    33
100
AcDbVertex
100
AcDbPolyFaceMeshVertex
 10
-59.53350200629846
 20
-0.0000000000000455
 30
71.08235922446448
 70
   192
  0
VERTEX
  5
2F3
330
2EE
100
AcDbEntity
  8
0
 62
    33
100
AcDbVertex
100
AcDbPolyFaceMeshVertex
 10
-76.96164316389856
 20
-0.0000000000000451
 30
75.46504943047965
 70
   192
  0
VERTEX
  5
2F4
330
2EE
100
AcDbEntity
  8
0
 62
    33
100
AcDbVertex
100
AcDbPolyFaceMeshVertex
 10
-72.82438264168735
 20
-0.0000000000000906
 30
64.83362759861546
 70
   192
  0
VERTEX
  5
2F5
330
2EE
100
AcDbEntity
  8
0
 62
    33
100
AcDbVertex
100
AcDbPolyFaceMeshVertex
 10
-20.88696527627946
 20
-0.0000000000000452
 30
80.37403616289205
 70
   192
  0
VERTEX
  5
2F6
330
2EE
100
AcDbEntity
  8
0
 62
    33
100
AcDbVertex
100
AcDbPolyFaceMeshVertex
 10
-102.2490864646394
 20
-0.0000000000000448
 30
92.67697747579848
 70
   192
  0
VERTEX
  5
2F7
330
2EE
100
AcDbEntity
  8
0
 62
    33
100
AcDbVertex
100
AcDbPolyFaceMeshVertex
 10
-4.959414299184732
 20
-0.0000000000000451
 30
85.24209366417335
 70
   192
  0
VERTEX
  5
2F8
330
2EE
100
AcDbEntity
  8
0
 62
    33
100
AcDbVertex
100
AcDbPolyFaceMeshVertex
 10
0.3776981226356231
 20
-0.0000000000000902
 30
94.7013431793349
 70
   192
  0
VERTEX
  5
2F9
330
2EE
100
AcDbEntity
  8
0
 62
    33
100
AcDbVertex
100
AcDbPolyFaceMeshVertex
 10
-109.1212707245686
 20
-0.0000000000000451
 30
92.67697747579848
 70
   192
  0
VERTEX
  5
2FA
330
2EE
100
AcDbEntity
  8
0
 62
    33
100
AcDbVertex
100
AcDbPolyFaceMeshVertex
 10
-89.3959732405097
 20
-0.0000000000000448
 30
110.2784746884447
 70
   192
  0
VERTEX
  5
2FB
330
2EE
100
AcDbEntity
  8
0
 62
    33
100
AcDbVertex
100
AcDbPolyFaceMeshVertex
 10
-0.108114055577345
 20
-0.0000000000000451
 30
103.9173900167586
 70
   192
  0
VERTEX
  5
2FC
330
2EE
100
AcDbEntity
  8
0
 62
    33
100
AcDbVertex
100
AcDbPolyFaceMeshVertex
 10
-4.230992620496768
 20
-0.0000000000000902
 30
116.2872120660426
 70
   192
  0
VERTEX
  5
2FD
330
2EE
100
AcDbEntity
  8
0
 62
    33
100
AcDbVertex
100
AcDbPolyFaceMeshVertex
 10
-71.51983495519815
 20
-0.0000000000000451
 30
138.4782700550969
 70
   192
  0
VERTEX
  5
2FE
330
2EE
100
AcDbEntity
  8
0
 62
    33
100
AcDbVertex
100
AcDbPolyFaceMeshVertex
 10
-10.05287916032088
 20
-0.0000000000000452
 30
133.5069997100928
 70
   192
  0
VERTEX
  5
2FF
330
2EE
100
AcDbEntity
  8
0
 62
    33
100
AcDbVertex
100
AcDbPolyFaceMeshVertex
 10
-10.98179475382684
 20
-0.0000000000000452
 30
169.481124576994
 70
   192
  0
VERTEX
  5
300
330
2EE
100
AcDbEntity
  8
0
 62
    33
100
AcDbVertex
100
AcDbPolyFaceMeshVertex
 10
-67.41727271152824
 20
-0.0000000000000899
 30
165.8298219359807
 70
   192
  0
VERTEX
  5
301
330
2EE
100
AcDbEntity
  8
0
 62
    33
100
AcDbVertex
100
AcDbPolyFaceMeshVertex
 10
-90.7045222821913
 20
-0.0000000000000902
 30
354.5594003957157
 70
   192
  0
VERTEX
  5
302
330
2EE
100
AcDbEntity
  8
0
 62
    33
100
AcDbVertex
100
AcDbPolyFaceMeshVertex
 10
0.5294032075907056
 20
-0.0000000000001354
 30
258.6924638950269
 70
   192
  0
VERTEX
  5
303
330
2EE
100
AcDbEntity
  8
0
 62
    33
100
AcDbVertex
100
AcDbPolyFaceMeshVertex
 10
12.40080806182765
 20
-0.0000000000001353
 30
318.0459291026361
 70
   192
  0
VERTEX
  5
304
330
2EE
100
AcDbEntity
  8
0
 62
    33
100
AcDbVertex
100
AcDbPolyFaceMeshVertex
 10
13.78127984662137
 20
-0.0000000000000902
 30
353.7513446695005
 70
   192
  0
VERTEX
  5
305
330
2EE
100
AcDbEntity
  8
0
 62
    33
100
AcDbVertex
100
AcDbPolyFaceMeshVertex
 10
9.053805356618179
 20
-0.0000000000001804
 30
407.8534115697599
 70
   192
  0
VERTEX
  5
306
330
2EE
100
AcDbEntity
  8
0
 62
    33
100
AcDbVertex
100
AcDbPolyFaceMeshVertex
 10
-90.7045222821913
 20
-0.0000000000000902
 30
406.4698256043363
 70
   192
  0
VERTEX
  5
307
330
2EE
100
AcDbEntity
  8
0
 62
    33
100
AcDbVertex
100
AcDbPolyFaceMeshVertex
 10
-84.81812771504184
 20
-0.000000000000135
 30
442.3755867917015
 70
   192
  0
VERTEX
  5
308
330
2EE
100
AcDbEntity
  8
0
 62
    33
100
AcDbVertex
100
AcDbPolyFaceMeshVertex
 10
5.439131411581324
 20
-0.0000000000001805
 30
445.0783989895367
 70
   192
  0
VERTEX
  5
309
330
2EE
100
AcDbEntity
  8
0
 62
    33
100
AcDbVertex
100
AcDbPolyFaceMeshVertex
 10
-89.52810347579306
 20
-0.0000000000001805
 30
457.0912766209456
 70
   192
  0
VERTEX
  5
30A
330
2EE
100
AcDbEntity
  8
0
 62
    33
100
AcDbVertex
100
AcDbPolyFaceMeshVertex
 10
11.78835253801184
 20
-0.0000000000001354
 30
479.2064079203647
 70
   192
  0
VERTEX
  5
30B
330
2EE
100
AcDbEntity
  8
0
 62
    33
100
AcDbVertex
100
AcDbPolyFaceMeshVertex
 10
-94.42226077663571
 20
-0.0000000000001805
 30
493.7525973467715
 70
   192
  0
VERTEX
  5
30C
330
2EE
100
AcDbEntity
  8
0
 62
    33
100
AcDbVertex
100
AcDbPolyFaceMeshVertex
 10
-91.00289044536785
 20
-0.0000000000001812
 30
528.1040858113488
 70
   192
  0
VERTEX
  5
30D
330
2EE
100
AcDbEntity
  8
0
 62
    33
100
AcDbVertex
100
AcDbPolyFaceMeshVertex
 10
-102.8395944297322
 20
-0.0000000000000895
 30
530.7082822892488
 70
   192
  0
VERTEX
  5
30E
330
2EE
100
AcDbEntity
  8
0
 62
    33
100
AcDbFaceRecord
 10
0.0
 20
0.0
 30
0.0
 70
   128
 71
     1
 72
    -2
 73
     3
  0
VERTEX
  5
30F
330
2EE
100
AcDbEntity
  8
0
 62
    33
100
AcDbFaceRecord
 10
0.0
 20
0.0
 30
0.0
 70
   128
 71
    -4
 72
     5
 73
     6
  0
VERTEX
  5
310
330
2EE
100
AcDbEntity
  8
0
 62
    33
100
AcDbFaceRecord
 10
0.0
 20
0.0
 30
0.0
 70
   128
 71
    -5
 72
     4
 73
    -7
  0
VERTEX
  5
311
330
2EE
100
AcDbEntity
  8
0
 62
    33
100
AcDbFaceRecord
 10
0.0
 20
0.0
 30
0.0
 70
   128
 71
    -5
 72
    -7
 73
     8
  0
VERTEX
  5
312
330
2EE
100
AcDbEntity
  8
0
 62
    33
100
AcDbFaceRecord
 10
0.0
 20
0.0
 30
0.0
 70
   128
 71
    -8
 72
     7
 73
    -9
  0
VERTEX
  5
313
330
2EE
100
AcDbEntity
  8
0
 62
    33
100
AcDbFaceRecord
 10
0.0
 20
0.0
 30
0.0
 70
   128
 71
    -8
 72
     9
 73
   -10
  0
VERTEX
  5
314
330
2EE
100
AcDbEntity
  8
0
 62
    33
100
AcDbFaceRecord
 10
0.0
 20
0.0
 30
0.0
 70
   128
 71
    -8
 72
   -10
 73
    11
  0
VERTEX
  5
315
330
2EE
100
AcDbEntity
  8
0
 62
    33
100
AcDbFaceRecord
 10
0.0
 20
0.0
 30
0.0
 70
   128
 71
   -11
 72
   -10
 73
    12
  0
VERTEX
  5
316
330
2EE
100
AcDbEntity
  8
0
 62
    33
100
AcDbFaceRecord
 10
0.0
 20
0.0
 30
0.0
 70
   128
 71
   -12
 72
    10
 73
   -13
  0
VERTEX
  5
317
330
2EE
100
AcDbEntity
  8
0
 62
    33
100
AcDbFaceRecord
 10
0.0
 20
0.0
 30
0.0
 70
   128
 71
   -12
 72
    13
 73
   -14
  0
VERTEX
  5
318
330
2EE
100
AcDbEntity
  8
0
 62
    33
100
AcDbFaceRecord
 10
0.0
 20
0.0
 30
0.0
 70
   128
 71
   -12
 72
   -14
 73
    15
  0
VERTEX
  5
319
330
2EE
100
AcDbEntity
  8
0
 62
    33
100
AcDbFaceRecord
 10
0.0
 20
0.0
 30
0.0
 70
   128
 71
   -15
 72
    14
 73
   -16
  0
VERTEX
  5
31A
330
2EE
100
AcDbEntity
  8
0
 62
    33
100
AcDbFaceRecord
 10
0.0
 20
0.0
 30
0.0
 70
   128
 71
   -15
 72
    16
 73
   -17
  0
VERTEX
  5
31B
330
2EE
100
AcDbEntity
  8
0
 62
    33
100
AcDbFaceRecord
 10
0.0
 20
0.0
 30
0.0
 70
   128
 71
   -15
 72
   -17
 73
    18
  0
VERTEX
  5
31C
330
2EE
100
AcDbEntity
  8
0
 62
    33
100
AcDbFaceRecord
 10
0.0
 20
0.0
 30
0.0
 70
   128
 71
   -18
 72
   -17
 73
    19
  0
VERTEX
  5
31D
330
2EE
100
AcDbEntity
  8
0
 62
    33
100
AcDbFaceRecord
 10
0.0
 20
0.0
 30
0.0
 70
   128
 71
   -19
 72
    17
 73
   -20
  0
VERTEX
  5
31E
330
2EE
100
AcDbEntity
  8
0
 62
    33
100
AcDbFaceRecord
 10
0.0
 20
0.0
 30
0.0
 70
   128
 71
   -19
 72
    20
 73
   -21
  0
VERTEX
  5
31F
330
2EE
100
AcDbEntity
  8
0
 62
    33
100
AcDbFaceRecord
 10
0.0
 20
0.0
 30
0.0
 70
   128
 71
   -19
 72
    21
 73
   -22
  0
VERTEX
  5
320
330
2EE
100
AcDbEntity
  8
0
 62
    33
100
AcDbFaceRecord
 10
0.0
 20
0.0
 30
0.0
 70
   128
 71
   -19
 72
    22
 73
   -23
  0
VERTEX
  5
321
330
2EE
100
AcDbEntity
  8
0
 62
    33
100
AcDbFaceRecord
 10
0.0
 20
0.0
 30
0.0
 70
   128
 71
   -19
 72
   -23
 73
    24
  0
VERTEX
  5
322
330
2EE
100
AcDbEntity
  8
0
 62
    33
100
AcDbFaceRecord
 10
0.0
 20
0.0
 30
0.0
 70
   128
 71
   -24
 72
   -23
 73
    25
  0
VERTEX
  5
323
330
2EE
100
AcDbEntity
  8
0
 62
    33
100
AcDbFaceRecord
 10
0.0
 20
0.0
 30
0.0
 70
   128
 71
   -25
 72
    23
 73
   -26
  0
VERTEX
  5
324
330
2EE
100
AcDbEntity
  8
0
 62
    33
100
AcDbFaceRecord
 10
0.0
 20
0.0
 30
0.0
 70
   128
 71
   -25
 72
   -26
 73
    27
  0
VERTEX
  5
325
330
2EE
100
AcDbEntity
  8
0
 62
    33
100
AcDbFaceRecord
 10
0.0
 20
0.0
 30
0.0
 70
   128
 71
   -27
 72
    26
 73
   -28
  0
VERTEX
  5
326
330
2EE
100
AcDbEntity
  8
0
 62
    33
100
AcDbFaceRecord
 10
0.0
 20
0.0
 30
0.0
 70
   128
 71
   -27
 72
   -28
 73
    29
  0
VERTEX
  5
327
330
2EE
100
AcDbEntity
  8
0
 62
    33
100
AcDbFaceRecord
 10
0.0
 20
0.0
 30
0.0
 70
   128
 71
   -29
 72
    28
 73
    -3
  0
VERTEX
  5
328
330
2EE
100
AcDbEntity
  8
0
 62
    33
100
AcDbFaceRecord
 10
0.0
 20
0.0
 30
0.0
 70
   128
 71
   -29
 72
    -3
 73
   -30
  0
VERTEX
  5
329
330
2EE
100
AcDbEntity
  8
0
 62
    33
100
AcDbFaceRecord
 10
0.0
 20
0.0
 30
0.0
 70
   128
 71
   -29
 72
    30
 73
    31
  0
VERTEX
  5
32A
330
2EE
100
AcDbEntity
  8
0
 62
    33
100
AcDbFaceRecord
 10
0.0
 20
0.0
 30
0.0
 70
   128
 71
   -30
 72
    -3
 73
     2
  0
SEQEND
  5
32B
330
2EE
100
AcDbEntity
  8
0
 62
    33
  0
POLYLINE
  5
32C
330
6B
100
AcDbEntity
  8
0
 62
   250
100
AcDbPolyFaceMesh
 66
     1
 10
0.0
 20
0.0
 30
0.0
 70
    64
 71
    19
 72
    17
  0
VERTEX
  5
32D
330
32C
100
AcDbEntity
  8
0
 62
   250
100
AcDbVertex
100
AcDbPolyFaceMeshVertex
 10
-3.595551477749142
 20
-0.0000000000000452
 30
28.13424927911546
 70
   192
  0
VERTEX
  5
32E
330
32C
100
AcDbEntity
  8
0
 62
   250
100
AcDbVertex
100
AcDbPolyFaceMeshVertex
 10
-97.91815097480128
 20
0.0
 30
36.78054935564339
 70
   192
  0
VERTEX
  5
32F
330
32C
100
AcDbEntity
  8
0
 62
   250
100
AcDbVertex
100
AcDbPolyFaceMeshVertex
 10
-125.8437501517349
 20
0.0
 30
35.49795181920757
 70
   192
  0
VERTEX
  5
330
330
32C
100
AcDbEntity
  8
0
 62
   250
100
AcDbVertex
100
AcDbPolyFaceMeshVertex
 10
-0.1001061625300306
 20
0.0
 30
54.95416603823646
 70
   192
  0
VERTEX
  5
331
330
32C
100
AcDbEntity
  8
0
 62
   250
100
AcDbVertex
100
AcDbPolyFaceMeshVertex
 10
-88.03122065317949
 20
0.0000000000000004
 30
42.32868458869621
 70
   192
  0
VERTEX
  5
332
330
32C
100
AcDbEntity
  8
0
 62
   250
100
AcDbVertex
100
AcDbPolyFaceMeshVertex
 10
-70.56704397686528
 20
0.0
 30
55.94314082959836
 70
   192
  0
VERTEX
  5
333
330
32C
100
AcDbEntity
  8
0
 62
   250
100
AcDbVertex
100
AcDbPolyFaceMeshVertex
 10
-5.599304271403719
 20
0.0
 30
75.72842013515185
 70
   192
  0
VERTEX
  5
334
330
32C
100
AcDbEntity
  8
0
 62
   250
100
AcDbVertex
100
AcDbPolyFaceMeshVertex
 10
-0.1001061625300783
 20
-0.0000000000000451
 30
80.97210713808519
 70
   192
  0
VERTEX
  5
335
330
32C
100
AcDbEntity
  8
0
 62
   250
100
AcDbVertex
100
AcDbPolyFaceMeshVertex
 10
-56.87695763495955
 20
-0.0000000000000449
 30
63.08855413698927
 70
   192
  0
VERTEX
  5
336
330
32C
100
AcDbEntity
  8
0
 62
   250
100
AcDbVertex
100
AcDbPolyFaceMeshVertex
 10
-86.93443589430795
 20
-0.0000000000000004
 30
11.05964177012919
 70
   192
  0
VERTEX
  5
337
330
32C
100
AcDbEntity
  8
0
 62
   250
100
AcDbVertex
100
AcDbPolyFaceMeshVertex
 10
-134.2057700250778
 20
-0.0000000000000451
 30
7.22193317428887
 70
   192
  0
VERTEX
  5
338
330
32C
100
AcDbEntity
  8
0
 62
   250
100
AcDbVertex
100
AcDbPolyFaceMeshVertex
 10
-108.5446250487888
 20
-0.0000000000000004
 30
2.46094416893892
 70
   192
  0
VERTEX
  5
339
330
32C
100
AcDbEntity
  8
0
 62
   250
100
AcDbVertex
100
AcDbPolyFaceMeshVertex
 10
-164.9660150464994
 20
0.0000000000000007
 30
19.29828077281491
 70
   192
  0
VERTEX
  5
33A
330
32C
100
AcDbEntity
  8
0
 62
   250
100
AcDbVertex
100
AcDbPolyFaceMeshVertex
 10
-59.04309270429922
 20
0.0000000000000004
 30
15.84554422051577
 70
   192
  0
VERTEX
  5
33B
330
32C
100
AcDbEntity
  8
0
 62
   250
100
AcDbVertex
100
AcDbPolyFaceMeshVertex
 10
-15.53502342288954
 20
-0.0000000000000001
 30
19.54726692886484
 70
   192
  0
VERTEX
  5
33C
330
32C
100
AcDbEntity
  8
0
 62
   250
100
AcDbVertex
100
AcDbPolyFaceMeshVertex
 10
-179.296732832203
 20
-0.0000000000000007
 30
21.37914661063057
 70
   192
  0
VERTEX
  5
33D
330
32C
100
AcDbEntity
  8
0
 62
   250
100
AcDbVertex
100
AcDbPolyFaceMeshVertex
 10
-152.7047444363031
 20
-0.0000000000000007
 30
35.49795181920757
 70
   192
  0
VERTEX
  5
33E
330
32C
100
AcDbEntity
  8
0
 62
   250
100
AcDbVertex
100
AcDbPolyFaceMeshVertex
 10
-169.8720358925976
 20
0.0000000000000007
 30
38.00368087148597
 70
   192
  0
VERTEX
  5
33F
330
32C
100
AcDbEntity
  8
0
 62
   250
100
AcDbVertex
100
AcDbPolyFaceMeshVertex
 10
-180.9540701043967
 20
-0.0000000000000007
 30
44.9223521701811
 70
   192
  0
VERTEX
  5
340
330
32C
100
AcDbEntity
  8
0
 62
   250
100
AcDbFaceRecord
 10
0.0
 20
0.0
 30
0.0
 70
   128
 71
    -1
 72
     2
 73
    -3
  0
VERTEX
  5
341
330
32C
100
AcDbEntity
  8
0
 62
   250
100
AcDbFaceRecord
 10
0.0
 20
0.0
 30
0.0
 70
   128
 71
    -2
 72
     1
 73
    -4
  0
VERTEX
  5
342
330
32C
100
AcDbEntity
  8
0
 62
   250
100
AcDbFaceRecord
 10
0.0
 20
0.0
 30
0.0
 70
   128
 71
    -2
 72
    -4
 73
     5
  0
VERTEX
  5
343
330
32C
100
AcDbEntity
  8
0
 62
   250
100
AcDbFaceRecord
 10
0.0
 20
0.0
 30
0.0
 70
   128
 71
    -5
 72
    -4
 73
     6
  0
VERTEX
  5
344
330
32C
100
AcDbEntity
  8
0
 62
   250
100
AcDbFaceRecord
 10
0.0
 20
0.0
 30
0.0
 70
   128
 71
    -6
 72
    -4
 73
    -7
  0
VERTEX
  5
345
330
32C
100
AcDbEntity
  8
0
 62
   250
100
AcDbFaceRecord
 10
0.0
 20
0.0
 30
0.0
 70
   128
 71
    -7
 72
     4
 73
     8
  0
VERTEX
  5
346
330
32C
100
AcDbEntity
  8
0
 62
   250
100
AcDbFaceRecord
 10
0.0
 20
0.0
 30
0.0
 70
   128
 71
    -6
 72
     7
 73
     9
  0
VERTEX
  5
347
330
32C
100
AcDbEntity
  8
0
 62
   250
100
AcDbFaceRecord
 10
0.0
 20
0.0
 30
0.0
 70
   128
 71
   -10
 72
    11
 73
    12
  0
VERTEX
  5
348
330
32C
100
AcDbEntity
  8
0
 62
   250
100
AcDbFaceRecord
 10
0.0
 20
0.0
 30
0.0
 70
   128
 71
   -11
 72
   -10
 73
    13
  0
VERTEX
  5
349
330
32C
100
AcDbEntity
  8
0
 62
   250
100
AcDbFaceRecord
 10
0.0
 20
0.0
 30
0.0
 70
   128
 71
   -13
 72
    10
 73
   -14
  0
VERTEX
  5
34A
330
32C
100
AcDbEntity
  8
0
 62
   250
100
AcDbFaceRecord
 10
0.0
 20
0.0
 30
0.0
 70
   128
 71
   -13
 72
    14
 73
   -15
  0
VERTEX
  5
34B
330
32C
100
AcDbEntity
  8
0
 62
   250
100
AcDbFaceRecord
 10
0.0
 20
0.0
 30
0.0
 70
   128
 71
   -13
 72
   -15
 73
    16
  0
VERTEX
  5
34C
330
32C
100
AcDbEntity
  8
0
 62
   250
100
AcDbFaceRecord
 10
0.0
 20
0.0
 30
0.0
 70
   128
 71
   -16
 72
    15
 73
    -1
  0
VERTEX
  5
34D
330
32C
100
AcDbEntity
  8
0
 62
   250
100
AcDbFaceRecord
 10
0.0
 20
0.0
 30
0.0
 70
   128
 71
   -16
 72
    -1
 73
   -17
  0
VERTEX
  5
34E
330
32C
100
AcDbEntity
  8
0
 62
   250
100
AcDbFaceRecord
 10
0.0
 20
0.0
 30
0.0
 70
   128
 71
   -16
 72
    17
 73
   -18
  0
VERTEX
  5
34F
330
32C
100
AcDbEntity
  8
0
 62
   250
100
AcDbFaceRecord
 10
0.0
 20
0.0
 30
0.0
 70
   128
 71
   -16
 72
    18
 73
    19
  0
VERTEX
  5
350
330
32C
100
AcDbEntity
  8
0
 62
   250
100
AcDbFaceRecord
 10
0.0
 20
0.0
 30
0.0
 70
   128
 71
   -17
 72
    -1
 73
     3
  0
SEQEND
  5
351
330
32C
100
AcDbEntity
  8
0
 62
   250
  0
POLYLINE
  5
352
330
6B
100
AcDbEntity
  8
0
 62
   251
100
AcDbPolyFaceMesh
 66
     1
 10
0.0
 20
0.0
 30
0.0
 70
    64
 71
     7
 72
     5
  0
VERTEX
  5
353
330
352
100
AcDbEntity
  8
0
 62
   251
100
AcDbVertex
100
AcDbPolyFaceMeshVertex
 10
132.9771927151856
 20
0.0000000000000007
 30
38.06302507426212
 70
   192
  0
VERTEX
  5
354
330
352
100
AcDbEntity
  8
0
 62
   251
100
AcDbVertex
100
AcDbPolyFaceMeshVertex
 10
54.84857298602623
 20
-0.0000000000000449
 30
38.32399659338467
 70
   192
  0
VERTEX
  5
355
330
352
100
AcDbEntity
  8
0
 62
   251
100
AcDbVertex
100
AcDbPolyFaceMeshVertex
 10
109.3172234346805
 20
-0.0000000000000448
 30
36.17966078845205
 70
   192
  0
VERTEX
  5
356
330
352
100
AcDbEntity
  8
0
 62
   251
100
AcDbVertex
100
AcDbPolyFaceMeshVertex
 10
128.938795945253
 20
0.0
 30
44.32142843661658
 70
   192
  0
VERTEX
  5
357
330
352
100
AcDbEntity
  8
0
 62
   251
100
AcDbVertex
100
AcDbPolyFaceMeshVertex
 10
109.4631450413235
 20
-0.0000000000000899
 30
43.2893351657608
 70
   192
  0
VERTEX
  5
358
330
352
100
AcDbEntity
  8
0
 62
   251
100
AcDbVertex
100
AcDbPolyFaceMeshVertex
 10
58.19304335203584
 20
0.0000000000000004
 30
45.19353307075716
 70
   192
  0
VERTEX
  5
359
330
352
100
AcDbEntity
  8
0
 62
   251
100
AcDbVertex
100
AcDbPolyFaceMeshVertex
 10
55.5884133270224
 20
0.0
 30
45.29027036741751
 70
   192
  0
VERTEX
  5
35A
330
352
100
AcDbEntity
  8
0
 62
   251
100
AcDbFaceRecord
 10
0.0
 20
0.0
 30
0.0
 70
   128
 71
    -1
 72
     2
 73
     3
  0
VERTEX
  5
35B
330
352
100
AcDbEntity
  8
0
 62
   251
100
AcDbFaceRecord
 10
0.0
 20
0.0
 30
0.0
 70
   128
 71
    -2
 72
     1
 73
    -4
  0
VERTEX
  5
35C
330
352
100
AcDbEntity
  8
0
 62
   251
100
AcDbFaceRecord
 10
0.0
 20
0.0
 30
0.0
 70
   128
 71
    -2
 72
     4
 73
    -5
  0
VERTEX
  5
35D
330
352
100
AcDbEntity
  8
0
 62
   251
100
AcDbFaceRecord
 10
0.0
 20
0.0
 30
0.0
 70
   128
 71
    -2
 72
     6
 73
     7
  0
VERTEX
  5
35E
330
352
100
AcDbEntity
  8
0
 62
   251
100
AcDbFaceRecord
 10
0.0
 20
0.0
 30
0.0
 70
   128
 71
    -6
 72
    -2
 73
     5
  0
SEQEND
  5
35F
330
352
100
AcDbEntity
  8
0
 62
   251
  0
POLYLINE
  5
360
330
6B
100
AcDbEntity
  8
0
 62
   251
100
AcDbPolyFaceMesh
 66
     1
 10
0.0
 20
0.0
 30
0.0
 70
    64
 71
     8
 72
     6
  0
VERTEX
  5
361
330
360
100
AcDbEntity
  8
0
 62
   251
100
AcDbVertex
100
AcDbPolyFaceMeshVertex
 10
-127.6527925088837
 20
0.0
 30
43.23179697127159
 70
   192
  0
VERTEX
  5
362
330
360
100
AcDbEntity
  8
0
 62
   251
100
AcDbVertex
100
AcDbPolyFaceMeshVertex
 10
-152.7047444363031
 20
-0.0000000000000007
 30
35.49795181920757
 70
   192
  0
VERTEX
  5
363
330
360
100
AcDbEntity
  8
0
 62
   251
100
AcDbVertex
100
AcDbPolyFaceMeshVertex
 10
-125.8437501517349
 20
0.0
 30
35.49795181920757
 70
   192
  0
VERTEX
  5
364
330
360
100
AcDbEntity
  8
0
 62
   251
100
AcDbVertex
100
AcDbPolyFaceMeshVertex
 10
-169.8720358925976
 20
0.0000000000000007
 30
38.00368087148597
 70
   192
  0
VERTEX
  5
365
330
360
100
AcDbEntity
  8
0
 62
   251
100
AcDbVertex
100
AcDbPolyFaceMeshVertex
 10
-155.7673186440116
 20
0.0
 30
43.23179697127159
 70
   192
  0
VERTEX
  5
366
330
360
100
AcDbEntity
  8
0
 62
   251
100
AcDbVertex
100
AcDbPolyFaceMeshVertex
 10
-180.9540701043967
 20
-0.0000000000000007
 30
44.9223521701811
 70
   192
  0
VERTEX
  5
367
330
360
100
AcDbEntity
  8
0
 62
   251
100
AcDbVertex
100
AcDbPolyFaceMeshVertex
 10
-167.595124969435
 20
-0.0000000000000007
 30
44.78903558037241
 70
   192
  0
VERTEX
  5
368
330
360
100
AcDbEntity
  8
0
 62
   251
100
AcDbVertex
100
AcDbPolyFaceMeshVertex
 10
-172.7786044801964
 20
-0.0000000000000007
 30
50.14246037691922
 70
   192
  0
VERTEX
  5
369
330
360
100
AcDbEntity
  8
0
 62
   251
100
AcDbFaceRecord
 10
0.0
 20
0.0
 30
0.0
 70
   128
 71
    -1
 72
     2
 73
     3
  0
VERTEX
  5
36A
330
360
100
AcDbEntity
  8
0
 62
   251
100
AcDbFaceRecord
 10
0.0
 20
0.0
 30
0.0
 70
   128
 71
    -2
 72
    -1
 73
     4
  0
VERTEX
  5
36B
330
360
100
AcDbEntity
  8
0
 62
   251
100
AcDbFaceRecord
 10
0.0
 20
0.0
 30
0.0
 70
   128
 71
    -4
 72
     1
 73
    -5
  0
VERTEX
  5
36C
330
360
100
AcDbEntity
  8
0
 62
   251
100
AcDbFaceRecord
 10
0.0
 20
0.0
 30
0.0
 70
   128
 71
    -4
 72
    -5
 73
     6
  0
VERTEX
  5
36D
330
360
100
AcDbEntity
  8
0
 62
   251
100
AcDbFaceRecord
 10
0.0
 20
0.0
 30
0.0
 70
   128
 71
    -6
 72
     5
 73
    -7
  0
VERTEX
  5
36E
330
360
100
AcDbEntity
  8
0
 62
   251
100
AcDbFaceRecord
 10
0.0
 20
0.0
 30
0.0
 70
   128
 71
    -6
 72
     7
 73
     8
  0
SEQEND
  5
36F
330
360
100
AcDbEntity
  8
0
 62
   251
  0
POLYLINE
  5
370
330
6B
100
AcDbEntity
  8
0
 62
    33
100
AcDbPolyFaceMesh
 66
     1
 10
0.0
 20
0.0
 30
0.0
 70
    64
 71
     8
 72
     6
  0
VERTEX
  5
371
330
370
100
AcDbEntity
  8
0
 62
    33
100
AcDbVertex
100
AcDbPolyFaceMeshVertex
 10
-134.7431886251524
 20
-0.0000000000000007
 30
56.23112839067579
 70
   192
  0
VERTEX
  5
372
330
370
100
AcDbEntity
  8
0
 62
    33
100
AcDbVertex
100
AcDbPolyFaceMeshVertex
 10
-155.7673186440116
 20
0.0
 30
43.23179697127159
 70
   192
  0
VERTEX
  5
373
330
370
100
AcDbEntity
  8
0
 62
    33
100
AcDbVertex
100
AcDbPolyFaceMeshVertex
 10
-127.6527925088837
 20
0.0
 30
43.23179697127159
 70
   192
  0
VERTEX
  5
374
330
370
100
AcDbEntity
  8
0
 62
    33
100
AcDbVertex
100
AcDbPolyFaceMeshVertex
 10
-167.595124969435
 20
-0.0000000000000007
 30
44.78903558037241
 70
   192
  0
VERTEX
  5
375
330
370
100
AcDbEntity
  8
0
 62
    33
100
AcDbVertex
100
AcDbPolyFaceMeshVertex
 10
-172.7786044801964
 20
-0.0000000000000007
 30
50.14246037691922
 70
   192
  0
VERTEX
  5
376
330
370
100
AcDbEntity
  8
0
 62
    33
100
AcDbVertex
100
AcDbPolyFaceMeshVertex
 10
-173.1962606918234
 20
-0.0000000000000451
 30
55.94314082959836
 70
   192
  0
VERTEX
  5
377
330
370
100
AcDbEntity
  8
0
 62
    33
100
AcDbVertex
100
AcDbPolyFaceMeshVertex
 10
-171.0021868725004
 20
0.0
 30
61.59463720068982
 70
   192
  0
VERTEX
  5
378
330
370
100
AcDbEntity
  8
0
 62
    33
100
AcDbVertex
100
AcDbPolyFaceMeshVertex
 10
-159.5139745300166
 20
0.0000000000000007
 30
67.51276675139876
 70
   192
  0
VERTEX
  5
379
330
370
100
AcDbEntity
  8
0
 62
    33
100
AcDbFaceRecord
 10
0.0
 20
0.0
 30
0.0
 70
   128
 71
    -1
 72
     2
 73
     3
  0
VERTEX
  5
37A
330
370
100
AcDbEntity
  8
0
 62
    33
100
AcDbFaceRecord
 10
0.0
 20
0.0
 30
0.0
 70
   128
 71
    -2
 72
    -1
 73
     4
  0
VERTEX
  5
37B
330
370
100
AcDbEntity
  8
0
 62
    33
100
AcDbFaceRecord
 10
0.0
 20
0.0
 30
0.0
 70
   128
 71
    -4
 72
    -1
 73
     5
  0
VERTEX
  5
37C
330
370
100
AcDbEntity
  8
0
 62
    33
100
AcDbFaceRecord
 10
0.0
 20
0.0
 30
0.0
 70
   128
 71
    -5
 72
    -1
 73
     6
  0
VERTEX
  5
37D
330
370
100
AcDbEntity
  8
0
 62
    33
100
AcDbFaceRecord
 10
0.0
 20
0.0
 30
0.0
 70
   128
 71
    -6
 72
    -1
 73
     7
  0
VERTEX
  5
37E
330
370
100
AcDbEntity
  8
0
 62
    33
100
AcDbFaceRecord
 10
0.0
 20
0.0
 30
0.0
 70
   128
 71
    -7
 72
     1
 73
     8
  0
SEQEND
  5
37F
330
370
100
AcDbEntity
  8
0
 62
    33
  0
POLYLINE
  5
380
330
6B
100
AcDbEntity
  8
0
 62
    18
100
AcDbPolyFaceMesh
 66
     1
 10
0.0
 20
0.0
 30
0.0
 70
    64
 71
     8
 72
     6
  0
VERTEX
  5
381
330
380
100
AcDbEntity
  8
0
 62
    18
100
AcDbVertex
100
AcDbPolyFaceMeshVertex
 10
141.1993149543246
 20
-0.0000000000000895
 30
2.180964500909
 70
   192
  0
VERTEX
  5
382
330
380
100
AcDbEntity
  8
0
 62
    18
100
AcDbVertex
100
AcDbPolyFaceMeshVertex
 10
76.16602916132722
 20
0.0
 30
3.370284912773392
 70
   192
  0
VERTEX
  5
383
330
380
100
AcDbEntity
  8
0
 62
    18
100
AcDbVertex
100
AcDbPolyFaceMeshVertex
 10
126.5193640551634
 20
0.0
 30
0.0
 70
   192
  0
VERTEX
  5
384
330
380
100
AcDbEntity
  8
0
 62
    18
100
AcDbVertex
100
AcDbPolyFaceMeshVertex
 10
119.391746065656
 20
0.0000000000000007
 30
6.740273236915363
 70
   192
  0
VERTEX
  5
385
330
380
100
AcDbEntity
  8
0
 62
    18
100
AcDbVertex
100
AcDbPolyFaceMeshVertex
 10
62.08978442135506
 20
0.0000000000000004
 30
7.335526620110377
 70
   192
  0
VERTEX
  5
386
330
380
100
AcDbEntity
  8
0
 62
    18
100
AcDbVertex
100
AcDbPolyFaceMeshVertex
 10
83.50897049722349
 20
0.0000000000000004
 30
19.22947221033295
 70
   192
  0
VERTEX
  5
387
330
380
100
AcDbEntity
  8
0
 62
    18
100
AcDbVertex
100
AcDbPolyFaceMeshVertex
 10
58.72854546183918
 20
-0.0000000000000004
 30
15.85978047482235
 70
   192
  0
VERTEX
  5
388
330
380
100
AcDbEntity
  8
0
 62
    18
100
AcDbVertex
100
AcDbPolyFaceMeshVertex
 10
64.87386190419105
 20
-0.0000000000000004
 30
20.22096800506185
 70
   192
  0
VERTEX
  5
389
330
380
100
AcDbEntity
  8
0
 62
    18
100
AcDbFaceRecord
 10
0.0
 20
0.0
 30
0.0
 70
   128
 71
    -1
 72
     2
 73
     3
  0
VERTEX
  5
38A
330
380
100
AcDbEntity
  8
0
 62
    18
100
AcDbFaceRecord
 10
0.0
 20
0.0
 30
0.0
 70
   128
 71
    -2
 72
     1
 73
    -4
  0
VERTEX
  5
38B
330
380
100
AcDbEntity
  8
0
 62
    18
100
AcDbFaceRecord
 10
0.0
 20
0.0
 30
0.0
 70
   128
 71
    -2
 72
    -4
 73
     5
  0
VERTEX
  5
38C
330
380
100
AcDbEntity
  8
0
 62
    18
100
AcDbFaceRecord
 10
0.0
 20
0.0
 30
0.0
 70
   128
 71
    -5
 72
     4
 73
    -6
  0
VERTEX
  5
38D
330
380
100
AcDbEntity
  8
0
 62
    18
100
AcDbFaceRecord
 10
0.0
 20
0.0
 30
0.0
 70
   128
 71
    -5
 72
    -6
 73
     7
  0
VERTEX
  5
38E
330
380
100
AcDbEntity
  8
0
 62
    18
100
AcDbFaceRecord
 10
0.0
 20
0.0
 30
0.0
 70
   128
 71
    -7
 72
     6
 73
     8
  0
SEQEND
  5
38F
330
380
100
AcDbEntity
  8
0
 62
    18
  0
POLYLINE
  5
390
330
6B
100
AcDbEntity
  8
0
 62
    18
100
AcDbPolyFaceMesh
 66
     1
 10
0.0
 20
0.0
 30
0.0
 70
    64
 71
     6
 72
     4
  0
VERTEX
  5
391
330
390
100
AcDbEntity
  8
0
 62
    18
100
AcDbVertex
100
AcDbPolyFaceMeshVertex
 10
-134.2057700250778
 20
-0.0000000000000451
 30
7.22193317428887
 70
   192
  0
VERTEX
  5
392
330
390
100
AcDbEntity
  8
0
 62
    18
100
AcDbVertex
100
AcDbPolyFaceMeshVertex
 10
-129.3212518547552
 20
-0.0000000000000007
 30
3.499004378795599
 70
   192
  0
VERTEX
  5
393
330
390
100
AcDbEntity
  8
0
 62
    18
100
AcDbVertex
100
AcDbPolyFaceMeshVertex
 10
-108.5446250487888
 20
-0.0000000000000004
 30
2.46094416893892
 70
   192
  0
VERTEX
  5
394
330
390
100
AcDbEntity
  8
0
 62
    18
100
AcDbVertex
100
AcDbPolyFaceMeshVertex
 10
-166.4535553272239
 20
-0.0000000000000451
 30
12.50640111403814
 70
   192
  0
VERTEX
  5
395
330
390
100
AcDbEntity
  8
0
 62
    18
100
AcDbVertex
100
AcDbPolyFaceMeshVertex
 10
-164.9660150464994
 20
0.0000000000000007
 30
19.29828077281491
 70
   192
  0
VERTEX
  5
396
330
390
100
AcDbEntity
  8
0
 62
    18
100
AcDbVertex
100
AcDbPolyFaceMeshVertex
 10
-179.296732832203
 20
-0.0000000000000007
 30
21.37914661063057
 70
   192
  0
VERTEX
  5
397
330
390
100
AcDbEntity
  8
0
 62
    18
100
AcDbFaceRecord
 10
0.0
 20
0.0
 30
0.0
 70
   128
 71
    -1
 72
     2
 73
     3
  0
VERTEX
  5
398
330
390
100
AcDbEntity
  8
0
 62
    18
100
AcDbFaceRecord
 10
0.0
 20
0.0
 30
0.0
 70
   128
 71
    -2
 72
    -1
 73
     4
  0
VERTEX
  5
399
330
390
100
AcDbEntity
  8
0
 62
    18
100
AcDbFaceRecord
 10
0.0
 20
0.0
 30
0.0
 70
   128
 71
    -4
 72
     1
 73
    -5
  0
VERTEX
  5
39A
330
390
100
AcDbEntity
  8
0
 62
    18
100
AcDbFaceRecord
 10
0.0
 20
0.0
 30
0.0
 70
   128
 71
    -4
 72
     5
 73
     6
  0
SEQEND
  5
39B
330
390
100
AcDbEntity
  8
0
 62
    18
  0
POLYLINE
  5
39C
330
6B
100
AcDbEntity
  8
0
 62
   250
100
AcDbPolyFaceMesh
 66
     1
 10
0.0
 20
0.0
 30
0.0
 70
    64
 71
    15
 72
    13
  0
VERTEX
  5
39D
330
39C
100
AcDbEntity
  8
0
 62
   250
100
AcDbVertex
100
AcDbPolyFaceMeshVertex
 10
156.3739756906426
 20
0.0
 30
42.51242124584092
 70
   192
  0
VERTEX
  5
39E
330
39C
100
AcDbEntity
  8
0
 62
   250
100
AcDbVertex
100
AcDbPolyFaceMeshVertex
 10
132.9771927151856
 20
0.0000000000000007
 30
38.06302507426212
 70
   192
  0
VERTEX
  5
39F
330
39C
100
AcDbEntity
  8
0
 62
   250
100
AcDbVertex
100
AcDbPolyFaceMeshVertex
 10
134.585388474381
 20
-0.0000000000000444
 30
35.57076432821324
 70
   192
  0
VERTEX
  5
3A0
330
39C
100
AcDbEntity
  8
0
 62
   250
100
AcDbVertex
100
AcDbPolyFaceMeshVertex
 10
128.938795945253
 20
0.0
 30
44.32142843661658
 70
   192
  0
VERTEX
  5
3A1
330
39C
100
AcDbEntity
  8
0
 62
   250
100
AcDbVertex
100
AcDbPolyFaceMeshVertex
 10
171.7983640545878
 20
-0.0000000000000458
 30
61.21515204682926
 70
   192
  0
VERTEX
  5
3A2
330
39C
100
AcDbEntity
  8
0
 62
   250
100
AcDbVertex
100
AcDbPolyFaceMeshVertex
 10
120.6101321633963
 20
0.0000000000000451
 30
53.69247800031351
 70
   192
  0
VERTEX
  5
3A3
330
39C
100
AcDbEntity
  8
0
 62
   250
100
AcDbVertex
100
AcDbPolyFaceMeshVertex
 10
107.0287455548939
 20
-0.0000000000000451
 30
57.62376030935635
 70
   192
  0
VERTEX
  5
3A4
330
39C
100
AcDbEntity
  8
0
 62
   250
100
AcDbVertex
100
AcDbPolyFaceMeshVertex
 10
76.29326568419323
 20
-0.0000000000000451
 30
62.27011780867505
 70
   192
  0
VERTEX
  5
3A5
330
39C
100
AcDbEntity
  8
0
 62
   250
100
AcDbVertex
100
AcDbPolyFaceMeshVertex
 10
169.5478495196186
 20
-0.0000000000000451
 30
63.38217688206311
 70
   192
  0
VERTEX
  5
3A6
330
39C
100
AcDbEntity
  8
0
 62
   250
100
AcDbVertex
100
AcDbPolyFaceMeshVertex
 10
64.46323494403472
 20
0.0000000000000004
 30
59.77921818796617
 70
   192
  0
VERTEX
  5
3A7
330
39C
100
AcDbEntity
  8
0
 62
   250
100
AcDbVertex
100
AcDbPolyFaceMeshVertex
 10
87.77280077367736
 20
-0.0000000000000007
 30
96.69289009042791
 70
   192
  0
VERTEX
  5
3A8
330
39C
100
AcDbEntity
  8
0
 62
   250
100
AcDbVertex
100
AcDbPolyFaceMeshVertex
 10
62.71084101548007
 20
0.0000000000000004
 30
59.41070681346699
 70
   192
  0
VERTEX
  5
3A9
330
39C
100
AcDbEntity
  8
0
 62
   250
100
AcDbVertex
100
AcDbPolyFaceMeshVertex
 10
165.7621922285875
 20
0.0000000000000007
 30
67.02739945613278
 70
   192
  0
VERTEX
  5
3AA
330
39C
100
AcDbEntity
  8
0
 62
   250
100
AcDbVertex
100
AcDbPolyFaceMeshVertex
 10
155.8365570905678
 20
0.0000000000000014
 30
76.1340050885744
 70
   192
  0
VERTEX
  5
3AB
330
39C
100
AcDbEntity
  8
0
 62
   250
100
AcDbVertex
100
AcDbPolyFaceMeshVertex
 10
112.3691204516593
 20
0.0
 30
94.49506578620473
 70
   192
  0
VERTEX
  5
3AC
330
39C
100
AcDbEntity
  8
0
 62
   250
100
AcDbFaceRecord
 10
0.0
 20
0.0
 30
0.0
 70
   128
 71
    -1
 72
     2
 73
     3
  0
VERTEX
  5
3AD
330
39C
100
AcDbEntity
  8
0
 62
   250
100
AcDbFaceRecord
 10
0.0
 20
0.0
 30
0.0
 70
   128
 71
    -2
 72
    -1
 73
     4
  0
VERTEX
  5
3AE
330
39C
100
AcDbEntity
  8
0
 62
   250
100
AcDbFaceRecord
 10
0.0
 20
0.0
 30
0.0
 70
   128
 71
    -4
 72
     1
 73
    -5
  0
VERTEX
  5
3AF
330
39C
100
AcDbEntity
  8
0
 62
   250
100
AcDbFaceRecord
 10
0.0
 20
0.0
 30
0.0
 70
   128
 71
    -4
 72
    -5
 73
     6
  0
VERTEX
  5
3B0
330
39C
100
AcDbEntity
  8
0
 62
   250
100
AcDbFaceRecord
 10
0.0
 20
0.0
 30
0.0
 70
   128
 71
    -6
 72
    -5
 73
     7
  0
VERTEX
  5
3B1
330
39C
100
AcDbEntity
  8
0
 62
   250
100
AcDbFaceRecord
 10
0.0
 20
0.0
 30
0.0
 70
   128
 71
    -7
 72
    -5
 73
     8
  0
VERTEX
  5
3B2
330
39C
100
AcDbEntity
  8
0
 62
   250
100
AcDbFaceRecord
 10
0.0
 20
0.0
 30
0.0
 70
   128
 71
    -8
 72
     5
 73
    -9
  0
VERTEX
  5
3B3
330
39C
100
AcDbEntity
  8
0
 62
   250
100
AcDbFaceRecord
 10
0.0
 20
0.0
 30
0.0
 70
   128
 71
   -10
 72
    11
 73
    12
  0
VERTEX
  5
3B4
330
39C
100
AcDbEntity
  8
0
 62
   250
100
AcDbFaceRecord
 10
0.0
 20
0.0
 30
0.0
 70
   128
 71
   -11
 72
    10
 73
    -8
  0
VERTEX
  5
3B5
330
39C
100
AcDbEntity
  8
0
 62
   250
100
AcDbFaceRecord
 10
0.0
 20
0.0
 30
0.0
 70
   128
 71
   -11
 72
    -8
 73
    -9
  0
VERTEX
  5
3B6
330
39C
100
AcDbEntity
  8
0
 62
   250
100
AcDbFaceRecord
 10
0.0
 20
0.0
 30
0.0
 70
   128
 71
   -11
 72
     9
 73
   -13
  0
VERTEX
  5
3B7
330
39C
100
AcDbEntity
  8
0
 62
   250
100
AcDbFaceRecord
 10
0.0
 20
0.0
 30
0.0
 70
   128
 71
   -11
 72
    13
 73
   -14
  0
VERTEX
  5
3B8
330
39C
100
AcDbEntity
  8
0
 62
   250
100
AcDbFaceRecord
 10
0.0
 20
0.0
 30
0.0
 70
   128
 71
   -11
 72
    14
 73
    15
  0
SEQEND
  5
3B9
330
39C
100
AcDbEntity
  8
0
 62
   250
  0
POLYLINE
  5
3BA
330
6B
100
AcDbEntity
  8
0
 62
   251
100
AcDbPolyFaceMesh
 66
     1
 10
0.0
 20
0.0
 30
0.0
 70
    64
 71
     4
 72
     2
  0
VERTEX
  5
3BB
330
3BA
100
AcDbEntity
  8
0
 62
   251
100
AcDbVertex
100
AcDbPolyFaceMeshVertex
 10
189.3807313005084
 20
-0.0000000000000451
 30
100.5993047031094
 70
   192
  0
VERTEX
  5
3BC
330
3BA
100
AcDbEntity
  8
0
 62
   251
100
AcDbVertex
100
AcDbPolyFaceMeshVertex
 10
182.9417921130846
 20
-0.0000000000000451
 30
101.5836823706852
 70
   192
  0
VERTEX
  5
3BD
330
3BA
100
AcDbEntity
  8
0
 62
   251
100
AcDbVertex
100
AcDbPolyFaceMeshVertex
 10
178.296027791028
 20
0.0
 30
86.57348003047238
 70
   192
  0
VERTEX
  5
3BE
330
3BA
100
AcDbEntity
  8
0
 62
   251
100
AcDbVertex
100
AcDbPolyFaceMeshVertex
 10
181.062013367349
 20
-0.0000000000000451
 30
112.0577098881389
 70
   192
  0
VERTEX
  5
3BF
330
3BA
100
AcDbEntity
  8
0
 62
   251
100
AcDbFaceRecord
 10
0.0
 20
0.0
 30
0.0
 70
   128
 71
    -1
 72
     2
 73
     3
  0
VERTEX
  5
3C0
330
3BA
100
AcDbEntity
  8
0
 62
   251
100
AcDbFaceRecord
 10
0.0
 20
0.0
 30
0.0
 70
   128
 71
    -2
 72
     1
 73
     4
  0
SEQEND
  5
3C1
330
3BA
100
AcDbEntity
  8
0
 62
   251
  0
POLYLINE
  5
3C2
330
6B
100
AcDbEntity
  8
0
 62
    33
100
AcDbPolyFaceMesh
 66
     1
 10
0.0
 20
0.0
 30
0.0
 70
    64
 71
    27
 72
    25
  0
VERTEX
  5
3C3
330
3C2
100
AcDbEntity
  8
0
 62
    33
100
AcDbVertex
100
AcDbPolyFaceMeshVertex
 10
168.2885341907465
 20
-0.0000000000000444
 30
71.56194304141829
 70
   192
  0
VERTEX
  5
3C4
330
3C2
100
AcDbEntity
  8
0
 62
    33
100
AcDbVertex
100
AcDbPolyFaceMeshVertex
 10
155.8365570905678
 20
0.0000000000000014
 30
76.1340050885744
 70
   192
  0
VERTEX
  5
3C5
330
3C2
100
AcDbEntity
  8
0
 62
    33
100
AcDbVertex
100
AcDbPolyFaceMeshVertex
 10
165.7621922285875
 20
0.0000000000000007
 30
67.02739945613278
 70
   192
  0
VERTEX
  5
3C6
330
3C2
100
AcDbEntity
  8
0
 62
    33
100
AcDbVertex
100
AcDbPolyFaceMeshVertex
 10
178.296027791028
 20
0.0
 30
86.57348003047238
 70
   192
  0
VERTEX
  5
3C7
330
3C2
100
AcDbEntity
  8
0
 62
    33
100
AcDbVertex
100
AcDbPolyFaceMeshVertex
 10
112.3691204516593
 20
0.0
 30
94.49506578620473
 70
   192
  0
VERTEX
  5
3C8
330
3C2
100
AcDbEntity
  8
0
 62
    33
100
AcDbVertex
100
AcDbPolyFaceMeshVertex
 10
182.9417921130846
 20
-0.0000000000000451
 30
101.5836823706852
 70
   192
  0
VERTEX
  5
3C9
330
3C2
100
AcDbEntity
  8
0
 62
    33
100
AcDbVertex
100
AcDbPolyFaceMeshVertex
 10
87.77280077367736
 20
-0.0000000000000007
 30
96.69289009042791
 70
   192
  0
VERTEX
  5
3CA
330
3C2
100
AcDbEntity
  8
0
 62
    33
100
AcDbVertex
100
AcDbPolyFaceMeshVertex
 10
95.42323240869587
 20
-0.0000000000000448
 30
109.3240524726392
 70
   192
  0
VERTEX
  5
3CB
330
3C2
100
AcDbEntity
  8
0
 62
    33
100
AcDbVertex
100
AcDbPolyFaceMeshVertex
 10
181.062013367349
 20
-0.0000000000000451
 30
112.0577098881389
 70
   192
  0
VERTEX
  5
3CC
330
3C2
100
AcDbEntity
  8
0
 62
    33
100
AcDbVertex
100
AcDbPolyFaceMeshVertex
 10
99.33286374764701
 20
-0.0000000000000455
 30
127.8304415996493
 70
   192
  0
VERTEX
  5
3CD
330
3C2
100
AcDbEntity
  8
0
 62
    33
100
AcDbVertex
100
AcDbPolyFaceMeshVertex
 10
180.4403635959612
 20
-0.0000000000000451
 30
115.5221616913781
 70
   192
  0
VERTEX
  5
3CE
330
3C2
100
AcDbEntity
  8
0
 62
    33
100
AcDbVertex
100
AcDbPolyFaceMeshVertex
 10
172.2201130884214
 20
-0.0000000000000902
 30
126.2447304819354
 70
   192
  0
VERTEX
  5
3CF
330
3C2
100
AcDbEntity
  8
0
 62
    33
100
AcDbVertex
100
AcDbPolyFaceMeshVertex
 10
160.4253763953975
 20
-0.0000000000000895
 30
163.7713485398346
 70
   192
  0
VERTEX
  5
3D0
330
3C2
100
AcDbEntity
  8
0
 62
    33
100
AcDbVertex
100
AcDbPolyFaceMeshVertex
 10
100.4361734564094
 20
-0.0000000000000004
 30
150.2046430685855
 70
   192
  0
VERTEX
  5
3D1
330
3C2
100
AcDbEntity
  8
0
 62
    33
100
AcDbVertex
100
AcDbPolyFaceMeshVertex
 10
104.8055171740119
 20
-0.0000000000000444
 30
180.9973645451444
 70
   192
  0
VERTEX
  5
3D2
330
3C2
100
AcDbEntity
  8
0
 62
    33
100
AcDbVertex
100
AcDbPolyFaceMeshVertex
 10
158.7852412638251
 20
-0.0000000000000902
 30
184.4816877866859
 70
   192
  0
VERTEX
  5
3D3
330
3C2
100
AcDbEntity
  8
0
 62
    33
100
AcDbVertex
100
AcDbPolyFaceMeshVertex
 10
103.5177293365269
 20
-0.0000000000000902
 30
207.7858429093386
 70
   192
  0
VERTEX
  5
3D4
330
3C2
100
AcDbEntity
  8
0
 62
    33
100
AcDbVertex
100
AcDbPolyFaceMeshVertex
 10
174.0201094923121
 20
-0.0000000000000895
 30
347.1492817348109
 70
   192
  0
VERTEX
  5
3D5
330
3C2
100
AcDbEntity
  8
0
 62
    33
100
AcDbVertex
100
AcDbPolyFaceMeshVertex
 10
97.24962520078148
 20
-0.0000000000000899
 30
234.3613706361955
 70
   192
  0
VERTEX
  5
3D6
330
3C2
100
AcDbEntity
  8
0
 62
    33
100
AcDbVertex
100
AcDbPolyFaceMeshVertex
 10
71.93934457542282
 20
-0.0000000000000899
 30
342.5070764763321
 70
   192
  0
VERTEX
  5
3D7
330
3C2
100
AcDbEntity
  8
0
 62
    33
100
AcDbVertex
100
AcDbPolyFaceMeshVertex
 10
59.80545878240695
 20
-0.0000000000000902
 30
415.6541374582019
 70
   192
  0
VERTEX
  5
3D8
330
3C2
100
AcDbEntity
  8
0
 62
    33
100
AcDbVertex
100
AcDbPolyFaceMeshVertex
 10
168.2861614816954
 20
-0.0000000000000902
 30
396.2072657810619
 70
   192
  0
VERTEX
  5
3D9
330
3C2
100
AcDbEntity
  8
0
 62
    33
100
AcDbVertex
100
AcDbPolyFaceMeshVertex
 10
153.631717204833
 20
-0.0000000000000902
 30
454.1855977992414
 70
   192
  0
VERTEX
  5
3DA
330
3C2
100
AcDbEntity
  8
0
 62
    33
100
AcDbVertex
100
AcDbPolyFaceMeshVertex
 10
43.23994565919784
 20
-0.0000000000000904
 30
468.417699865008
 70
   192
  0
VERTEX
  5
3DB
330
3C2
100
AcDbEntity
  8
0
 62
    33
100
AcDbVertex
100
AcDbPolyFaceMeshVertex
 10
137.7043145220538
 20
-0.0000000000001347
 30
491.1390583269834
 70
   192
  0
VERTEX
  5
3DC
330
3C2
100
AcDbEntity
  8
0
 62
    33
100
AcDbVertex
100
AcDbPolyFaceMeshVertex
 10
29.42959262726396
 20
-0.0000000000002254
 30
523.3993003516479
 70
   192
  0
VERTEX
  5
3DD
330
3C2
100
AcDbEntity
  8
0
 62
    33
100
AcDbVertex
100
AcDbPolyFaceMeshVertex
 10
136.0528529735976
 20
-0.0000000000001339
 30
535.1438945889095
 70
   192
  0
VERTEX
  5
3DE
330
3C2
100
AcDbEntity
  8
0
 62
    33
100
AcDbFaceRecord
 10
0.0
 20
0.0
 30
0.0
 70
   128
 71
    -1
 72
     2
 73
     3
  0
VERTEX
  5
3DF
330
3C2
100
AcDbEntity
  8
0
 62
    33
100
AcDbFaceRecord
 10
0.0
 20
0.0
 30
0.0
 70
   128
 71
    -2
 72
     1
 73
    -4
  0
VERTEX
  5
3E0
330
3C2
100
AcDbEntity
  8
0
 62
    33
100
AcDbFaceRecord
 10
0.0
 20
0.0
 30
0.0
 70
   128
 71
    -2
 72
    -4
 73
     5
  0
VERTEX
  5
3E1
330
3C2
100
AcDbEntity
  8
0
 62
    33
100
AcDbFaceRecord
 10
0.0
 20
0.0
 30
0.0
 70
   128
 71
    -5
 72
     4
 73
    -6
  0
VERTEX
  5
3E2
330
3C2
100
AcDbEntity
  8
0
 62
    33
100
AcDbFaceRecord
 10
0.0
 20
0.0
 30
0.0
 70
   128
 71
    -5
 72
    -6
 73
     7
  0
VERTEX
  5
3E3
330
3C2
100
AcDbEntity
  8
0
 62
    33
100
AcDbFaceRecord
 10
0.0
 20
0.0
 30
0.0
 70
   128
 71
    -7
 72
    -6
 73
     8
  0
VERTEX
  5
3E4
330
3C2
100
AcDbEntity
  8
0
 62
    33
100
AcDbFaceRecord
 10
0.0
 20
0.0
 30
0.0
 70
   128
 71
    -8
 72
     6
 73
    -9
  0
VERTEX
  5
3E5
330
3C2
100
AcDbEntity
  8
0
 62
    33
100
AcDbFaceRecord
 10
0.0
 20
0.0
 30
0.0
 70
   128
 71
    -8
 72
    -9
 73
    10
  0
VERTEX
  5
3E6
330
3C2
100
AcDbEntity
  8
0
 62
    33
100
AcDbFaceRecord
 10
0.0
 20
0.0
 30
0.0
 70
   128
 71
   -10
 72
     9
 73
   -11
  0
VERTEX
  5
3E7
330
3C2
100
AcDbEntity
  8
0
 62
    33
100
AcDbFaceRecord
 10
0.0
 20
0.0
 30
0.0
 70
   128
 71
   -10
 72
    11
 73
   -12
  0
VERTEX
  5
3E8
330
3C2
100
AcDbEntity
  8
0
 62
    33
100
AcDbFaceRecord
 10
0.0
 20
0.0
 30
0.0
 70
   128
 71
   -10
 72
    12
 73
   -13
  0
VERTEX
  5
3E9
330
3C2
100
AcDbEntity
  8
0
 62
    33
100
AcDbFaceRecord
 10
0.0
 20
0.0
 30
0.0
 70
   128
 71
   -10
 72
   -13
 73
    14
  0
VERTEX
  5
3EA
330
3C2
100
AcDbEntity
  8
0
 62
    33
100
AcDbFaceRecord
 10
0.0
 20
0.0
 30
0.0
 70
   128
 71
   -14
 72
   -13
 73
    15
  0
VERTEX
  5
3EB
330
3C2
100
AcDbEntity
  8
0
 62
    33
100
AcDbFaceRecord
 10
0.0
 20
0.0
 30
0.0
 70
   128
 71
   -15
 72
    13
 73
   -16
  0
VERTEX
  5
3EC
330
3C2
100
AcDbEntity
  8
0
 62
    33
100
AcDbFaceRecord
 10
0.0
 20
0.0
 30
0.0
 70
   128
 71
   -15
 72
   -16
 73
    17
  0
VERTEX
  5
3ED
330
3C2
100
AcDbEntity
  8
0
 62
    33
100
AcDbFaceRecord
 10
0.0
 20
0.0
 30
0.0
 70
   128
 71
   -17
 72
    16
 73
   -18
  0
VERTEX
  5
3EE
330
3C2
100
AcDbEntity
  8
0
 62
    33
100
AcDbFaceRecord
 10
0.0
 20
0.0
 30
0.0
 70
   128
 71
   -17
 72
   -18
 73
    19
  0
VERTEX
  5
3EF
330
3C2
100
AcDbEntity
  8
0
 62
    33
100
AcDbFaceRecord
 10
0.0
 20
0.0
 30
0.0
 70
   128
 71
   -19
 72
   -18
 73
    20
  0
VERTEX
  5
3F0
330
3C2
100
AcDbEntity
  8
0
 62
    33
100
AcDbFaceRecord
 10
0.0
 20
0.0
 30
0.0
 70
   128
 71
   -20
 72
   -18
 73
    21
  0
VERTEX
  5
3F1
330
3C2
100
AcDbEntity
  8
0
 62
    33
100
AcDbFaceRecord
 10
0.0
 20
0.0
 30
0.0
 70
   128
 71
   -21
 72
    18
 73
   -22
  0
VERTEX
  5
3F2
330
3C2
100
AcDbEntity
  8
0
 62
    33
100
AcDbFaceRecord
 10
0.0
 20
0.0
 30
0.0
 70
   128
 71
   -21
 72
    22
 73
   -23
  0
VERTEX
  5
3F3
330
3C2
100
AcDbEntity
  8
0
 62
    33
100
AcDbFaceRecord
 10
0.0
 20
0.0
 30
0.0
 70
   128
 71
   -21
 72
   -23
 73
    24
  0
VERTEX
  5
3F4
330
3C2
100
AcDbEntity
  8
0
 62
    33
100
AcDbFaceRecord
 10
0.0
 20
0.0
 30
0.0
 70
   128
 71
   -24
 72
    23
 73
   -25
  0
VERTEX
  5
3F5
330
3C2
100
AcDbEntity
  8
0
 62
    33
100
AcDbFaceRecord
 10
0.0
 20
0.0
 30
0.0
 70
   128
 71
   -24
 72
   -25
 73
    26
  0
VERTEX
  5
3F6
330
3C2
100
AcDbEntity
  8
0
 62
    33
100
AcDbFaceRecord
 10
0.0
 20
0.0
 30
0.0
 70
   128
 71
   -26
 72
    25
 73
    27
  0
SEQEND
  5
3F7
330
3C2
100
AcDbEntity
  8
0
 62
    33
  0
POLYLINE
  5
3F8
330
6B
100
AcDbEntity
  8
0
 62
   251
100
AcDbPolyFaceMesh
 66
     1
 10
0.0
 20
0.0
 30
0.0
 70
    64
 71
     6
 72
     4
  0
VERTEX
  5
3F9
330
3F8
100
AcDbEntity
  8
0
 62
   251
100
AcDbVertex
100
AcDbPolyFaceMeshVertex
 10
189.4875032078094
 20
0.0
 30
92.14519405972055
 70
   192
  0
VERTEX
  5
3FA
330
3F8
100
AcDbEntity
  8
0
 62
   251
100
AcDbVertex
100
AcDbPolyFaceMeshVertex
 10
165.7621922285875
 20
0.0000000000000007
 30
67.02739945613278
 70
   192
  0
VERTEX
  5
3FB
330
3F8
100
AcDbEntity
  8
0
 62
   251
100
AcDbVertex
100
AcDbPolyFaceMeshVertex
 10
169.5478495196186
 20
-0.0000000000000451
 30
63.38217688206311
 70
   192
  0
VERTEX
  5
3FC
330
3F8
100
AcDbEntity
  8
0
 62
   251
100
AcDbVertex
100
AcDbPolyFaceMeshVertex
 10
168.2885341907465
 20
-0.0000000000000444
 30
71.56194304141829
 70
   192
  0
VERTEX
  5
3FD
330
3F8
100
AcDbEntity
  8
0
 62
   251
100
AcDbVertex
100
AcDbPolyFaceMeshVertex
 10
178.296027791028
 20
0.0
 30
86.57348003047238
 70
   192
  0
VERTEX
  5
3FE
330
3F8
100
AcDbEntity
  8
0
 62
   251
100
AcDbVertex
100
AcDbPolyFaceMeshVertex
 10
189.3807313005084
 20
-0.0000000000000451
 30
100.5993047031094
 70
   192
  0
VERTEX
  5
3FF
330
3F8
100
AcDbEntity
  8
0
 62
   251
100
AcDbFaceRecord
 10
0.0
 20
0.0
 30
0.0
 70
   128
 71
    -1
 72
     2
 73
     3
  0
VERTEX
  5
400
330
3F8
100
AcDbEntity
  8
0
 62
   251
100
AcDbFaceRecord
 10
0.0
 20
0.0
 30
0.0
 70
   128
 71
    -2
 72
    -1
 73
     4
  0
VERTEX
  5
401
330
3F8
100
AcDbEntity
  8
0
 62
   251
100
AcDbFaceRecord
 10
0.0
 20
0.0
 30
0.0
 70
   128
 71
    -4
 72
    -1
 73
     5
  0
VERTEX
  5
402
330
3F8
100
AcDbEntity
  8
0
 62
   251
100
AcDbFaceRecord
 10
0.0
 20
0.0
 30
0.0
 70
   128
 71
    -5
 72
     1
 73
     6
  0
SEQEND
  5
403
330
3F8
100
AcDbEntity
  8
0
 62
   251
  0
POLYLINE
  5
404
330
6B
100
AcDbEntity
  8
0
100
AcDbPolyFaceMesh
 66
     1
 10
0.0
 20
0.0
 30
0.0
 70
    64
 71
    93
 72
    91
  0
VERTEX
  5
405
330
404
100
AcDbEntity
  8
0
100
AcDbVertex
100
AcDbPolyFaceMeshVertex
 10
164.4008504105173
 20
-0.0000000000003158
 30
926.0308241828806
 70
   192
  0
VERTEX
  5
406
330
404
100
AcDbEntity
  8
0
100
AcDbVertex
100
AcDbPolyFaceMeshVertex
 10
-12.61080781172312
 20
-0.0000000000002707
 30
916.4618368741078
 70
   192
  0
VERTEX
  5
407
330
404
100
AcDbEntity
  8
0
100
AcDbVertex
100
AcDbPolyFaceMeshVertex
 10
78.75480303039467
 20
-0.0000000000002711
 30
916.4618368741078
 70
   192
  0
VERTEX
  5
408
330
404
100
AcDbEntity
  8
0
100
AcDbVertex
100
AcDbPolyFaceMeshVertex
 10
-100.5193815663866
 20
-0.0000000000001812
 30
921.8940059522881
 70
   192
  0
VERTEX
  5
409
330
404
100
AcDbEntity
  8
0
100
AcDbVertex
100
AcDbPolyFaceMeshVertex
 10
-139.3038320099998
 20
-0.0000000000002707
 30
930.6665044914705
 70
   192
  0
VERTEX
  5
40A
330
404
100
AcDbEntity
  8
0
100
AcDbVertex
100
AcDbPolyFaceMeshVertex
 10
167.156751973372
 20
-0.0000000000003151
 30
926.3386831822635
 70
   192
  0
VERTEX
  5
40B
330
404
100
AcDbEntity
  8
0
100
AcDbVertex
100
AcDbPolyFaceMeshVertex
 10
135.4775270775961
 20
-0.0000000000003617
 30
999.2481766703914
 70
   192
  0
VERTEX
  5
40C
330
404
100
AcDbEntity
  8
0
100
AcDbVertex
100
AcDbPolyFaceMeshVertex
 10
-142.0039749101536
 20
-0.0000000000003158
 30
931.277328777814
 70
   192
  0
VERTEX
  5
40D
330
404
100
AcDbEntity
  8
0
100
AcDbVertex
100
AcDbPolyFaceMeshVertex
 10
56.37051754799178
 20
-0.0000000000002261
 30
981.2066902230813
 70
   192
  0
VERTEX
  5
40E
330
404
100
AcDbEntity
  8
0
100
AcDbVertex
100
AcDbPolyFaceMeshVertex
 10
85.84089861150844
 20
-0.0000000000003155
 30
988.9492847397721
 70
   192
  0
VERTEX
  5
40F
330
404
100
AcDbEntity
  8
0
100
AcDbVertex
100
AcDbPolyFaceMeshVertex
 10
108.5158409526709
 20
-0.0000000000004064
 30
994.3590613762797
 70
   192
  0
VERTEX
  5
410
330
404
100
AcDbEntity
  8
0
100
AcDbVertex
100
AcDbPolyFaceMeshVertex
 10
88.47000853444361
 20
-0.0000000000001808
 30
1008.778310868454
 70
   192
  0
VERTEX
  5
411
330
404
100
AcDbEntity
  8
0
100
AcDbVertex
100
AcDbPolyFaceMeshVertex
 10
25.19608650283711
 20
-0.0000000000003609
 30
1000.496814808533
 70
   192
  0
VERTEX
  5
412
330
404
100
AcDbEntity
  8
0
100
AcDbVertex
100
AcDbPolyFaceMeshVertex
 10
56.97481688444417
 20
-0.0000000000002714
 30
994.3885719451026
 70
   192
  0
VERTEX
  5
413
330
404
100
AcDbEntity
  8
0
100
AcDbVertex
100
AcDbPolyFaceMeshVertex
 10
85.95464035164525
 20
-0.0000000000002711
 30
1011.293975639885
 70
   192
  0
VERTEX
  5
414
330
404
100
AcDbEntity
  8
0
100
AcDbVertex
100
AcDbPolyFaceMeshVertex
 10
54.44017044060471
 20
-0.0000000000003606
 30
1023.254282936379
 70
   192
  0
VERTEX
  5
415
330
404
100
AcDbEntity
  8
0
100
AcDbVertex
100
AcDbPolyFaceMeshVertex
 10
16.68873820011433
 20
-0.000000000000361
 30
1022.190345368435
 70
   192
  0
VERTEX
  5
416
330
404
100
AcDbEntity
  8
0
100
AcDbVertex
100
AcDbPolyFaceMeshVertex
 10
25.62154289456284
 20
-0.0000000000002707
 30
1014.959069652257
 70
   192
  0
VERTEX
  5
417
330
404
100
AcDbEntity
  8
0
100
AcDbVertex
100
AcDbPolyFaceMeshVertex
 10
51.35609355712085
 20
-0.000000000000316
 30
1030.591959824069
 70
   192
  0
VERTEX
  5
418
330
404
100
AcDbEntity
  8
0
100
AcDbVertex
100
AcDbPolyFaceMeshVertex
 10
60.0766890858111
 20
-0.0000000000002711
 30
1025.486928006308
 70
   192
  0
VERTEX
  5
419
330
404
100
AcDbEntity
  8
0
100
AcDbVertex
100
AcDbPolyFaceMeshVertex
 10
79.8566297959999
 20
-0.0000000000002711
 30
1028.677776797091
 70
   192
  0
VERTEX
  5
41A
330
404
100
AcDbEntity
  8
0
100
AcDbVertex
100
AcDbPolyFaceMeshVertex
 10
74.8586664741714
 20
-0.000000000000361
 30
1030.591959824069
 70
   192
  0
VERTEX
  5
41B
330
404
100
AcDbEntity
  8
0
100
AcDbVertex
100
AcDbPolyFaceMeshVertex
 10
79.54476685009585
 20
-0.0000000000002711
 30
1049.243899821931
 70
   192
  0
VERTEX
  5
41C
330
404
100
AcDbEntity
  8
0
100
AcDbVertex
100
AcDbPolyFaceMeshVertex
 10
27.9247019116031
 20
-0.0000000000004512
 30
1048.99046483641
 70
   192
  0
VERTEX
  5
41D
330
404
100
AcDbEntity
  8
0
100
AcDbVertex
100
AcDbPolyFaceMeshVertex
 10
51.50157028081627
 20
-0.0000000000001805
 30
1048.085721216363
 70
   192
  0
VERTEX
  5
41E
330
404
100
AcDbEntity
  8
0
100
AcDbVertex
100
AcDbPolyFaceMeshVertex
 10
37.91454848831723
 20
-0.0000000000002707
 30
1051.666213321632
 70
   192
  0
VERTEX
  5
41F
330
404
100
AcDbEntity
  8
0
100
AcDbVertex
100
AcDbPolyFaceMeshVertex
 10
57.78806291170815
 20
-0.0000000000001812
 30
1053.958917589415
 70
   192
  0
VERTEX
  5
420
330
404
100
AcDbEntity
  8
0
100
AcDbVertex
100
AcDbPolyFaceMeshVertex
 10
109.4803471819437
 20
-0.0000000000003617
 30
1071.250850418051
 70
   192
  0
VERTEX
  5
421
330
404
100
AcDbEntity
  8
0
100
AcDbVertex
100
AcDbPolyFaceMeshVertex
 10
56.28880738004456
 20
-0.0000000000001807
 30
1071.021661553147
 70
   192
  0
VERTEX
  5
422
330
404
100
AcDbEntity
  8
0
100
AcDbVertex
100
AcDbPolyFaceMeshVertex
 10
108.0596876375963
 20
-0.0000000000002707
 30
1062.349261677057
 70
   192
  0
VERTEX
  5
423
330
404
100
AcDbEntity
  8
0
100
AcDbVertex
100
AcDbPolyFaceMeshVertex
 10
163.9126655232539
 20
-0.0000000000005428
 30
1283.274055104027
 70
   192
  0
VERTEX
  5
424
330
404
100
AcDbEntity
  8
0
100
AcDbVertex
100
AcDbPolyFaceMeshVertex
 10
163.386517291172
 20
-0.0000000000003603
 30
1275.162356035571
 70
   192
  0
VERTEX
  5
425
330
404
100
AcDbEntity
  8
0
100
AcDbVertex
100
AcDbPolyFaceMeshVertex
 10
173.7665262124759
 20
-0.0000000000002693
 30
1272.806255947829
 70
   192
  0
VERTEX
  5
426
330
404
100
AcDbEntity
  8
0
100
AcDbVertex
100
AcDbPolyFaceMeshVertex
 10
163.2981338790185
 20
-0.0000000000004068
 30
1403.698752725086
 70
   192
  0
VERTEX
  5
427
330
404
100
AcDbEntity
  8
0
100
AcDbVertex
100
AcDbPolyFaceMeshVertex
 10
214.7064345347011
 20
-0.0000000000005428
 30
1355.437257448428
 70
   192
  0
VERTEX
  5
428
330
404
100
AcDbEntity
  8
0
100
AcDbVertex
100
AcDbPolyFaceMeshVertex
 10
217.2609524168427
 20
-0.0000000000004963
 30
1354.869364366478
 70
   192
  0
VERTEX
  5
429
330
404
100
AcDbEntity
  8
0
100
AcDbVertex
100
AcDbPolyFaceMeshVertex
 10
204.2659215325933
 20
-0.0000000000006317
 30
1357.75754445893
 70
   192
  0
VERTEX
  5
42A
330
404
100
AcDbEntity
  8
0
100
AcDbVertex
100
AcDbPolyFaceMeshVertex
 10
36.02023689964474
 20
-0.0000000000004514
 30
1366.707699588317
 70
   192
  0
VERTEX
  5
42B
330
404
100
AcDbEntity
  8
0
100
AcDbVertex
100
AcDbPolyFaceMeshVertex
 10
57.45010016624244
 20
-0.000000000000451
 30
1393.121808952539
 70
   192
  0
VERTEX
  5
42C
330
404
100
AcDbEntity
  8
0
100
AcDbVertex
100
AcDbPolyFaceMeshVertex
 10
84.26527150726152
 20
-0.0000000000005411
 30
1426.739833731699
 70
   192
  0
VERTEX
  5
42D
330
404
100
AcDbEntity
  8
0
100
AcDbVertex
100
AcDbPolyFaceMeshVertex
 10
160.5895279924385
 20
-0.0000000000004963
 30
1405.179983916314
 70
   192
  0
VERTEX
  5
42E
330
404
100
AcDbEntity
  8
0
100
AcDbVertex
100
AcDbPolyFaceMeshVertex
 10
151.8361696304118
 20
-0.0000000000003151
 30
1409.966931007991
 70
   192
  0
VERTEX
  5
42F
330
404
100
AcDbEntity
  8
0
100
AcDbVertex
100
AcDbPolyFaceMeshVertex
 10
164.0746029159911
 20
-0.0000000000004519
 30
1338.126861977486
 70
   192
  0
VERTEX
  5
430
330
404
100
AcDbEntity
  8
0
100
AcDbVertex
100
AcDbPolyFaceMeshVertex
 10
-22.78839499210538
 20
-0.0000000000004962
 30
1326.339243411616
 70
   192
  0
VERTEX
  5
431
330
404
100
AcDbEntity
  8
0
100
AcDbVertex
100
AcDbPolyFaceMeshVertex
 10
161.189981887114
 20
-0.0000000000004519
 30
1323.521873854909
 70
   192
  0
VERTEX
  5
432
330
404
100
AcDbEntity
  8
0
100
AcDbVertex
100
AcDbPolyFaceMeshVertex
 10
13.59339094863695
 20
-0.0000000000004512
 30
1347.520194669324
 70
   192
  0
VERTEX
  5
433
330
404
100
AcDbEntity
  8
0
100
AcDbVertex
100
AcDbPolyFaceMeshVertex
 10
174.5335044132449
 20
-0.0000000000004519
 30
1350.387910146212
 70
   192
  0
VERTEX
  5
434
330
404
100
AcDbEntity
  8
0
100
AcDbVertex
100
AcDbPolyFaceMeshVertex
 10
187.7400029916732
 20
-0.000000000000497
 30
1355.832165211122
 70
   192
  0
VERTEX
  5
435
330
404
100
AcDbEntity
  8
0
100
AcDbVertex
100
AcDbPolyFaceMeshVertex
 10
51.03666760111633
 20
-0.0000000000003608
 30
982.3132624067872
 70
   192
  0
VERTEX
  5
436
330
404
100
AcDbEntity
  8
0
100
AcDbVertex
100
AcDbPolyFaceMeshVertex
 10
-115.9160388932966
 20
-0.0000000000002707
 30
1046.802604649822
 70
   192
  0
VERTEX
  5
437
330
404
100
AcDbEntity
  8
0
100
AcDbVertex
100
AcDbPolyFaceMeshVertex
 10
48.62184296435804
 20
-0.0000000000003158
 30
984.0244305155783
 70
   192
  0
VERTEX
  5
438
330
404
100
AcDbEntity
  8
0
100
AcDbVertex
100
AcDbPolyFaceMeshVertex
 10
47.81749459603478
 20
-0.0000000000003608
 30
986.640787127366
 70
   192
  0
VERTEX
  5
439
330
404
100
AcDbEntity
  8
0
100
AcDbVertex
100
AcDbPolyFaceMeshVertex
 10
48.01843339380046
 20
-0.0000000000002707
 30
989.3576872851905
 70
   192
  0
VERTEX
  5
43A
330
404
100
AcDbEntity
  8
0
100
AcDbVertex
100
AcDbPolyFaceMeshVertex
 10
21.04859108151237
 20
-0.0000000000001805
 30
1001.666263782094
 70
   192
  0
VERTEX
  5
43B
330
404
100
AcDbEntity
  8
0
100
AcDbVertex
100
AcDbPolyFaceMeshVertex
 10
49.93054030035601
 20
-0.0000000000002707
 30
992.2756745350991
 70
   192
  0
VERTEX
  5
43C
330
404
100
AcDbEntity
  8
0
100
AcDbVertex
100
AcDbPolyFaceMeshVertex
 10
19.02837761881555
 20
-0.0000000000002707
 30
1004.218853838132
 70
   192
  0
VERTEX
  5
43D
330
404
100
AcDbEntity
  8
0
100
AcDbVertex
100
AcDbPolyFaceMeshVertex
 10
18.28379185971683
 20
-0.000000000000361
 30
1007.409109451653
 70
   192
  0
VERTEX
  5
43E
330
404
100
AcDbEntity
  8
0
100
AcDbVertex
100
AcDbPolyFaceMeshVertex
 10
18.81527868716351
 20
-0.0000000000004061
 30
1010.492889746505
 70
   192
  0
VERTEX
  5
43F
330
404
100
AcDbEntity
  8
0
100
AcDbVertex
100
AcDbPolyFaceMeshVertex
 10
20.83623362143859
 20
-0.000000000000361
 30
1013.151213649631
 70
   192
  0
VERTEX
  5
440
330
404
100
AcDbEntity
  8
0
100
AcDbVertex
100
AcDbPolyFaceMeshVertex
 10
12.04178752353293
 20
-0.0000000000004061
 30
1022.35643500201
 70
   192
  0
VERTEX
  5
441
330
404
100
AcDbEntity
  8
0
100
AcDbVertex
100
AcDbPolyFaceMeshVertex
 10
9.577877468280102
 20
-0.0000000000003158
 30
1023.856357858097
 70
   192
  0
VERTEX
  5
442
330
404
100
AcDbEntity
  8
0
100
AcDbVertex
100
AcDbPolyFaceMeshVertex
 10
7.756674977244177
 20
-0.0000000000003609
 30
1026.856870894686
 70
   192
  0
VERTEX
  5
443
330
404
100
AcDbEntity
  8
0
100
AcDbVertex
100
AcDbPolyFaceMeshVertex
 10
7.648716715419284
 20
-0.0000000000001805
 30
1029.642802056469
 70
   192
  0
VERTEX
  5
444
330
404
100
AcDbEntity
  8
0
100
AcDbVertex
100
AcDbPolyFaceMeshVertex
 10
8.292165751214279
 20
-0.0000000000002707
 30
1032.535950008498
 70
   192
  0
VERTEX
  5
445
330
404
100
AcDbEntity
  8
0
100
AcDbVertex
100
AcDbPolyFaceMeshVertex
 10
11.07772617720718
 20
-0.0000000000004061
 30
1035.321881170279
 70
   192
  0
VERTEX
  5
446
330
404
100
AcDbEntity
  8
0
100
AcDbVertex
100
AcDbPolyFaceMeshVertex
 10
46.3309923755199
 20
-0.0000000000002705
 30
1047.108609970255
 70
   192
  0
VERTEX
  5
447
330
404
100
AcDbEntity
  8
0
100
AcDbVertex
100
AcDbPolyFaceMeshVertex
 10
22.84087618098828
 20
-0.0000000000003157
 30
1049.525659021749
 70
   192
  0
VERTEX
  5
448
330
404
100
AcDbEntity
  8
0
100
AcDbVertex
100
AcDbPolyFaceMeshVertex
 10
-118.3375367742614
 20
-0.0000000000001791
 30
1114.696339498238
 70
   192
  0
VERTEX
  5
449
330
404
100
AcDbEntity
  8
0
100
AcDbVertex
100
AcDbPolyFaceMeshVertex
 10
19.89723401446551
 20
-0.0000000000003609
 30
1051.220292314341
 70
   192
  0
VERTEX
  5
44A
330
404
100
AcDbEntity
  8
0
100
AcDbVertex
100
AcDbPolyFaceMeshVertex
 10
18.73757246573992
 20
-0.0000000000002256
 30
1053.539986147581
 70
   192
  0
VERTEX
  5
44B
330
404
100
AcDbEntity
  8
0
100
AcDbVertex
100
AcDbPolyFaceMeshVertex
 10
18.82714223241872
 20
-0.0000000000001805
 30
1056.126239013279
 70
   192
  0
VERTEX
  5
44C
330
404
100
AcDbEntity
  8
0
100
AcDbVertex
100
AcDbPolyFaceMeshVertex
 10
20.34271013880968
 20
-0.0000000000002706
 30
1058.713085056243
 70
   192
  0
VERTEX
  5
44D
330
404
100
AcDbEntity
  8
0
100
AcDbVertex
100
AcDbPolyFaceMeshVertex
 10
27.47878090431238
 20
-0.0000000000002709
 30
1063.439892221826
 70
   192
  0
VERTEX
  5
44E
330
404
100
AcDbEntity
  8
0
100
AcDbVertex
100
AcDbPolyFaceMeshVertex
 10
132.727557287369
 20
-0.000000000000361
 30
1205.083504445407
 70
   192
  0
VERTEX
  5
44F
330
404
100
AcDbEntity
  8
0
100
AcDbVertex
100
AcDbPolyFaceMeshVertex
 10
-119.4481129044919
 20
-0.0000000000004068
 30
1172.549066231025
 70
   192
  0
VERTEX
  5
450
330
404
100
AcDbEntity
  8
0
100
AcDbVertex
100
AcDbPolyFaceMeshVertex
 10
-132.8457628558508
 20
-0.000000000000361
 30
1217.208047696533
 70
   192
  0
VERTEX
  5
451
330
404
100
AcDbEntity
  8
0
100
AcDbVertex
100
AcDbPolyFaceMeshVertex
 10
150.8337000563217
 20
-0.0000000000003617
 30
1246.469926952185
 70
   192
  0
VERTEX
  5
452
330
404
100
AcDbEntity
  8
0
100
AcDbVertex
100
AcDbPolyFaceMeshVertex
 10
-140.6980951661536
 20
-0.000000000000361
 30
1274.616558806658
 70
   192
  0
VERTEX
  5
453
330
404
100
AcDbEntity
  8
0
100
AcDbVertex
100
AcDbPolyFaceMeshVertex
 10
-149.799658791861
 20
-0.0000000000004526
 30
1283.353689151554
 70
   192
  0
VERTEX
  5
454
330
404
100
AcDbEntity
  8
0
100
AcDbVertex
100
AcDbPolyFaceMeshVertex
 10
159.571201137002
 20
-0.0000000000004526
 30
1306.001048749999
 70
   192
  0
VERTEX
  5
455
330
404
100
AcDbEntity
  8
0
100
AcDbVertex
100
AcDbPolyFaceMeshVertex
 10
-171.6250229984146
 20
-0.0000000000003624
 30
1323.409021880665
 70
   192
  0
VERTEX
  5
456
330
404
100
AcDbEntity
  8
0
100
AcDbVertex
100
AcDbPolyFaceMeshVertex
 10
-180.7313320422243
 20
-0.0000000000004519
 30
1340.121642965043
 70
   192
  0
VERTEX
  5
457
330
404
100
AcDbEntity
  8
0
100
AcDbVertex
100
AcDbPolyFaceMeshVertex
 10
-41.22790338273794
 20
-0.0000000000004061
 30
1333.316416817855
 70
   192
  0
VERTEX
  5
458
330
404
100
AcDbEntity
  8
0
100
AcDbVertex
100
AcDbPolyFaceMeshVertex
 10
-54.43469854979797
 20
-0.0000000000005416
 30
1341.539781506024
 70
   192
  0
VERTEX
  5
459
330
404
100
AcDbEntity
  8
0
100
AcDbVertex
100
AcDbPolyFaceMeshVertex
 10
-155.9399332274792
 20
-0.0000000000004075
 30
1362.6722405225
 70
   192
  0
VERTEX
  5
45A
330
404
100
AcDbEntity
  8
0
100
AcDbVertex
100
AcDbPolyFaceMeshVertex
 10
-64.90101476283583
 20
-0.0000000000005411
 30
1353.500978568413
 70
   192
  0
VERTEX
  5
45B
330
404
100
AcDbEntity
  8
0
100
AcDbVertex
100
AcDbPolyFaceMeshVertex
 10
-71.37969682686766
 20
-0.0000000000004508
 30
1365.212448003175
 70
   192
  0
VERTEX
  5
45C
330
404
100
AcDbEntity
  8
0
100
AcDbVertex
100
AcDbPolyFaceMeshVertex
 10
-129.7118590822935
 20
-0.0000000000004526
 30
1382.714958760095
 70
   192
  0
VERTEX
  5
45D
330
404
100
AcDbEntity
  8
0
100
AcDbVertex
100
AcDbPolyFaceMeshVertex
 10
-74.12076895815223
 20
-0.000000000000361
 30
1381.160908478781
 70
   192
  0
VERTEX
  5
45E
330
404
100
AcDbEntity
  8
0
100
AcDbVertex
100
AcDbPolyFaceMeshVertex
 10
-73.12467603963682
 20
-0.000000000000361
 30
1392.872377913542
 70
   192
  0
VERTEX
  5
45F
330
404
100
AcDbEntity
  8
0
100
AcDbVertex
100
AcDbPolyFaceMeshVertex
 10
-109.1466813327885
 20
-0.0000000000004071
 30
1391.728529521642
 70
   192
  0
VERTEX
  5
460
330
404
100
AcDbEntity
  8
0
100
AcDbVertex
100
AcDbPolyFaceMeshVertex
 10
-60.29825579233118
 20
-0.0000000000004956
 30
1409.315029196201
 70
   192
  0
VERTEX
  5
461
330
404
100
AcDbEntity
  8
0
100
AcDbVertex
100
AcDbPolyFaceMeshVertex
 10
-46.02537278974852
 20
-0.0000000000003611
 30
1419.394148950961
 70
   192
  0
VERTEX
  5
462
330
404
100
AcDbEntity
  8
0
100
AcDbFaceRecord
 10
0.0
 20
0.0
 30
0.0
 70
   128
 71
    -1
 72
     2
 73
     3
  0
VERTEX
  5
463
330
404
100
AcDbEntity
  8
0
100
AcDbFaceRecord
 10
0.0
 20
0.0
 30
0.0
 70
   128
 71
    -2
 72
    -1
 73
     4
  0
VERTEX
  5
464
330
404
100
AcDbEntity
  8
0
100
AcDbFaceRecord
 10
0.0
 20
0.0
 30
0.0
 70
   128
 71
    -4
 72
    -1
 73
     5
  0
VERTEX
  5
465
330
404
100
AcDbEntity
  8
0
100
AcDbFaceRecord
 10
0.0
 20
0.0
 30
0.0
 70
   128
 71
    -5
 72
     1
 73
    -6
  0
VERTEX
  5
466
330
404
100
AcDbEntity
  8
0
100
AcDbFaceRecord
 10
0.0
 20
0.0
 30
0.0
 70
   128
 71
    -5
 72
     6
 73
    -7
  0
VERTEX
  5
467
330
404
100
AcDbEntity
  8
0
100
AcDbFaceRecord
 10
0.0
 20
0.0
 30
0.0
 70
   128
 71
    -5
 72
    -7
 73
     8
  0
VERTEX
  5
468
330
404
100
AcDbEntity
  8
0
100
AcDbFaceRecord
 10
0.0
 20
0.0
 30
0.0
 70
   128
 71
    -8
 72
    -7
 73
    -9
  0
VERTEX
  5
469
330
404
100
AcDbEntity
  8
0
100
AcDbFaceRecord
 10
0.0
 20
0.0
 30
0.0
 70
   128
 71
    -9
 72
    -7
 73
    10
  0
VERTEX
  5
46A
330
404
100
AcDbEntity
  8
0
100
AcDbFaceRecord
 10
0.0
 20
0.0
 30
0.0
 70
   128
 71
   -10
 72
     7
 73
    11
  0
VERTEX
  5
46B
330
404
100
AcDbEntity
  8
0
100
AcDbFaceRecord
 10
0.0
 20
0.0
 30
0.0
 70
   128
 71
   -12
 72
   -13
 73
    14
  0
VERTEX
  5
46C
330
404
100
AcDbEntity
  8
0
100
AcDbFaceRecord
 10
0.0
 20
0.0
 30
0.0
 70
   128
 71
   -13
 72
    12
 73
    15
  0
VERTEX
  5
46D
330
404
100
AcDbEntity
  8
0
100
AcDbFaceRecord
 10
0.0
 20
0.0
 30
0.0
 70
   128
 71
   -16
 72
   -17
 73
    18
  0
VERTEX
  5
46E
330
404
100
AcDbEntity
  8
0
100
AcDbFaceRecord
 10
0.0
 20
0.0
 30
0.0
 70
   128
 71
   -17
 72
   -16
 73
    19
  0
VERTEX
  5
46F
330
404
100
AcDbEntity
  8
0
100
AcDbFaceRecord
 10
0.0
 20
0.0
 30
0.0
 70
   128
 71
   -19
 72
    16
 73
   -20
  0
VERTEX
  5
470
330
404
100
AcDbEntity
  8
0
100
AcDbFaceRecord
 10
0.0
 20
0.0
 30
0.0
 70
   128
 71
   -19
 72
    20
 73
   -21
  0
VERTEX
  5
471
330
404
100
AcDbEntity
  8
0
100
AcDbFaceRecord
 10
0.0
 20
0.0
 30
0.0
 70
   128
 71
   -19
 72
    21
 73
    22
  0
VERTEX
  5
472
330
404
100
AcDbEntity
  8
0
100
AcDbFaceRecord
 10
0.0
 20
0.0
 30
0.0
 70
   128
 71
   -23
 72
   -24
 73
    25
  0
VERTEX
  5
473
330
404
100
AcDbEntity
  8
0
100
AcDbFaceRecord
 10
0.0
 20
0.0
 30
0.0
 70
   128
 71
   -24
 72
   -23
 73
    26
  0
VERTEX
  5
474
330
404
100
AcDbEntity
  8
0
100
AcDbFaceRecord
 10
0.0
 20
0.0
 30
0.0
 70
   128
 71
   -26
 72
    23
 73
    27
  0
VERTEX
  5
475
330
404
100
AcDbEntity
  8
0
100
AcDbFaceRecord
 10
0.0
 20
0.0
 30
0.0
 70
   128
 71
   -28
 72
    29
 73
    30
  0
VERTEX
  5
476
330
404
100
AcDbEntity
  8
0
100
AcDbFaceRecord
 10
0.0
 20
0.0
 30
0.0
 70
   128
 71
   -31
 72
    32
 73
    33
  0
VERTEX
  5
477
330
404
100
AcDbEntity
  8
0
100
AcDbFaceRecord
 10
0.0
 20
0.0
 30
0.0
 70
   128
 71
   -34
 72
    35
 73
    36
  0
VERTEX
  5
478
330
404
100
AcDbEntity
  8
0
100
AcDbFaceRecord
 10
0.0
 20
0.0
 30
0.0
 70
   128
 71
   -35
 72
   -34
 73
    37
  0
VERTEX
  5
479
330
404
100
AcDbEntity
  8
0
100
AcDbFaceRecord
 10
0.0
 20
0.0
 30
0.0
 70
   128
 71
   -37
 72
   -34
 73
   -38
  0
VERTEX
  5
47A
330
404
100
AcDbEntity
  8
0
100
AcDbFaceRecord
 10
0.0
 20
0.0
 30
0.0
 70
   128
 71
   -38
 72
   -34
 73
    39
  0
VERTEX
  5
47B
330
404
100
AcDbEntity
  8
0
100
AcDbFaceRecord
 10
0.0
 20
0.0
 30
0.0
 70
   128
 71
   -39
 72
   -34
 73
    40
  0
VERTEX
  5
47C
330
404
100
AcDbEntity
  8
0
100
AcDbFaceRecord
 10
0.0
 20
0.0
 30
0.0
 70
   128
 71
   -40
 72
    34
 73
   -41
  0
VERTEX
  5
47D
330
404
100
AcDbEntity
  8
0
100
AcDbFaceRecord
 10
0.0
 20
0.0
 30
0.0
 70
   128
 71
   -40
 72
    41
 73
    42
  0
VERTEX
  5
47E
330
404
100
AcDbEntity
  8
0
100
AcDbFaceRecord
 10
0.0
 20
0.0
 30
0.0
 70
   128
 71
   -43
 72
   -44
 73
    45
  0
VERTEX
  5
47F
330
404
100
AcDbEntity
  8
0
100
AcDbFaceRecord
 10
0.0
 20
0.0
 30
0.0
 70
   128
 71
   -44
 72
   -43
 73
    46
  0
VERTEX
  5
480
330
404
100
AcDbEntity
  8
0
100
AcDbFaceRecord
 10
0.0
 20
0.0
 30
0.0
 70
   128
 71
   -46
 72
    43
 73
   -47
  0
VERTEX
  5
481
330
404
100
AcDbEntity
  8
0
100
AcDbFaceRecord
 10
0.0
 20
0.0
 30
0.0
 70
   128
 71
   -46
 72
   -47
 73
    38
  0
VERTEX
  5
482
330
404
100
AcDbEntity
  8
0
100
AcDbFaceRecord
 10
0.0
 20
0.0
 30
0.0
 70
   128
 71
   -38
 72
    47
 73
   -48
  0
VERTEX
  5
483
330
404
100
AcDbEntity
  8
0
100
AcDbFaceRecord
 10
0.0
 20
0.0
 30
0.0
 70
   128
 71
   -38
 72
    48
 73
   -37
  0
VERTEX
  5
484
330
404
100
AcDbEntity
  8
0
100
AcDbFaceRecord
 10
0.0
 20
0.0
 30
0.0
 70
   128
 71
    -8
 72
   -49
 73
    50
  0
VERTEX
  5
485
330
404
100
AcDbEntity
  8
0
100
AcDbFaceRecord
 10
0.0
 20
0.0
 30
0.0
 70
   128
 71
   -49
 72
    -8
 73
     9
  0
VERTEX
  5
486
330
404
100
AcDbEntity
  8
0
100
AcDbFaceRecord
 10
0.0
 20
0.0
 30
0.0
 70
   128
 71
   -50
 72
    49
 73
   -51
  0
VERTEX
  5
487
330
404
100
AcDbEntity
  8
0
100
AcDbFaceRecord
 10
0.0
 20
0.0
 30
0.0
 70
   128
 71
   -50
 72
    51
 73
   -52
  0
VERTEX
  5
488
330
404
100
AcDbEntity
  8
0
100
AcDbFaceRecord
 10
0.0
 20
0.0
 30
0.0
 70
   128
 71
   -50
 72
    52
 73
   -53
  0
VERTEX
  5
489
330
404
100
AcDbEntity
  8
0
100
AcDbFaceRecord
 10
0.0
 20
0.0
 30
0.0
 70
   128
 71
   -50
 72
   -53
 73
   -54
  0
VERTEX
  5
48A
330
404
100
AcDbEntity
  8
0
100
AcDbFaceRecord
 10
0.0
 20
0.0
 30
0.0
 70
   128
 71
   -54
 72
    53
 73
   -55
  0
VERTEX
  5
48B
330
404
100
AcDbEntity
  8
0
100
AcDbFaceRecord
 10
0.0
 20
0.0
 30
0.0
 70
   128
 71
   -54
 72
   -55
 73
    13
  0
VERTEX
  5
48C
330
404
100
AcDbEntity
  8
0
100
AcDbFaceRecord
 10
0.0
 20
0.0
 30
0.0
 70
   128
 71
   -13
 72
    55
 73
   -14
  0
VERTEX
  5
48D
330
404
100
AcDbEntity
  8
0
100
AcDbFaceRecord
 10
0.0
 20
0.0
 30
0.0
 70
   128
 71
   -50
 72
    54
 73
   -56
  0
VERTEX
  5
48E
330
404
100
AcDbEntity
  8
0
100
AcDbFaceRecord
 10
0.0
 20
0.0
 30
0.0
 70
   128
 71
   -50
 72
    56
 73
   -57
  0
VERTEX
  5
48F
330
404
100
AcDbEntity
  8
0
100
AcDbFaceRecord
 10
0.0
 20
0.0
 30
0.0
 70
   128
 71
   -50
 72
    57
 73
   -58
  0
VERTEX
  5
490
330
404
100
AcDbEntity
  8
0
100
AcDbFaceRecord
 10
0.0
 20
0.0
 30
0.0
 70
   128
 71
   -50
 72
    58
 73
   -59
  0
VERTEX
  5
491
330
404
100
AcDbEntity
  8
0
100
AcDbFaceRecord
 10
0.0
 20
0.0
 30
0.0
 70
   128
 71
   -50
 72
    59
 73
   -18
  0
VERTEX
  5
492
330
404
100
AcDbEntity
  8
0
100
AcDbFaceRecord
 10
0.0
 20
0.0
 30
0.0
 70
   128
 71
   -50
 72
   -18
 73
   -60
  0
VERTEX
  5
493
330
404
100
AcDbEntity
  8
0
100
AcDbFaceRecord
 10
0.0
 20
0.0
 30
0.0
 70
   128
 71
   -60
 72
   -18
 73
    17
  0
VERTEX
  5
494
330
404
100
AcDbEntity
  8
0
100
AcDbFaceRecord
 10
0.0
 20
0.0
 30
0.0
 70
   128
 71
   -50
 72
    60
 73
   -61
  0
VERTEX
  5
495
330
404
100
AcDbEntity
  8
0
100
AcDbFaceRecord
 10
0.0
 20
0.0
 30
0.0
 70
   128
 71
   -50
 72
    61
 73
   -62
  0
VERTEX
  5
496
330
404
100
AcDbEntity
  8
0
100
AcDbFaceRecord
 10
0.0
 20
0.0
 30
0.0
 70
   128
 71
   -50
 72
    62
 73
   -63
  0
VERTEX
  5
497
330
404
100
AcDbEntity
  8
0
100
AcDbFaceRecord
 10
0.0
 20
0.0
 30
0.0
 70
   128
 71
   -50
 72
    63
 73
   -64
  0
VERTEX
  5
498
330
404
100
AcDbEntity
  8
0
100
AcDbFaceRecord
 10
0.0
 20
0.0
 30
0.0
 70
   128
 71
   -50
 72
    64
 73
   -65
  0
VERTEX
  5
499
330
404
100
AcDbEntity
  8
0
100
AcDbFaceRecord
 10
0.0
 20
0.0
 30
0.0
 70
   128
 71
   -50
 72
    65
 73
   -66
  0
VERTEX
  5
49A
330
404
100
AcDbEntity
  8
0
100
AcDbFaceRecord
 10
0.0
 20
0.0
 30
0.0
 70
   128
 71
   -50
 72
   -66
 73
   -24
  0
VERTEX
  5
49B
330
404
100
AcDbEntity
  8
0
100
AcDbFaceRecord
 10
0.0
 20
0.0
 30
0.0
 70
   128
 71
   -50
 72
    24
 73
   -67
  0
VERTEX
  5
49C
330
404
100
AcDbEntity
  8
0
100
AcDbFaceRecord
 10
0.0
 20
0.0
 30
0.0
 70
   128
 71
   -50
 72
   -67
 73
    68
  0
VERTEX
  5
49D
330
404
100
AcDbEntity
  8
0
100
AcDbFaceRecord
 10
0.0
 20
0.0
 30
0.0
 70
   128
 71
   -24
 72
    66
 73
   -25
  0
VERTEX
  5
49E
330
404
100
AcDbEntity
  8
0
100
AcDbFaceRecord
 10
0.0
 20
0.0
 30
0.0
 70
   128
 71
   -68
 72
    67
 73
   -69
  0
VERTEX
  5
49F
330
404
100
AcDbEntity
  8
0
100
AcDbFaceRecord
 10
0.0
 20
0.0
 30
0.0
 70
   128
 71
   -68
 72
    69
 73
   -70
  0
VERTEX
  5
4A0
330
404
100
AcDbEntity
  8
0
100
AcDbFaceRecord
 10
0.0
 20
0.0
 30
0.0
 70
   128
 71
   -68
 72
    70
 73
   -71
  0
VERTEX
  5
4A1
330
404
100
AcDbEntity
  8
0
100
AcDbFaceRecord
 10
0.0
 20
0.0
 30
0.0
 70
   128
 71
   -68
 72
    71
 73
   -72
  0
VERTEX
  5
4A2
330
404
100
AcDbEntity
  8
0
100
AcDbFaceRecord
 10
0.0
 20
0.0
 30
0.0
 70
   128
 71
   -68
 72
    72
 73
   -73
  0
VERTEX
  5
4A3
330
404
100
AcDbEntity
  8
0
100
AcDbFaceRecord
 10
0.0
 20
0.0
 30
0.0
 70
   128
 71
   -68
 72
    73
 73
   -29
  0
VERTEX
  5
4A4
330
404
100
AcDbEntity
  8
0
100
AcDbFaceRecord
 10
0.0
 20
0.0
 30
0.0
 70
   128
 71
   -68
 72
   -29
 73
   -28
  0
VERTEX
  5
4A5
330
404
100
AcDbEntity
  8
0
100
AcDbFaceRecord
 10
0.0
 20
0.0
 30
0.0
 70
   128
 71
   -68
 72
    28
 73
   -74
  0
VERTEX
  5
4A6
330
404
100
AcDbEntity
  8
0
100
AcDbFaceRecord
 10
0.0
 20
0.0
 30
0.0
 70
   128
 71
   -68
 72
   -74
 73
    75
  0
VERTEX
  5
4A7
330
404
100
AcDbEntity
  8
0
100
AcDbFaceRecord
 10
0.0
 20
0.0
 30
0.0
 70
   128
 71
   -75
 72
   -74
 73
    76
  0
VERTEX
  5
4A8
330
404
100
AcDbEntity
  8
0
100
AcDbFaceRecord
 10
0.0
 20
0.0
 30
0.0
 70
   128
 71
   -76
 72
    74
 73
   -77
  0
VERTEX
  5
4A9
330
404
100
AcDbEntity
  8
0
100
AcDbFaceRecord
 10
0.0
 20
0.0
 30
0.0
 70
   128
 71
   -76
 72
   -77
 73
    78
  0
VERTEX
  5
4AA
330
404
100
AcDbEntity
  8
0
100
AcDbFaceRecord
 10
0.0
 20
0.0
 30
0.0
 70
   128
 71
   -78
 72
    77
 73
   -32
  0
VERTEX
  5
4AB
330
404
100
AcDbEntity
  8
0
100
AcDbFaceRecord
 10
0.0
 20
0.0
 30
0.0
 70
   128
 71
   -78
 72
   -32
 73
    79
  0
VERTEX
  5
4AC
330
404
100
AcDbEntity
  8
0
100
AcDbFaceRecord
 10
0.0
 20
0.0
 30
0.0
 70
   128
 71
   -79
 72
   -32
 73
   -31
  0
VERTEX
  5
4AD
330
404
100
AcDbEntity
  8
0
100
AcDbFaceRecord
 10
0.0
 20
0.0
 30
0.0
 70
   128
 71
   -79
 72
    31
 73
   -80
  0
VERTEX
  5
4AE
330
404
100
AcDbEntity
  8
0
100
AcDbFaceRecord
 10
0.0
 20
0.0
 30
0.0
 70
   128
 71
   -79
 72
   -80
 73
    81
  0
VERTEX
  5
4AF
330
404
100
AcDbEntity
  8
0
100
AcDbFaceRecord
 10
0.0
 20
0.0
 30
0.0
 70
   128
 71
   -81
 72
    80
 73
   -45
  0
VERTEX
  5
4B0
330
404
100
AcDbEntity
  8
0
100
AcDbFaceRecord
 10
0.0
 20
0.0
 30
0.0
 70
   128
 71
   -81
 72
   -45
 73
   -44
  0
VERTEX
  5
4B1
330
404
100
AcDbEntity
  8
0
100
AcDbFaceRecord
 10
0.0
 20
0.0
 30
0.0
 70
   128
 71
   -81
 72
   -44
 73
    82
  0
VERTEX
  5
4B2
330
404
100
AcDbEntity
  8
0
100
AcDbFaceRecord
 10
0.0
 20
0.0
 30
0.0
 70
   128
 71
   -82
 72
    44
 73
   -83
  0
VERTEX
  5
4B3
330
404
100
AcDbEntity
  8
0
100
AcDbFaceRecord
 10
0.0
 20
0.0
 30
0.0
 70
   128
 71
   -82
 72
    83
 73
   -84
  0
VERTEX
  5
4B4
330
404
100
AcDbEntity
  8
0
100
AcDbFaceRecord
 10
0.0
 20
0.0
 30
0.0
 70
   128
 71
   -82
 72
   -84
 73
    85
  0
VERTEX
  5
4B5
330
404
100
AcDbEntity
  8
0
100
AcDbFaceRecord
 10
0.0
 20
0.0
 30
0.0
 70
   128
 71
   -85
 72
    84
 73
   -86
  0
VERTEX
  5
4B6
330
404
100
AcDbEntity
  8
0
100
AcDbFaceRecord
 10
0.0
 20
0.0
 30
0.0
 70
   128
 71
   -85
 72
    86
 73
   -87
  0
VERTEX
  5
4B7
330
404
100
AcDbEntity
  8
0
100
AcDbFaceRecord
 10
0.0
 20
0.0
 30
0.0
 70
   128
 71
   -85
 72
   -87
 73
    88
  0
VERTEX
  5
4B8
330
404
100
AcDbEntity
  8
0
100
AcDbFaceRecord
 10
0.0
 20
0.0
 30
0.0
 70
   128
 71
   -88
 72
    87
 73
   -89
  0
VERTEX
  5
4B9
330
404
100
AcDbEntity
  8
0
100
AcDbFaceRecord
 10
0.0
 20
0.0
 30
0.0
 70
   128
 71
   -88
 72
    89
 73
   -90
  0
VERTEX
  5
4BA
330
404
100
AcDbEntity
  8
0
100
AcDbFaceRecord
 10
0.0
 20
0.0
 30
0.0
 70
   128
 71
   -88
 72
   -90
 73
    91
  0
VERTEX
  5
4BB
330
404
100
AcDbEntity
  8
0
100
AcDbFaceRecord
 10
0.0
 20
0.0
 30
0.0
 70
   128
 71
   -91
 72
    90
 73
   -92
  0
VERTEX
  5
4BC
330
404
100
AcDbEntity
  8
0
100
AcDbFaceRecord
 10
0.0
 20
0.0
 30
0.0
 70
   128
 71
   -91
 72
    92
 73
    93
  0
SEQEND
  5
4BD
330
404
100
AcDbEntity
  8
0
  0
POLYLINE
  5
4BE
330
6B
100
AcDbEntity
  8
0
 62
   250
100
AcDbPolyFaceMesh
 66
     1
 10
0.0
 20
0.0
 30
0.0
 70
    64
 71
    16
 72
    14
  0
VERTEX
  5
4BF
330
4BE
100
AcDbEntity
  8
0
 62
   250
100
AcDbVertex
100
AcDbPolyFaceMeshVertex
 10
156.862160577907
 20
0.0000000000000007
 30
9.212042890899905
 70
   192
  0
VERTEX
  5
4C0
330
4BE
100
AcDbEntity
  8
0
 62
   250
100
AcDbVertex
100
AcDbPolyFaceMeshVertex
 10
119.391746065656
 20
0.0000000000000007
 30
6.740273236915363
 70
   192
  0
VERTEX
  5
4C1
330
4BE
100
AcDbEntity
  8
0
 62
   250
100
AcDbVertex
100
AcDbPolyFaceMeshVertex
 10
141.1993149543246
 20
-0.0000000000000895
 30
2.180964500909
 70
   192
  0
VERTEX
  5
4C2
330
4BE
100
AcDbEntity
  8
0
 62
   250
100
AcDbVertex
100
AcDbPolyFaceMeshVertex
 10
83.50897049722349
 20
0.0000000000000004
 30
19.22947221033295
 70
   192
  0
VERTEX
  5
4C3
330
4BE
100
AcDbEntity
  8
0
 62
   250
100
AcDbVertex
100
AcDbPolyFaceMeshVertex
 10
168.4297103792873
 20
-0.0000000000000007
 30
17.79368664578543
 70
   192
  0
VERTEX
  5
4C4
330
4BE
100
AcDbEntity
  8
0
 62
   250
100
AcDbVertex
100
AcDbPolyFaceMeshVertex
 10
183.5207331215534
 20
0.0000000000000451
 30
24.17404957851201
 70
   192
  0
VERTEX
  5
4C5
330
4BE
100
AcDbEntity
  8
0
 62
   250
100
AcDbVertex
100
AcDbPolyFaceMeshVertex
 10
64.87386190419105
 20
-0.0000000000000004
 30
20.22096800506185
 70
   192
  0
VERTEX
  5
4C6
330
4BE
100
AcDbEntity
  8
0
 62
   250
100
AcDbVertex
100
AcDbPolyFaceMeshVertex
 10
156.3739756906426
 20
0.0
 30
42.51242124584092
 70
   192
  0
VERTEX
  5
4C7
330
4BE
100
AcDbEntity
  8
0
 62
   250
100
AcDbVertex
100
AcDbPolyFaceMeshVertex
 10
134.585388474381
 20
-0.0000000000000444
 30
35.57076432821324
 70
   192
  0
VERTEX
  5
4C8
330
4BE
100
AcDbEntity
  8
0
 62
   250
100
AcDbVertex
100
AcDbPolyFaceMeshVertex
 10
171.7983640545878
 20
-0.0000000000000458
 30
61.21515204682926
 70
   192
  0
VERTEX
  5
4C9
330
4BE
100
AcDbEntity
  8
0
 62
   250
100
AcDbVertex
100
AcDbPolyFaceMeshVertex
 10
189.4875032078094
 20
0.0
 30
92.14519405972055
 70
   192
  0
VERTEX
  5
4CA
330
4BE
100
AcDbEntity
  8
0
 62
   250
100
AcDbVertex
100
AcDbPolyFaceMeshVertex
 10
169.5478495196186
 20
-0.0000000000000451
 30
63.38217688206311
 70
   192
  0
VERTEX
  5
4CB
330
4BE
100
AcDbEntity
  8
0
 62
   250
100
AcDbVertex
100
AcDbPolyFaceMeshVertex
 10
132.9771927151856
 20
0.0000000000000007
 30
38.06302507426212
 70
   192
  0
VERTEX
  5
4CC
330
4BE
100
AcDbEntity
  8
0
 62
   250
100
AcDbVertex
100
AcDbPolyFaceMeshVertex
 10
109.3172234346805
 20
-0.0000000000000448
 30
36.17966078845205
 70
   192
  0
VERTEX
  5
4CD
330
4BE
100
AcDbEntity
  8
0
 62
   250
100
AcDbVertex
100
AcDbPolyFaceMeshVertex
 10
54.84857298602623
 20
-0.0000000000000449
 30
38.32399659338467
 70
   192
  0
VERTEX
  5
4CE
330
4BE
100
AcDbEntity
  8
0
 62
   250
100
AcDbVertex
100
AcDbPolyFaceMeshVertex
 10
58.72854546183918
 20
-0.0000000000000004
 30
15.85978047482235
 70
   192
  0
VERTEX
  5
4CF
330
4BE
100
AcDbEntity
  8
0
 62
   250
100
AcDbFaceRecord
 10
0.0
 20
0.0
 30
0.0
 70
   128
 71
    -1
 72
     2
 73
     3
  0
VERTEX
  5
4D0
330
4BE
100
AcDbEntity
  8
0
 62
   250
100
AcDbFaceRecord
 10
0.0
 20
0.0
 30
0.0
 70
   128
 71
    -2
 72
    -1
 73
     4
  0
VERTEX
  5
4D1
330
4BE
100
AcDbEntity
  8
0
 62
   250
100
AcDbFaceRecord
 10
0.0
 20
0.0
 30
0.0
 70
   128
 71
    -4
 72
     1
 73
    -5
  0
VERTEX
  5
4D2
330
4BE
100
AcDbEntity
  8
0
 62
   250
100
AcDbFaceRecord
 10
0.0
 20
0.0
 30
0.0
 70
   128
 71
    -4
 72
     5
 73
    -6
  0
VERTEX
  5
4D3
330
4BE
100
AcDbEntity
  8
0
 62
   250
100
AcDbFaceRecord
 10
0.0
 20
0.0
 30
0.0
 70
   128
 71
    -4
 72
    -6
 73
     7
  0
VERTEX
  5
4D4
330
4BE
100
AcDbEntity
  8
0
 62
   250
100
AcDbFaceRecord
 10
0.0
 20
0.0
 30
0.0
 70
   128
 71
    -6
 72
     8
 73
    -9
  0
VERTEX
  5
4D5
330
4BE
100
AcDbEntity
  8
0
 62
   250
100
AcDbFaceRecord
 10
0.0
 20
0.0
 30
0.0
 70
   128
 71
    -8
 72
    -6
 73
    10
  0
VERTEX
  5
4D6
330
4BE
100
AcDbEntity
  8
0
 62
   250
100
AcDbFaceRecord
 10
0.0
 20
0.0
 30
0.0
 70
   128
 71
   -10
 72
     6
 73
   -11
  0
VERTEX
  5
4D7
330
4BE
100
AcDbEntity
  8
0
 62
   250
100
AcDbFaceRecord
 10
0.0
 20
0.0
 30
0.0
 70
   128
 71
   -10
 72
    11
 73
    12
  0
VERTEX
  5
4D8
330
4BE
100
AcDbEntity
  8
0
 62
   250
100
AcDbFaceRecord
 10
0.0
 20
0.0
 30
0.0
 70
   128
 71
    13
 72
   -14
 73
     9
  0
VERTEX
  5
4D9
330
4BE
100
AcDbEntity
  8
0
 62
   250
100
AcDbFaceRecord
 10
0.0
 20
0.0
 30
0.0
 70
   128
 71
    -7
 72
    15
 73
    16
  0
VERTEX
  5
4DA
330
4BE
100
AcDbEntity
  8
0
 62
   250
100
AcDbFaceRecord
 10
0.0
 20
0.0
 30
0.0
 70
   128
 71
   -15
 72
    -7
 73
    -6
  0
VERTEX
  5
4DB
330
4BE
100
AcDbEntity
  8
0
 62
   250
100
AcDbFaceRecord
 10
0.0
 20
0.0
 30
0.0
 70
   128
 71
   -15
 72
    -6
 73
    14
  0
VERTEX
  5
4DC
330
4BE
100
AcDbEntity
  8
0
 62
   250
100
AcDbFaceRecord
 10
0.0
 20
0.0
 30
0.0
 70
   128
 71
   -14
 72
    -6
 73
    -9
  0
SEQEND
  5
4DD
330
4BE
100
AcDbEntity
  8
0
 62
   250
  0
POLYLINE
  5
4DE
330
6B
100
AcDbEntity
  8
0
 62
    33
100
AcDbPolyFaceMesh
 66
     1
 10
0.0
 20
0.0
 30
0.0
 70
    64
 71
     7
 72
     5
  0
VERTEX
  5
4DF
330
4DE
100
AcDbEntity
  8
0
 62
    33
100
AcDbVertex
100
AcDbPolyFaceMeshVertex
 10
-158.0899042164081
 20
-0.0000000000003617
 30
782.9761915454744
 70
   192
  0
VERTEX
  5
4E0
330
4DE
100
AcDbEntity
  8
0
 62
    33
100
AcDbVertex
100
AcDbPolyFaceMeshVertex
 10
-173.0275906362467
 20
-0.0000000000002256
 30
782.5461380299623
 70
   192
  0
VERTEX
  5
4E1
330
4DE
100
AcDbEntity
  8
0
 62
    33
100
AcDbVertex
100
AcDbPolyFaceMeshVertex
 10
-156.9690957783947
 20
-0.00000000000027
 30
780.4117379441819
 70
   192
  0
VERTEX
  5
4E2
330
4DE
100
AcDbEntity
  8
0
 62
    33
100
AcDbVertex
100
AcDbPolyFaceMeshVertex
 10
-172.828579664585
 20
-0.0000000000001798
 30
784.6832074134268
 70
   192
  0
VERTEX
  5
4E3
330
4DE
100
AcDbEntity
  8
0
 62
    33
100
AcDbVertex
100
AcDbPolyFaceMeshVertex
 10
-178.2785440606491
 20
-0.000000000000227
 30
787.5531473050497
 70
   192
  0
VERTEX
  5
4E4
330
4DE
100
AcDbEntity
  8
0
 62
    33
100
AcDbVertex
100
AcDbPolyFaceMeshVertex
 10
-160.4947931340152
 20
-0.0000000000002707
 30
784.0624474079319
 70
   192
  0
VERTEX
  5
4E5
330
4DE
100
AcDbEntity
  8
0
 62
    33
100
AcDbVertex
100
AcDbPolyFaceMeshVertex
 10
-178.5195223236514
 20
-0.0000000000001805
 30
790.0308487316612
 70
   192
  0
VERTEX
  5
4E6
330
4DE
100
AcDbEntity
  8
0
 62
    33
100
AcDbFaceRecord
 10
0.0
 20
0.0
 30
0.0
 70
   128
 71
    -1
 72
     2
 73
     3
  0
VERTEX
  5
4E7
330
4DE
100
AcDbEntity
  8
0
 62
    33
100
AcDbFaceRecord
 10
0.0
 20
0.0
 30
0.0
 70
   128
 71
    -2
 72
    -1
 73
    -4
  0
VERTEX
  5
4E8
330
4DE
100
AcDbEntity
  8
0
 62
    33
100
AcDbFaceRecord
 10
0.0
 20
0.0
 30
0.0
 70
   128
 71
    -2
 72
    -4
 73
     5
  0
VERTEX
  5
4E9
330
4DE
100
AcDbEntity
  8
0
 62
    33
100
AcDbFaceRecord
 10
0.0
 20
0.0
 30
0.0
 70
   128
 71
    -4
 72
     1
 73
     6
  0
VERTEX
  5
4EA
330
4DE
100
AcDbEntity
  8
0
 62
    33
100
AcDbFaceRecord
 10
0.0
 20
0.0
 30
0.0
 70
   128
 71
    -5
 72
     4
 73
     7
  0
SEQEND
  5
4EB
330
4DE
100
AcDbEntity
  8
0
 62
    33
  0
POLYLINE
  5
4EC
330
6B
100
AcDbEntity
  8
0
 62
    18
100
AcDbPolyFaceMesh
 66
     1
 10
0.0
 20
0.0
 30
0.0
 70
    64
 71
    35
 72
    33
  0
VERTEX
  5
4ED
330
4EC
100
AcDbEntity
  8
0
 62
    18
100
AcDbVertex
100
AcDbPolyFaceMeshVertex
 10
11.6326498370701
 20
-0.0000000000001805
 30
521.4388629966857
 70
   192
  0
VERTEX
  5
4EE
330
4EC
100
AcDbEntity
  8
0
 62
    18
100
AcDbVertex
100
AcDbPolyFaceMeshVertex
 10
-91.00289044536785
 20
-0.0000000000001812
 30
528.1040858113488
 70
   192
  0
VERTEX
  5
4EF
330
4EC
100
AcDbEntity
  8
0
 62
    18
100
AcDbVertex
100
AcDbPolyFaceMeshVertex
 10
-0.3606592752039819
 20
-0.0000000000001805
 30
520.1179920282902
 70
   192
  0
VERTEX
  5
4F0
330
4EC
100
AcDbEntity
  8
0
 62
    18
100
AcDbVertex
100
AcDbPolyFaceMeshVertex
 10
29.42959262726396
 20
-0.0000000000002254
 30
523.3993003516479
 70
   192
  0
VERTEX
  5
4F1
330
4EC
100
AcDbEntity
  8
0
 62
    18
100
AcDbVertex
100
AcDbPolyFaceMeshVertex
 10
136.0528529735976
 20
-0.0000000000001339
 30
535.1438945889095
 70
   192
  0
VERTEX
  5
4F2
330
4EC
100
AcDbEntity
  8
0
 62
    18
100
AcDbVertex
100
AcDbPolyFaceMeshVertex
 10
-102.8395944297322
 20
-0.0000000000000895
 30
530.7082822892488
 70
   192
  0
VERTEX
  5
4F3
330
4EC
100
AcDbEntity
  8
0
 62
    18
100
AcDbVertex
100
AcDbPolyFaceMeshVertex
 10
-171.7862189195736
 20
-0.0000000000001361
 30
545.8360820218076
 70
   192
  0
VERTEX
  5
4F4
330
4EC
100
AcDbEntity
  8
0
 62
    18
100
AcDbVertex
100
AcDbPolyFaceMeshVertex
 10
203.4218302876641
 20
-0.0000000000002707
 30
542.5647094176005
 70
   192
  0
VERTEX
  5
4F5
330
4EC
100
AcDbEntity
  8
0
 62
    18
100
AcDbVertex
100
AcDbPolyFaceMeshVertex
 10
187.696107874228
 20
-0.0000000000001812
 30
618.3776573126987
 70
   192
  0
VERTEX
  5
4F6
330
4EC
100
AcDbEntity
  8
0
 62
    18
100
AcDbVertex
100
AcDbPolyFaceMeshVertex
 10
-150.7702450880775
 20
-0.0000000000001368
 30
641.5808240063633
 70
   192
  0
VERTEX
  5
4F7
330
4EC
100
AcDbEntity
  8
0
 62
    18
100
AcDbVertex
100
AcDbPolyFaceMeshVertex
 10
181.2316620645028
 20
-0.0000000000001798
 30
694.7320277543967
 70
   192
  0
VERTEX
  5
4F8
330
4EC
100
AcDbEntity
  8
0
 62
    18
100
AcDbVertex
100
AcDbPolyFaceMeshVertex
 10
-154.4154676621468
 20
-0.0000000000001805
 30
759.2907717371745
 70
   192
  0
VERTEX
  5
4F9
330
4EC
100
AcDbEntity
  8
0
 62
    18
100
AcDbVertex
100
AcDbPolyFaceMeshVertex
 10
178.5546530775979
 20
-0.0000000000002249
 30
809.8549811479278
 70
   192
  0
VERTEX
  5
4FA
330
4EC
100
AcDbEntity
  8
0
 62
    18
100
AcDbVertex
100
AcDbPolyFaceMeshVertex
 10
-149.0147369788937
 20
-0.0000000000001805
 30
761.5380237971979
 70
   192
  0
VERTEX
  5
4FB
330
4EC
100
AcDbEntity
  8
0
 62
    18
100
AcDbVertex
100
AcDbPolyFaceMeshVertex
 10
-153.7170025214628
 20
-0.0000000000002707
 30
761.2973668808156
 70
   192
  0
VERTEX
  5
4FC
330
4EC
100
AcDbEntity
  8
0
 62
    18
100
AcDbVertex
100
AcDbPolyFaceMeshVertex
 10
-146.6875542827107
 20
-0.0000000000002714
 30
763.2736604680794
 70
   192
  0
VERTEX
  5
4FD
330
4EC
100
AcDbEntity
  8
0
 62
    18
100
AcDbVertex
100
AcDbPolyFaceMeshVertex
 10
-145.6524181326983
 20
-0.0000000000001347
 30
767.8187629080326
 70
   192
  0
VERTEX
  5
4FE
330
4EC
100
AcDbEntity
  8
0
 62
    18
100
AcDbVertex
100
AcDbPolyFaceMeshVertex
 10
-146.3887412365879
 20
-0.0000000000001805
 30
768.8900110863514
 70
   192
  0
VERTEX
  5
4FF
330
4EC
100
AcDbEntity
  8
0
 62
    18
100
AcDbVertex
100
AcDbPolyFaceMeshVertex
 10
-144.5933419564828
 20
-0.0000000000002256
 30
771.3408712418232
 70
   192
  0
VERTEX
  5
500
330
4EC
100
AcDbEntity
  8
0
 62
    18
100
AcDbVertex
100
AcDbPolyFaceMeshVertex
 10
-144.9031287819679
 20
-0.0000000000002249
 30
775.8401207799735
 70
   192
  0
VERTEX
  5
501
330
4EC
100
AcDbEntity
  8
0
 62
    18
100
AcDbVertex
100
AcDbPolyFaceMeshVertex
 10
-148.7043569761463
 20
-0.0000000000001805
 30
779.4085268985135
 70
   192
  0
VERTEX
  5
502
330
4EC
100
AcDbEntity
  8
0
 62
    18
100
AcDbVertex
100
AcDbPolyFaceMeshVertex
 10
-155.7822963698974
 20
-0.00000000000027
 30
780.2615158023841
 70
   192
  0
VERTEX
  5
503
330
4EC
100
AcDbEntity
  8
0
 62
    18
100
AcDbVertex
100
AcDbPolyFaceMeshVertex
 10
-155.7822963698974
 20
-0.00000000000027
 30
790.4186383672005
 70
   192
  0
VERTEX
  5
504
330
4EC
100
AcDbEntity
  8
0
 62
    18
100
AcDbVertex
100
AcDbPolyFaceMeshVertex
 10
-149.2650577837848
 20
-0.0000000000002249
 30
791.3072179068388
 70
   192
  0
VERTEX
  5
505
330
4EC
100
AcDbEntity
  8
0
 62
    18
100
AcDbVertex
100
AcDbPolyFaceMeshVertex
 10
-145.1186004226706
 20
-0.0000000000002249
 30
796.7875826376186
 70
   192
  0
VERTEX
  5
506
330
4EC
100
AcDbEntity
  8
0
 62
    18
100
AcDbVertex
100
AcDbPolyFaceMeshVertex
 10
-144.2291311171385
 20
-0.00000000000027
 30
807.7483120991799
 70
   192
  0
VERTEX
  5
507
330
4EC
100
AcDbEntity
  8
0
 62
    18
100
AcDbVertex
100
AcDbPolyFaceMeshVertex
 10
-150.1542305006853
 20
-0.0000000000002256
 30
824.6336960613409
 70
   192
  0
VERTEX
  5
508
330
4EC
100
AcDbEntity
  8
0
 62
    18
100
AcDbVertex
100
AcDbPolyFaceMeshVertex
 10
176.0555972695257
 20
-0.0000000000002707
 30
842.8724139485241
 70
   192
  0
VERTEX
  5
509
330
4EC
100
AcDbEntity
  8
0
 62
    18
100
AcDbVertex
100
AcDbPolyFaceMeshVertex
 10
-152.2279782113476
 20
-0.00000000000027
 30
853.072393570576
 70
   192
  0
VERTEX
  5
50A
330
4EC
100
AcDbEntity
  8
0
 62
    18
100
AcDbVertex
100
AcDbPolyFaceMeshVertex
 10
164.4008504105173
 20
-0.0000000000003158
 30
926.0308241828806
 70
   192
  0
VERTEX
  5
50B
330
4EC
100
AcDbEntity
  8
0
 62
    18
100
AcDbVertex
100
AcDbPolyFaceMeshVertex
 10
-154.0242672573466
 20
-0.00000000000027
 30
858.1686760237068
 70
   192
  0
VERTEX
  5
50C
330
4EC
100
AcDbEntity
  8
0
 62
    18
100
AcDbVertex
100
AcDbPolyFaceMeshVertex
 10
78.75480303039467
 20
-0.0000000000002711
 30
916.4618368741078
 70
   192
  0
VERTEX
  5
50D
330
4EC
100
AcDbEntity
  8
0
 62
    18
100
AcDbVertex
100
AcDbPolyFaceMeshVertex
 10
-100.5193815663866
 20
-0.0000000000001812
 30
921.8940059522881
 70
   192
  0
VERTEX
  5
50E
330
4EC
100
AcDbEntity
  8
0
 62
    18
100
AcDbVertex
100
AcDbPolyFaceMeshVertex
 10
-139.3038320099998
 20
-0.0000000000002707
 30
930.6665044914705
 70
   192
  0
VERTEX
  5
50F
330
4EC
100
AcDbEntity
  8
0
 62
    18
100
AcDbVertex
100
AcDbPolyFaceMeshVertex
 10
-12.61080781172312
 20
-0.0000000000002707
 30
916.4618368741078
 70
   192
  0
VERTEX
  5
510
330
4EC
100
AcDbEntity
  8
0
 62
    18
100
AcDbFaceRecord
 10
0.0
 20
0.0
 30
0.0
 70
   128
 71
    -1
 72
     2
 73
     3
  0
VERTEX
  5
511
330
4EC
100
AcDbEntity
  8
0
 62
    18
100
AcDbFaceRecord
 10
0.0
 20
0.0
 30
0.0
 70
   128
 71
    -2
 72
     1
 73
    -4
  0
VERTEX
  5
512
330
4EC
100
AcDbEntity
  8
0
 62
    18
100
AcDbFaceRecord
 10
0.0
 20
0.0
 30
0.0
 70
   128
 71
    -2
 72
     4
 73
    -5
  0
VERTEX
  5
513
330
4EC
100
AcDbEntity
  8
0
 62
    18
100
AcDbFaceRecord
 10
0.0
 20
0.0
 30
0.0
 70
   128
 71
    -2
 72
    -5
 73
     6
  0
VERTEX
  5
514
330
4EC
100
AcDbEntity
  8
0
 62
    18
100
AcDbFaceRecord
 10
0.0
 20
0.0
 30
0.0
 70
   128
 71
    -6
 72
    -5
 73
     7
  0
VERTEX
  5
515
330
4EC
100
AcDbEntity
  8
0
 62
    18
100
AcDbFaceRecord
 10
0.0
 20
0.0
 30
0.0
 70
   128
 71
    -7
 72
     5
 73
    -8
  0
VERTEX
  5
516
330
4EC
100
AcDbEntity
  8
0
 62
    18
100
AcDbFaceRecord
 10
0.0
 20
0.0
 30
0.0
 70
   128
 71
    -7
 72
     8
 73
    -9
  0
VERTEX
  5
517
330
4EC
100
AcDbEntity
  8
0
 62
    18
100
AcDbFaceRecord
 10
0.0
 20
0.0
 30
0.0
 70
   128
 71
    -7
 72
    -9
 73
    10
  0
VERTEX
  5
518
330
4EC
100
AcDbEntity
  8
0
 62
    18
100
AcDbFaceRecord
 10
0.0
 20
0.0
 30
0.0
 70
   128
 71
   -10
 72
     9
 73
   -11
  0
VERTEX
  5
519
330
4EC
100
AcDbEntity
  8
0
 62
    18
100
AcDbFaceRecord
 10
0.0
 20
0.0
 30
0.0
 70
   128
 71
   -10
 72
   -11
 73
    12
  0
VERTEX
  5
51A
330
4EC
100
AcDbEntity
  8
0
 62
    18
100
AcDbFaceRecord
 10
0.0
 20
0.0
 30
0.0
 70
   128
 71
   -12
 72
    11
 73
   -13
  0
VERTEX
  5
51B
330
4EC
100
AcDbEntity
  8
0
 62
    18
100
AcDbFaceRecord
 10
0.0
 20
0.0
 30
0.0
 70
   128
 71
   -12
 72
   -13
 73
   -14
  0
VERTEX
  5
51C
330
4EC
100
AcDbEntity
  8
0
 62
    18
100
AcDbFaceRecord
 10
0.0
 20
0.0
 30
0.0
 70
   128
 71
   -12
 72
    14
 73
    15
  0
VERTEX
  5
51D
330
4EC
100
AcDbEntity
  8
0
 62
    18
100
AcDbFaceRecord
 10
0.0
 20
0.0
 30
0.0
 70
   128
 71
   -14
 72
   -13
 73
    16
  0
VERTEX
  5
51E
330
4EC
100
AcDbEntity
  8
0
 62
    18
100
AcDbFaceRecord
 10
0.0
 20
0.0
 30
0.0
 70
   128
 71
   -16
 72
   -13
 73
    17
  0
VERTEX
  5
51F
330
4EC
100
AcDbEntity
  8
0
 62
    18
100
AcDbFaceRecord
 10
0.0
 20
0.0
 30
0.0
 70
   128
 71
   -17
 72
   -13
 73
    18
  0
VERTEX
  5
520
330
4EC
100
AcDbEntity
  8
0
 62
    18
100
AcDbFaceRecord
 10
0.0
 20
0.0
 30
0.0
 70
   128
 71
   -18
 72
   -13
 73
    19
  0
VERTEX
  5
521
330
4EC
100
AcDbEntity
  8
0
 62
    18
100
AcDbFaceRecord
 10
0.0
 20
0.0
 30
0.0
 70
   128
 71
   -19
 72
   -13
 73
    20
  0
VERTEX
  5
522
330
4EC
100
AcDbEntity
  8
0
 62
    18
100
AcDbFaceRecord
 10
0.0
 20
0.0
 30
0.0
 70
   128
 71
   -20
 72
   -13
 73
    21
  0
VERTEX
  5
523
330
4EC
100
AcDbEntity
  8
0
 62
    18
100
AcDbFaceRecord
 10
0.0
 20
0.0
 30
0.0
 70
   128
 71
   -21
 72
   -13
 73
    22
  0
VERTEX
  5
524
330
4EC
100
AcDbEntity
  8
0
 62
    18
100
AcDbFaceRecord
 10
0.0
 20
0.0
 30
0.0
 70
   128
 71
   -22
 72
   -13
 73
    23
  0
VERTEX
  5
525
330
4EC
100
AcDbEntity
  8
0
 62
    18
100
AcDbFaceRecord
 10
0.0
 20
0.0
 30
0.0
 70
   128
 71
   -23
 72
   -13
 73
    24
  0
VERTEX
  5
526
330
4EC
100
AcDbEntity
  8
0
 62
    18
100
AcDbFaceRecord
 10
0.0
 20
0.0
 30
0.0
 70
   128
 71
   -24
 72
   -13
 73
    25
  0
VERTEX
  5
527
330
4EC
100
AcDbEntity
  8
0
 62
    18
100
AcDbFaceRecord
 10
0.0
 20
0.0
 30
0.0
 70
   128
 71
   -25
 72
   -13
 73
    26
  0
VERTEX
  5
528
330
4EC
100
AcDbEntity
  8
0
 62
    18
100
AcDbFaceRecord
 10
0.0
 20
0.0
 30
0.0
 70
   128
 71
   -26
 72
   -13
 73
    27
  0
VERTEX
  5
529
330
4EC
100
AcDbEntity
  8
0
 62
    18
100
AcDbFaceRecord
 10
0.0
 20
0.0
 30
0.0
 70
   128
 71
   -27
 72
    13
 73
   -28
  0
VERTEX
  5
52A
330
4EC
100
AcDbEntity
  8
0
 62
    18
100
AcDbFaceRecord
 10
0.0
 20
0.0
 30
0.0
 70
   128
 71
   -27
 72
   -28
 73
    29
  0
VERTEX
  5
52B
330
4EC
100
AcDbEntity
  8
0
 62
    18
100
AcDbFaceRecord
 10
0.0
 20
0.0
 30
0.0
 70
   128
 71
   -29
 72
    28
 73
   -30
  0
VERTEX
  5
52C
330
4EC
100
AcDbEntity
  8
0
 62
    18
100
AcDbFaceRecord
 10
0.0
 20
0.0
 30
0.0
 70
   128
 71
   -29
 72
   -30
 73
    31
  0
VERTEX
  5
52D
330
4EC
100
AcDbEntity
  8
0
 62
    18
100
AcDbFaceRecord
 10
0.0
 20
0.0
 30
0.0
 70
   128
 71
   -31
 72
    30
 73
   -32
  0
VERTEX
  5
52E
330
4EC
100
AcDbEntity
  8
0
 62
    18
100
AcDbFaceRecord
 10
0.0
 20
0.0
 30
0.0
 70
   128
 71
   -31
 72
    33
 73
    34
  0
VERTEX
  5
52F
330
4EC
100
AcDbEntity
  8
0
 62
    18
100
AcDbFaceRecord
 10
0.0
 20
0.0
 30
0.0
 70
   128
 71
   -33
 72
   -31
 73
    35
  0
VERTEX
  5
530
330
4EC
100
AcDbEntity
  8
0
 62
    18
100
AcDbFaceRecord
 10
0.0
 20
0.0
 30
0.0
 70
   128
 71
   -35
 72
   -31
 73
    32
  0
SEQEND
  5
531
330
4EC
100
AcDbEntity
  8
0
 62
    18
  0
POLYLINE
  5
532
330
6B
100
AcDbEntity
  8
0
 62
    33
100
AcDbPolyFaceMesh
 66
     1
 10
0.0
 20
0.0
 30
0.0
 70
    64
 71
    78
 72
    76
  0
VERTEX
  5
533
330
532
100
AcDbEntity
  8
0
 62
    33
100
AcDbVertex
100
AcDbPolyFaceMeshVertex
 10
37.91454848831723
 20
-0.0000000000002707
 30
1051.666213321632
 70
   192
  0
VERTEX
  5
534
330
532
100
AcDbEntity
  8
0
 62
    33
100
AcDbVertex
100
AcDbPolyFaceMeshVertex
 10
22.84087618098828
 20
-0.0000000000003157
 30
1049.525659021749
 70
   192
  0
VERTEX
  5
535
330
532
100
AcDbEntity
  8
0
 62
    33
100
AcDbVertex
100
AcDbPolyFaceMeshVertex
 10
27.9247019116031
 20
-0.0000000000004512
 30
1048.99046483641
 70
   192
  0
VERTEX
  5
536
330
532
100
AcDbEntity
  8
0
 62
    33
100
AcDbVertex
100
AcDbPolyFaceMeshVertex
 10
19.89723401446551
 20
-0.0000000000003609
 30
1051.220292314341
 70
   192
  0
VERTEX
  5
537
330
532
100
AcDbEntity
  8
0
 62
    33
100
AcDbVertex
100
AcDbPolyFaceMeshVertex
 10
18.73757246573992
 20
-0.0000000000002256
 30
1053.539986147581
 70
   192
  0
VERTEX
  5
538
330
532
100
AcDbEntity
  8
0
 62
    33
100
AcDbVertex
100
AcDbPolyFaceMeshVertex
 10
57.78806291170815
 20
-0.0000000000001812
 30
1053.958917589415
 70
   192
  0
VERTEX
  5
539
330
532
100
AcDbEntity
  8
0
 62
    33
100
AcDbVertex
100
AcDbPolyFaceMeshVertex
 10
18.82714223241872
 20
-0.0000000000001805
 30
1056.126239013279
 70
   192
  0
VERTEX
  5
53A
330
532
100
AcDbEntity
  8
0
 62
    33
100
AcDbVertex
100
AcDbPolyFaceMeshVertex
 10
51.35609355712085
 20
-0.000000000000316
 30
1030.591959824069
 70
   192
  0
VERTEX
  5
53B
330
532
100
AcDbEntity
  8
0
 62
    33
100
AcDbVertex
100
AcDbPolyFaceMeshVertex
 10
12.04178752353293
 20
-0.0000000000004061
 30
1022.35643500201
 70
   192
  0
VERTEX
  5
53C
330
532
100
AcDbEntity
  8
0
 62
    33
100
AcDbVertex
100
AcDbPolyFaceMeshVertex
 10
16.68873820011433
 20
-0.000000000000361
 30
1022.190345368435
 70
   192
  0
VERTEX
  5
53D
330
532
100
AcDbEntity
  8
0
 62
    33
100
AcDbVertex
100
AcDbPolyFaceMeshVertex
 10
9.577877468280102
 20
-0.0000000000003158
 30
1023.856357858097
 70
   192
  0
VERTEX
  5
53E
330
532
100
AcDbEntity
  8
0
 62
    33
100
AcDbVertex
100
AcDbPolyFaceMeshVertex
 10
7.756674977244177
 20
-0.0000000000003609
 30
1026.856870894686
 70
   192
  0
VERTEX
  5
53F
330
532
100
AcDbEntity
  8
0
 62
    33
100
AcDbVertex
100
AcDbPolyFaceMeshVertex
 10
7.648716715419284
 20
-0.0000000000001805
 30
1029.642802056469
 70
   192
  0
VERTEX
  5
540
330
532
100
AcDbEntity
  8
0
 62
    33
100
AcDbVertex
100
AcDbPolyFaceMeshVertex
 10
8.292165751214279
 20
-0.0000000000002707
 30
1032.535950008498
 70
   192
  0
VERTEX
  5
541
330
532
100
AcDbEntity
  8
0
 62
    33
100
AcDbVertex
100
AcDbPolyFaceMeshVertex
 10
85.95464035164525
 20
-0.0000000000002711
 30
1011.293975639885
 70
   192
  0
VERTEX
  5
542
330
532
100
AcDbEntity
  8
0
 62
    33
100
AcDbVertex
100
AcDbPolyFaceMeshVertex
 10
21.04859108151237
 20
-0.0000000000001805
 30
1001.666263782094
 70
   192
  0
VERTEX
  5
543
330
532
100
AcDbEntity
  8
0
 62
    33
100
AcDbVertex
100
AcDbPolyFaceMeshVertex
 10
25.19608650283711
 20
-0.0000000000003609
 30
1000.496814808533
 70
   192
  0
VERTEX
  5
544
330
532
100
AcDbEntity
  8
0
 62
    33
100
AcDbVertex
100
AcDbPolyFaceMeshVertex
 10
19.02837761881555
 20
-0.0000000000002707
 30
1004.218853838132
 70
   192
  0
VERTEX
  5
545
330
532
100
AcDbEntity
  8
0
 62
    33
100
AcDbVertex
100
AcDbPolyFaceMeshVertex
 10
18.28379185971683
 20
-0.000000000000361
 30
1007.409109451653
 70
   192
  0
VERTEX
  5
546
330
532
100
AcDbEntity
  8
0
 62
    33
100
AcDbVertex
100
AcDbPolyFaceMeshVertex
 10
18.81527868716351
 20
-0.0000000000004061
 30
1010.492889746505
 70
   192
  0
VERTEX
  5
547
330
532
100
AcDbEntity
  8
0
 62
    33
100
AcDbVertex
100
AcDbPolyFaceMeshVertex
 10
20.83623362143859
 20
-0.000000000000361
 30
1013.151213649631
 70
   192
  0
VERTEX
  5
548
330
532
100
AcDbEntity
  8
0
 62
    33
100
AcDbVertex
100
AcDbPolyFaceMeshVertex
 10
85.84089861150844
 20
-0.0000000000003155
 30
988.9492847397721
 70
   192
  0
VERTEX
  5
549
330
532
100
AcDbEntity
  8
0
 62
    33
100
AcDbVertex
100
AcDbPolyFaceMeshVertex
 10
51.03666760111633
 20
-0.0000000000003608
 30
982.3132624067872
 70
   192
  0
VERTEX
  5
54A
330
532
100
AcDbEntity
  8
0
 62
    33
100
AcDbVertex
100
AcDbPolyFaceMeshVertex
 10
56.37051754799178
 20
-0.0000000000002261
 30
981.2066902230813
 70
   192
  0
VERTEX
  5
54B
330
532
100
AcDbEntity
  8
0
 62
    33
100
AcDbVertex
100
AcDbPolyFaceMeshVertex
 10
48.62184296435804
 20
-0.0000000000003158
 30
984.0244305155783
 70
   192
  0
VERTEX
  5
54C
330
532
100
AcDbEntity
  8
0
 62
    33
100
AcDbVertex
100
AcDbPolyFaceMeshVertex
 10
47.81749459603478
 20
-0.0000000000003608
 30
986.640787127366
 70
   192
  0
VERTEX
  5
54D
330
532
100
AcDbEntity
  8
0
 62
    33
100
AcDbVertex
100
AcDbPolyFaceMeshVertex
 10
48.01843339380046
 20
-0.0000000000002707
 30
989.3576872851905
 70
   192
  0
VERTEX
  5
54E
330
532
100
AcDbEntity
  8
0
 62
    33
100
AcDbVertex
100
AcDbPolyFaceMeshVertex
 10
108.5158409526709
 20
-0.0000000000004064
 30
994.3590613762797
 70
   192
  0
VERTEX
  5
54F
330
532
100
AcDbEntity
  8
0
 62
    33
100
AcDbVertex
100
AcDbPolyFaceMeshVertex
 10
49.93054030035601
 20
-0.0000000000002707
 30
992.2756745350991
 70
   192
  0
VERTEX
  5
550
330
532
100
AcDbEntity
  8
0
 62
    33
100
AcDbVertex
100
AcDbPolyFaceMeshVertex
 10
56.97481688444417
 20
-0.0000000000002714
 30
994.3885719451026
 70
   192
  0
VERTEX
  5
551
330
532
100
AcDbEntity
  8
0
 62
    33
100
AcDbVertex
100
AcDbPolyFaceMeshVertex
 10
135.4775270775961
 20
-0.0000000000003617
 30
999.2481766703914
 70
   192
  0
VERTEX
  5
552
330
532
100
AcDbEntity
  8
0
 62
    33
100
AcDbVertex
100
AcDbPolyFaceMeshVertex
 10
88.47000853444361
 20
-0.0000000000001808
 30
1008.778310868454
 70
   192
  0
VERTEX
  5
553
330
532
100
AcDbEntity
  8
0
 62
    33
100
AcDbVertex
100
AcDbPolyFaceMeshVertex
 10
143.3851731676529
 20
-0.0000000000003158
 30
1000.68218270315
 70
   192
  0
VERTEX
  5
554
330
532
100
AcDbEntity
  8
0
 62
    33
100
AcDbVertex
100
AcDbPolyFaceMeshVertex
 10
168.0210112452352
 20
-0.0000000000004512
 30
1015.709587183982
 70
   192
  0
VERTEX
  5
555
330
532
100
AcDbEntity
  8
0
 62
    33
100
AcDbVertex
100
AcDbPolyFaceMeshVertex
 10
25.62154289456284
 20
-0.0000000000002707
 30
1014.959069652257
 70
   192
  0
VERTEX
  5
556
330
532
100
AcDbEntity
  8
0
 62
    33
100
AcDbVertex
100
AcDbPolyFaceMeshVertex
 10
54.44017044060471
 20
-0.0000000000003606
 30
1023.254282936379
 70
   192
  0
VERTEX
  5
557
330
532
100
AcDbEntity
  8
0
 62
    33
100
AcDbVertex
100
AcDbPolyFaceMeshVertex
 10
180.8146584487721
 20
-0.0000000000001798
 30
1027.213296282459
 70
   192
  0
VERTEX
  5
558
330
532
100
AcDbEntity
  8
0
 62
    33
100
AcDbVertex
100
AcDbPolyFaceMeshVertex
 10
60.0766890858111
 20
-0.0000000000002711
 30
1025.486928006308
 70
   192
  0
VERTEX
  5
559
330
532
100
AcDbEntity
  8
0
 62
    33
100
AcDbVertex
100
AcDbPolyFaceMeshVertex
 10
79.8566297959999
 20
-0.0000000000002711
 30
1028.677776797091
 70
   192
  0
VERTEX
  5
55A
330
532
100
AcDbEntity
  8
0
 62
    33
100
AcDbVertex
100
AcDbPolyFaceMeshVertex
 10
194.1083540848291
 20
-0.0000000000002707
 30
1036.368690744763
 70
   192
  0
VERTEX
  5
55B
330
532
100
AcDbEntity
  8
0
 62
    33
100
AcDbVertex
100
AcDbPolyFaceMeshVertex
 10
74.8586664741714
 20
-0.000000000000361
 30
1030.591959824069
 70
   192
  0
VERTEX
  5
55C
330
532
100
AcDbEntity
  8
0
 62
    33
100
AcDbVertex
100
AcDbPolyFaceMeshVertex
 10
11.07772617720718
 20
-0.0000000000004061
 30
1035.321881170279
 70
   192
  0
VERTEX
  5
55D
330
532
100
AcDbEntity
  8
0
 62
    33
100
AcDbVertex
100
AcDbPolyFaceMeshVertex
 10
46.3309923755199
 20
-0.0000000000002705
 30
1047.108609970255
 70
   192
  0
VERTEX
  5
55E
330
532
100
AcDbEntity
  8
0
 62
    33
100
AcDbVertex
100
AcDbPolyFaceMeshVertex
 10
79.54476685009585
 20
-0.0000000000002711
 30
1049.243899821931
 70
   192
  0
VERTEX
  5
55F
330
532
100
AcDbEntity
  8
0
 62
    33
100
AcDbVertex
100
AcDbPolyFaceMeshVertex
 10
147.1049877825162
 20
-0.0000000000003624
 30
1060.807668118261
 70
   192
  0
VERTEX
  5
560
330
532
100
AcDbEntity
  8
0
 62
    33
100
AcDbVertex
100
AcDbPolyFaceMeshVertex
 10
273.5662279653652
 20
-0.0000000000004498
 30
1087.936407789814
 70
   192
  0
VERTEX
  5
561
330
532
100
AcDbEntity
  8
0
 62
    33
100
AcDbVertex
100
AcDbPolyFaceMeshVertex
 10
51.50157028081627
 20
-0.0000000000001805
 30
1048.085721216363
 70
   192
  0
VERTEX
  5
562
330
532
100
AcDbEntity
  8
0
 62
    33
100
AcDbVertex
100
AcDbPolyFaceMeshVertex
 10
128.9169865513011
 20
-0.0000000000004061
 30
1059.34066660026
 70
   192
  0
VERTEX
  5
563
330
532
100
AcDbEntity
  8
0
 62
    33
100
AcDbVertex
100
AcDbPolyFaceMeshVertex
 10
20.34271013880968
 20
-0.0000000000002706
 30
1058.713085056243
 70
   192
  0
VERTEX
  5
564
330
532
100
AcDbEntity
  8
0
 62
    33
100
AcDbVertex
100
AcDbPolyFaceMeshVertex
 10
213.6078702440398
 20
-0.0000000000002693
 30
1110.769431871507
 70
   192
  0
VERTEX
  5
565
330
532
100
AcDbEntity
  8
0
 62
    33
100
AcDbVertex
100
AcDbPolyFaceMeshVertex
 10
332.7937912989499
 20
-0.000000000000361
 30
1143.952657717048
 70
   192
  0
VERTEX
  5
566
330
532
100
AcDbEntity
  8
0
 62
    33
100
AcDbVertex
100
AcDbPolyFaceMeshVertex
 10
268.8658913351325
 20
-0.0000000000003595
 30
1177.260599082092
 70
   192
  0
VERTEX
  5
567
330
532
100
AcDbEntity
  8
0
 62
    33
100
AcDbVertex
100
AcDbPolyFaceMeshVertex
 10
350.9936560754207
 20
-0.0000000000004512
 30
1157.833969579043
 70
   192
  0
VERTEX
  5
568
330
532
100
AcDbEntity
  8
0
 62
    33
100
AcDbVertex
100
AcDbPolyFaceMeshVertex
 10
354.4578112900272
 20
-0.0000000000002693
 30
1165.181582185884
 70
   192
  0
VERTEX
  5
569
330
532
100
AcDbEntity
  8
0
 62
    33
100
AcDbVertex
100
AcDbPolyFaceMeshVertex
 10
354.195626939882
 20
-0.0000000000004498
 30
1173.185619581139
 70
   192
  0
VERTEX
  5
56A
330
532
100
AcDbEntity
  8
0
 62
    33
100
AcDbVertex
100
AcDbPolyFaceMeshVertex
 10
351.0464488518076
 20
-0.0000000000004526
 30
1182.763652843173
 70
   192
  0
VERTEX
  5
56B
330
532
100
AcDbEntity
  8
0
 62
    33
100
AcDbVertex
100
AcDbPolyFaceMeshVertex
 10
230.6928583551246
 20
-0.0000000000003172
 30
1212.335022335677
 70
   192
  0
VERTEX
  5
56C
330
532
100
AcDbEntity
  8
0
 62
    33
100
AcDbVertex
100
AcDbPolyFaceMeshVertex
 10
342.6808699148875
 20
-0.0000000000002256
 30
1196.680777782406
 70
   192
  0
VERTEX
  5
56D
330
532
100
AcDbEntity
  8
0
 62
    33
100
AcDbVertex
100
AcDbPolyFaceMeshVertex
 10
319.5807677706319
 20
-0.0000000000004033
 30
1230.957748353347
 70
   192
  0
VERTEX
  5
56E
330
532
100
AcDbEntity
  8
0
 62
    33
100
AcDbVertex
100
AcDbPolyFaceMeshVertex
 10
176.1362693772631
 20
-0.0000000000004512
 30
1270.289108233241
 70
   192
  0
VERTEX
  5
56F
330
532
100
AcDbEntity
  8
0
 62
    33
100
AcDbVertex
100
AcDbPolyFaceMeshVertex
 10
282.1239963354234
 20
-0.0000000000005837
 30
1275.819522295568
 70
   192
  0
VERTEX
  5
570
330
532
100
AcDbEntity
  8
0
 62
    33
100
AcDbVertex
100
AcDbPolyFaceMeshVertex
 10
173.7665262124759
 20
-0.0000000000002693
 30
1272.806255947829
 70
   192
  0
VERTEX
  5
571
330
532
100
AcDbEntity
  8
0
 62
    33
100
AcDbVertex
100
AcDbPolyFaceMeshVertex
 10
163.9126655232539
 20
-0.0000000000005428
 30
1283.274055104027
 70
   192
  0
VERTEX
  5
572
330
532
100
AcDbEntity
  8
0
 62
    33
100
AcDbVertex
100
AcDbPolyFaceMeshVertex
 10
253.2576180197266
 20
-0.000000000000361
 30
1302.608964572818
 70
   192
  0
VERTEX
  5
573
330
532
100
AcDbEntity
  8
0
 62
    33
100
AcDbVertex
100
AcDbPolyFaceMeshVertex
 10
159.571201137002
 20
-0.0000000000004526
 30
1306.001048749999
 70
   192
  0
VERTEX
  5
574
330
532
100
AcDbEntity
  8
0
 62
    33
100
AcDbVertex
100
AcDbPolyFaceMeshVertex
 10
236.97994416328
 20
-0.0000000000004512
 30
1326.755950438715
 70
   192
  0
VERTEX
  5
575
330
532
100
AcDbEntity
  8
0
 62
    33
100
AcDbVertex
100
AcDbPolyFaceMeshVertex
 10
161.189981887114
 20
-0.0000000000004519
 30
1323.521873854909
 70
   192
  0
VERTEX
  5
576
330
532
100
AcDbEntity
  8
0
 62
    33
100
AcDbVertex
100
AcDbPolyFaceMeshVertex
 10
164.0746029159911
 20
-0.0000000000004519
 30
1338.126861977486
 70
   192
  0
VERTEX
  5
577
330
532
100
AcDbEntity
  8
0
 62
    33
100
AcDbVertex
100
AcDbPolyFaceMeshVertex
 10
215.5748460474038
 20
-0.0000000000003158
 30
1354.318895866623
 70
   192
  0
VERTEX
  5
578
330
532
100
AcDbEntity
  8
0
 62
    33
100
AcDbVertex
100
AcDbPolyFaceMeshVertex
 10
174.5335044132449
 20
-0.0000000000004519
 30
1350.387910146212
 70
   192
  0
VERTEX
  5
579
330
532
100
AcDbEntity
  8
0
 62
    33
100
AcDbVertex
100
AcDbPolyFaceMeshVertex
 10
187.7400029916732
 20
-0.000000000000497
 30
1355.832165211122
 70
   192
  0
VERTEX
  5
57A
330
532
100
AcDbEntity
  8
0
 62
    33
100
AcDbVertex
100
AcDbPolyFaceMeshVertex
 10
214.7064345347011
 20
-0.0000000000005428
 30
1355.437257448428
 70
   192
  0
VERTEX
  5
57B
330
532
100
AcDbEntity
  8
0
 62
    33
100
AcDbVertex
100
AcDbPolyFaceMeshVertex
 10
204.2659215325933
 20
-0.0000000000006317
 30
1357.75754445893
 70
   192
  0
VERTEX
  5
57C
330
532
100
AcDbEntity
  8
0
 62
    33
100
AcDbVertex
100
AcDbPolyFaceMeshVertex
 10
109.4803471819437
 20
-0.0000000000003617
 30
1071.250850418051
 70
   192
  0
VERTEX
  5
57D
330
532
100
AcDbEntity
  8
0
 62
    33
100
AcDbVertex
100
AcDbPolyFaceMeshVertex
 10
108.0596876375963
 20
-0.0000000000002707
 30
1062.349261677057
 70
   192
  0
VERTEX
  5
57E
330
532
100
AcDbEntity
  8
0
 62
    33
100
AcDbVertex
100
AcDbPolyFaceMeshVertex
 10
115.7164197455002
 20
-0.0000000000002256
 30
1061.687127557484
 70
   192
  0
VERTEX
  5
57F
330
532
100
AcDbEntity
  8
0
 62
    33
100
AcDbVertex
100
AcDbPolyFaceMeshVertex
 10
27.47878090431238
 20
-0.0000000000002709
 30
1063.439892221826
 70
   192
  0
VERTEX
  5
580
330
532
100
AcDbEntity
  8
0
 62
    33
100
AcDbVertex
100
AcDbPolyFaceMeshVertex
 10
56.28880738004456
 20
-0.0000000000001807
 30
1071.021661553147
 70
   192
  0
VERTEX
  5
581
330
532
100
AcDbEntity
  8
0
 62
    33
100
AcDbFaceRecord
 10
0.0
 20
0.0
 30
0.0
 70
   128
 71
    -1
 72
     2
 73
     3
  0
VERTEX
  5
582
330
532
100
AcDbEntity
  8
0
 62
    33
100
AcDbFaceRecord
 10
0.0
 20
0.0
 30
0.0
 70
   128
 71
    -2
 72
    -1
 73
     4
  0
VERTEX
  5
583
330
532
100
AcDbEntity
  8
0
 62
    33
100
AcDbFaceRecord
 10
0.0
 20
0.0
 30
0.0
 70
   128
 71
    -4
 72
    -1
 73
     5
  0
VERTEX
  5
584
330
532
100
AcDbEntity
  8
0
 62
    33
100
AcDbFaceRecord
 10
0.0
 20
0.0
 30
0.0
 70
   128
 71
    -5
 72
     1
 73
    -6
  0
VERTEX
  5
585
330
532
100
AcDbEntity
  8
0
 62
    33
100
AcDbFaceRecord
 10
0.0
 20
0.0
 30
0.0
 70
   128
 71
    -5
 72
    -6
 73
     7
  0
VERTEX
  5
586
330
532
100
AcDbEntity
  8
0
 62
    33
100
AcDbFaceRecord
 10
0.0
 20
0.0
 30
0.0
 70
   128
 71
    -8
 72
     9
 73
    10
  0
VERTEX
  5
587
330
532
100
AcDbEntity
  8
0
 62
    33
100
AcDbFaceRecord
 10
0.0
 20
0.0
 30
0.0
 70
   128
 71
    -9
 72
    -8
 73
    11
  0
VERTEX
  5
588
330
532
100
AcDbEntity
  8
0
 62
    33
100
AcDbFaceRecord
 10
0.0
 20
0.0
 30
0.0
 70
   128
 71
   -11
 72
    -8
 73
    12
  0
VERTEX
  5
589
330
532
100
AcDbEntity
  8
0
 62
    33
100
AcDbFaceRecord
 10
0.0
 20
0.0
 30
0.0
 70
   128
 71
   -12
 72
    -8
 73
    13
  0
VERTEX
  5
58A
330
532
100
AcDbEntity
  8
0
 62
    33
100
AcDbFaceRecord
 10
0.0
 20
0.0
 30
0.0
 70
   128
 71
   -13
 72
    -8
 73
    14
  0
VERTEX
  5
58B
330
532
100
AcDbEntity
  8
0
 62
    33
100
AcDbFaceRecord
 10
0.0
 20
0.0
 30
0.0
 70
   128
 71
   -15
 72
    16
 73
    17
  0
VERTEX
  5
58C
330
532
100
AcDbEntity
  8
0
 62
    33
100
AcDbFaceRecord
 10
0.0
 20
0.0
 30
0.0
 70
   128
 71
   -16
 72
   -15
 73
    18
  0
VERTEX
  5
58D
330
532
100
AcDbEntity
  8
0
 62
    33
100
AcDbFaceRecord
 10
0.0
 20
0.0
 30
0.0
 70
   128
 71
   -18
 72
   -15
 73
    19
  0
VERTEX
  5
58E
330
532
100
AcDbEntity
  8
0
 62
    33
100
AcDbFaceRecord
 10
0.0
 20
0.0
 30
0.0
 70
   128
 71
   -19
 72
   -15
 73
    20
  0
VERTEX
  5
58F
330
532
100
AcDbEntity
  8
0
 62
    33
100
AcDbFaceRecord
 10
0.0
 20
0.0
 30
0.0
 70
   128
 71
   -20
 72
   -15
 73
    21
  0
VERTEX
  5
590
330
532
100
AcDbEntity
  8
0
 62
    33
100
AcDbFaceRecord
 10
0.0
 20
0.0
 30
0.0
 70
   128
 71
   -22
 72
    23
 73
    24
  0
VERTEX
  5
591
330
532
100
AcDbEntity
  8
0
 62
    33
100
AcDbFaceRecord
 10
0.0
 20
0.0
 30
0.0
 70
   128
 71
   -23
 72
   -22
 73
    25
  0
VERTEX
  5
592
330
532
100
AcDbEntity
  8
0
 62
    33
100
AcDbFaceRecord
 10
0.0
 20
0.0
 30
0.0
 70
   128
 71
   -25
 72
   -22
 73
    26
  0
VERTEX
  5
593
330
532
100
AcDbEntity
  8
0
 62
    33
100
AcDbFaceRecord
 10
0.0
 20
0.0
 30
0.0
 70
   128
 71
   -26
 72
   -22
 73
    27
  0
VERTEX
  5
594
330
532
100
AcDbEntity
  8
0
 62
    33
100
AcDbFaceRecord
 10
0.0
 20
0.0
 30
0.0
 70
   128
 71
   -27
 72
    22
 73
   -28
  0
VERTEX
  5
595
330
532
100
AcDbEntity
  8
0
 62
    33
100
AcDbFaceRecord
 10
0.0
 20
0.0
 30
0.0
 70
   128
 71
   -27
 72
   -28
 73
    29
  0
VERTEX
  5
596
330
532
100
AcDbEntity
  8
0
 62
    33
100
AcDbFaceRecord
 10
0.0
 20
0.0
 30
0.0
 70
   128
 71
   -29
 72
   -28
 73
    30
  0
VERTEX
  5
597
330
532
100
AcDbEntity
  8
0
 62
    33
100
AcDbFaceRecord
 10
0.0
 20
0.0
 30
0.0
 70
   128
 71
   -30
 72
    28
 73
   -31
  0
VERTEX
  5
598
330
532
100
AcDbEntity
  8
0
 62
    33
100
AcDbFaceRecord
 10
0.0
 20
0.0
 30
0.0
 70
   128
 71
   -30
 72
   -31
 73
    32
  0
VERTEX
  5
599
330
532
100
AcDbEntity
  8
0
 62
    33
100
AcDbFaceRecord
 10
0.0
 20
0.0
 30
0.0
 70
   128
 71
   -32
 72
    31
 73
   -33
  0
VERTEX
  5
59A
330
532
100
AcDbEntity
  8
0
 62
    33
100
AcDbFaceRecord
 10
0.0
 20
0.0
 30
0.0
 70
   128
 71
   -32
 72
    33
 73
   -34
  0
VERTEX
  5
59B
330
532
100
AcDbEntity
  8
0
 62
    33
100
AcDbFaceRecord
 10
0.0
 20
0.0
 30
0.0
 70
   128
 71
   -32
 72
   -34
 73
    15
  0
VERTEX
  5
59C
330
532
100
AcDbEntity
  8
0
 62
    33
100
AcDbFaceRecord
 10
0.0
 20
0.0
 30
0.0
 70
   128
 71
   -15
 72
   -34
 73
   -21
  0
VERTEX
  5
59D
330
532
100
AcDbEntity
  8
0
 62
    33
100
AcDbFaceRecord
 10
0.0
 20
0.0
 30
0.0
 70
   128
 71
   -21
 72
   -34
 73
    35
  0
VERTEX
  5
59E
330
532
100
AcDbEntity
  8
0
 62
    33
100
AcDbFaceRecord
 10
0.0
 20
0.0
 30
0.0
 70
   128
 71
   -35
 72
   -34
 73
    36
  0
VERTEX
  5
59F
330
532
100
AcDbEntity
  8
0
 62
    33
100
AcDbFaceRecord
 10
0.0
 20
0.0
 30
0.0
 70
   128
 71
   -36
 72
    34
 73
   -37
  0
VERTEX
  5
5A0
330
532
100
AcDbEntity
  8
0
 62
    33
100
AcDbFaceRecord
 10
0.0
 20
0.0
 30
0.0
 70
   128
 71
   -36
 72
   -37
 73
    38
  0
VERTEX
  5
5A1
330
532
100
AcDbEntity
  8
0
 62
    33
100
AcDbFaceRecord
 10
0.0
 20
0.0
 30
0.0
 70
   128
 71
   -38
 72
   -37
 73
    39
  0
VERTEX
  5
5A2
330
532
100
AcDbEntity
  8
0
 62
    33
100
AcDbFaceRecord
 10
0.0
 20
0.0
 30
0.0
 70
   128
 71
   -39
 72
    37
 73
   -40
  0
VERTEX
  5
5A3
330
532
100
AcDbEntity
  8
0
 62
    33
100
AcDbFaceRecord
 10
0.0
 20
0.0
 30
0.0
 70
   128
 71
   -39
 72
   -40
 73
    41
  0
VERTEX
  5
5A4
330
532
100
AcDbEntity
  8
0
 62
    33
100
AcDbFaceRecord
 10
0.0
 20
0.0
 30
0.0
 70
   128
 71
   -41
 72
   -40
 73
     8
  0
VERTEX
  5
5A5
330
532
100
AcDbEntity
  8
0
 62
    33
100
AcDbFaceRecord
 10
0.0
 20
0.0
 30
0.0
 70
   128
 71
    -8
 72
   -40
 73
   -14
  0
VERTEX
  5
5A6
330
532
100
AcDbEntity
  8
0
 62
    33
100
AcDbFaceRecord
 10
0.0
 20
0.0
 30
0.0
 70
   128
 71
   -14
 72
   -40
 73
    42
  0
VERTEX
  5
5A7
330
532
100
AcDbEntity
  8
0
 62
    33
100
AcDbFaceRecord
 10
0.0
 20
0.0
 30
0.0
 70
   128
 71
   -42
 72
   -40
 73
    43
  0
VERTEX
  5
5A8
330
532
100
AcDbEntity
  8
0
 62
    33
100
AcDbFaceRecord
 10
0.0
 20
0.0
 30
0.0
 70
   128
 71
   -43
 72
   -40
 73
   -44
  0
VERTEX
  5
5A9
330
532
100
AcDbEntity
  8
0
 62
    33
100
AcDbFaceRecord
 10
0.0
 20
0.0
 30
0.0
 70
   128
 71
   -44
 72
   -40
 73
   -45
  0
VERTEX
  5
5AA
330
532
100
AcDbEntity
  8
0
 62
    33
100
AcDbFaceRecord
 10
0.0
 20
0.0
 30
0.0
 70
   128
 71
   -45
 72
    40
 73
   -46
  0
VERTEX
  5
5AB
330
532
100
AcDbEntity
  8
0
 62
    33
100
AcDbFaceRecord
 10
0.0
 20
0.0
 30
0.0
 70
   128
 71
   -43
 72
    44
 73
    47
  0
VERTEX
  5
5AC
330
532
100
AcDbEntity
  8
0
 62
    33
100
AcDbFaceRecord
 10
0.0
 20
0.0
 30
0.0
 70
   128
 71
   -44
 72
    45
 73
   -48
  0
VERTEX
  5
5AD
330
532
100
AcDbEntity
  8
0
 62
    33
100
AcDbFaceRecord
 10
0.0
 20
0.0
 30
0.0
 70
   128
 71
   -44
 72
   -48
 73
     6
  0
VERTEX
  5
5AE
330
532
100
AcDbEntity
  8
0
 62
    33
100
AcDbFaceRecord
 10
0.0
 20
0.0
 30
0.0
 70
   128
 71
    -6
 72
   -48
 73
    -7
  0
VERTEX
  5
5AF
330
532
100
AcDbEntity
  8
0
 62
    33
100
AcDbFaceRecord
 10
0.0
 20
0.0
 30
0.0
 70
   128
 71
    -7
 72
   -48
 73
    49
  0
VERTEX
  5
5B0
330
532
100
AcDbEntity
  8
0
 62
    33
100
AcDbFaceRecord
 10
0.0
 20
0.0
 30
0.0
 70
   128
 71
   -45
 72
   -46
 73
    50
  0
VERTEX
  5
5B1
330
532
100
AcDbEntity
  8
0
 62
    33
100
AcDbFaceRecord
 10
0.0
 20
0.0
 30
0.0
 70
   128
 71
   -50
 72
    46
 73
   -51
  0
VERTEX
  5
5B2
330
532
100
AcDbEntity
  8
0
 62
    33
100
AcDbFaceRecord
 10
0.0
 20
0.0
 30
0.0
 70
   128
 71
   -50
 72
   -51
 73
    52
  0
VERTEX
  5
5B3
330
532
100
AcDbEntity
  8
0
 62
    33
100
AcDbFaceRecord
 10
0.0
 20
0.0
 30
0.0
 70
   128
 71
   -52
 72
    51
 73
   -53
  0
VERTEX
  5
5B4
330
532
100
AcDbEntity
  8
0
 62
    33
100
AcDbFaceRecord
 10
0.0
 20
0.0
 30
0.0
 70
   128
 71
   -52
 72
    53
 73
   -54
  0
VERTEX
  5
5B5
330
532
100
AcDbEntity
  8
0
 62
    33
100
AcDbFaceRecord
 10
0.0
 20
0.0
 30
0.0
 70
   128
 71
   -52
 72
    54
 73
   -55
  0
VERTEX
  5
5B6
330
532
100
AcDbEntity
  8
0
 62
    33
100
AcDbFaceRecord
 10
0.0
 20
0.0
 30
0.0
 70
   128
 71
   -52
 72
    55
 73
   -56
  0
VERTEX
  5
5B7
330
532
100
AcDbEntity
  8
0
 62
    33
100
AcDbFaceRecord
 10
0.0
 20
0.0
 30
0.0
 70
   128
 71
   -52
 72
   -56
 73
    57
  0
VERTEX
  5
5B8
330
532
100
AcDbEntity
  8
0
 62
    33
100
AcDbFaceRecord
 10
0.0
 20
0.0
 30
0.0
 70
   128
 71
   -57
 72
    56
 73
   -58
  0
VERTEX
  5
5B9
330
532
100
AcDbEntity
  8
0
 62
    33
100
AcDbFaceRecord
 10
0.0
 20
0.0
 30
0.0
 70
   128
 71
   -57
 72
    58
 73
   -59
  0
VERTEX
  5
5BA
330
532
100
AcDbEntity
  8
0
 62
    33
100
AcDbFaceRecord
 10
0.0
 20
0.0
 30
0.0
 70
   128
 71
   -57
 72
   -59
 73
    60
  0
VERTEX
  5
5BB
330
532
100
AcDbEntity
  8
0
 62
    33
100
AcDbFaceRecord
 10
0.0
 20
0.0
 30
0.0
 70
   128
 71
   -60
 72
    59
 73
   -61
  0
VERTEX
  5
5BC
330
532
100
AcDbEntity
  8
0
 62
    33
100
AcDbFaceRecord
 10
0.0
 20
0.0
 30
0.0
 70
   128
 71
   -60
 72
   -61
 73
    62
  0
VERTEX
  5
5BD
330
532
100
AcDbEntity
  8
0
 62
    33
100
AcDbFaceRecord
 10
0.0
 20
0.0
 30
0.0
 70
   128
 71
   -62
 72
   -61
 73
    63
  0
VERTEX
  5
5BE
330
532
100
AcDbEntity
  8
0
 62
    33
100
AcDbFaceRecord
 10
0.0
 20
0.0
 30
0.0
 70
   128
 71
   -63
 72
    61
 73
   -64
  0
VERTEX
  5
5BF
330
532
100
AcDbEntity
  8
0
 62
    33
100
AcDbFaceRecord
 10
0.0
 20
0.0
 30
0.0
 70
   128
 71
   -63
 72
   -64
 73
    65
  0
VERTEX
  5
5C0
330
532
100
AcDbEntity
  8
0
 62
    33
100
AcDbFaceRecord
 10
0.0
 20
0.0
 30
0.0
 70
   128
 71
   -65
 72
    64
 73
   -66
  0
VERTEX
  5
5C1
330
532
100
AcDbEntity
  8
0
 62
    33
100
AcDbFaceRecord
 10
0.0
 20
0.0
 30
0.0
 70
   128
 71
   -65
 72
   -66
 73
    67
  0
VERTEX
  5
5C2
330
532
100
AcDbEntity
  8
0
 62
    33
100
AcDbFaceRecord
 10
0.0
 20
0.0
 30
0.0
 70
   128
 71
   -67
 72
   -66
 73
    68
  0
VERTEX
  5
5C3
330
532
100
AcDbEntity
  8
0
 62
    33
100
AcDbFaceRecord
 10
0.0
 20
0.0
 30
0.0
 70
   128
 71
   -68
 72
    66
 73
   -69
  0
VERTEX
  5
5C4
330
532
100
AcDbEntity
  8
0
 62
    33
100
AcDbFaceRecord
 10
0.0
 20
0.0
 30
0.0
 70
   128
 71
   -68
 72
   -69
 73
    70
  0
VERTEX
  5
5C5
330
532
100
AcDbEntity
  8
0
 62
    33
100
AcDbFaceRecord
 10
0.0
 20
0.0
 30
0.0
 70
   128
 71
   -70
 72
   -69
 73
    71
  0
VERTEX
  5
5C6
330
532
100
AcDbEntity
  8
0
 62
    33
100
AcDbFaceRecord
 10
0.0
 20
0.0
 30
0.0
 70
   128
 71
   -71
 72
    69
 73
   -72
  0
VERTEX
  5
5C7
330
532
100
AcDbEntity
  8
0
 62
    33
100
AcDbFaceRecord
 10
0.0
 20
0.0
 30
0.0
 70
   128
 71
   -71
 72
    72
 73
    73
  0
VERTEX
  5
5C8
330
532
100
AcDbEntity
  8
0
 62
    33
100
AcDbFaceRecord
 10
0.0
 20
0.0
 30
0.0
 70
   128
 71
    74
 72
   -75
 73
    76
  0
VERTEX
  5
5C9
330
532
100
AcDbEntity
  8
0
 62
    33
100
AcDbFaceRecord
 10
0.0
 20
0.0
 30
0.0
 70
   128
 71
   -48
 72
    77
 73
   -49
  0
VERTEX
  5
5CA
330
532
100
AcDbEntity
  8
0
 62
    33
100
AcDbFaceRecord
 10
0.0
 20
0.0
 30
0.0
 70
   128
 71
   -77
 72
    48
 73
   -76
  0
VERTEX
  5
5CB
330
532
100
AcDbEntity
  8
0
 62
    33
100
AcDbFaceRecord
 10
0.0
 20
0.0
 30
0.0
 70
   128
 71
   -77
 72
   -76
 73
   -75
  0
VERTEX
  5
5CC
330
532
100
AcDbEntity
  8
0
 62
    33
100
AcDbFaceRecord
 10
0.0
 20
0.0
 30
0.0
 70
   128
 71
   -77
 72
    75
 73
    78
  0
SEQEND
  5
5CD
330
532
100
AcDbEntity
  8
0
 62
    33
  0
POLYLINE
  5
5CE
330
6B
100
AcDbEntity
  8
0
 62
    33
100
AcDbPolyFaceMesh
 66
     1
 10
0.0
 20
0.0
 30
0.0
 70
    64
 71
    61
 72
    59
  0
VERTEX
  5
5CF
330
5CE
100
AcDbEntity
  8
0
 62
    33
100
AcDbVertex
100
AcDbPolyFaceMeshVertex
 10
76.49079371269738
 20
-0.0000000000005414
 30
1518.676377689236
 70
   192
  0
VERTEX
  5
5D0
330
5CE
100
AcDbEntity
  8
0
 62
    33
100
AcDbVertex
100
AcDbPolyFaceMeshVertex
 10
68.99644388047861
 20
-0.0000000000004057
 30
1519.944590677049
 70
   192
  0
VERTEX
  5
5D1
330
5CE
100
AcDbEntity
  8
0
 62
    33
100
AcDbVertex
100
AcDbPolyFaceMeshVertex
 10
72.68570986630877
 20
-0.0000000000003158
 30
1518.445631734016
 70
   192
  0
VERTEX
  5
5D2
330
5CE
100
AcDbEntity
  8
0
 62
    33
100
AcDbVertex
100
AcDbPolyFaceMeshVertex
 10
79.60408457637335
 20
-0.0000000000004512
 30
1521.32825078963
 70
   192
  0
VERTEX
  5
5D3
330
5CE
100
AcDbEntity
  8
0
 62
    33
100
AcDbVertex
100
AcDbPolyFaceMeshVertex
 10
66.23075489278928
 20
-0.0000000000004505
 30
1522.668312373399
 70
   192
  0
VERTEX
  5
5D4
330
5CE
100
AcDbEntity
  8
0
 62
    33
100
AcDbVertex
100
AcDbPolyFaceMeshVertex
 10
85.96561413100659
 20
-0.0000000000004505
 30
1529.566519056526
 70
   192
  0
VERTEX
  5
5D5
330
5CE
100
AcDbEntity
  8
0
 62
    33
100
AcDbVertex
100
AcDbPolyFaceMeshVertex
 10
16.16748368045034
 20
-0.000000000000361
 30
1470.983961849052
 70
   192
  0
VERTEX
  5
5D6
330
5CE
100
AcDbEntity
  8
0
 62
    33
100
AcDbVertex
100
AcDbPolyFaceMeshVertex
 10
-15.97886830976099
 20
-0.0000000000004963
 30
1468.733299019767
 70
   192
  0
VERTEX
  5
5D7
330
5CE
100
AcDbEntity
  8
0
 62
    33
100
AcDbVertex
100
AcDbPolyFaceMeshVertex
 10
0.0943076853447926
 20
-0.0000000000004512
 30
1467.768866937652
 70
   192
  0
VERTEX
  5
5D8
330
5CE
100
AcDbEntity
  8
0
 62
    33
100
AcDbVertex
100
AcDbPolyFaceMeshVertex
 10
-32.05293407076084
 20
-0.0000000000004512
 30
1475.806270553942
 70
   192
  0
VERTEX
  5
5D9
330
5CE
100
AcDbEntity
  8
0
 62
    33
100
AcDbVertex
100
AcDbPolyFaceMeshVertex
 10
32.88514677156117
 20
-0.0000000000002252
 30
1482.235793052321
 70
   192
  0
VERTEX
  5
5DA
330
5CE
100
AcDbEntity
  8
0
 62
    33
100
AcDbVertex
100
AcDbPolyFaceMeshVertex
 10
-40.57734712236904
 20
-0.0000000000004512
 30
1482.035294487082
 70
   192
  0
VERTEX
  5
5DB
330
5CE
100
AcDbEntity
  8
0
 62
    33
100
AcDbVertex
100
AcDbPolyFaceMeshVertex
 10
-48.76955910166198
 20
-0.0000000000004512
 30
1488.021569926273
 70
   192
  0
VERTEX
  5
5DC
330
5CE
100
AcDbEntity
  8
0
 62
    33
100
AcDbVertex
100
AcDbPolyFaceMeshVertex
 10
44.13593991462033
 20
-0.0000000000004961
 30
1493.165380707587
 70
   192
  0
VERTEX
  5
5DD
330
5CE
100
AcDbEntity
  8
0
 62
    33
100
AcDbVertex
100
AcDbPolyFaceMeshVertex
 10
-62.91431581548584
 20
-0.0000000000004508
 30
1504.095635687271
 70
   192
  0
VERTEX
  5
5DE
330
5CE
100
AcDbEntity
  8
0
 62
    33
100
AcDbVertex
100
AcDbPolyFaceMeshVertex
 10
57.31663528211828
 20
-0.0000000000005869
 30
1504.738788134435
 70
   192
  0
VERTEX
  5
5DF
330
5CE
100
AcDbEntity
  8
0
 62
    33
100
AcDbVertex
100
AcDbPolyFaceMeshVertex
 10
-67.70184950334489
 20
-0.0000000000005414
 30
1517.914738083833
 70
   192
  0
VERTEX
  5
5E0
330
5CE
100
AcDbEntity
  8
0
 62
    33
100
AcDbVertex
100
AcDbPolyFaceMeshVertex
 10
63.42458155691484
 20
-0.0000000000004061
 30
1514.060865407582
 70
   192
  0
VERTEX
  5
5E1
330
5CE
100
AcDbEntity
  8
0
 62
    33
100
AcDbVertex
100
AcDbPolyFaceMeshVertex
 10
-70.93807635473206
 20
-0.0000000000004505
 30
1518.503763105768
 70
   192
  0
VERTEX
  5
5E2
330
5CE
100
AcDbEntity
  8
0
 62
    33
100
AcDbVertex
100
AcDbPolyFaceMeshVertex
 10
-79.61670459208071
 20
-0.000000000000361
 30
1530.566096891461
 70
   192
  0
VERTEX
  5
5E3
330
5CE
100
AcDbEntity
  8
0
 62
    33
100
AcDbVertex
100
AcDbPolyFaceMeshVertex
 10
88.32542157664207
 20
-0.0000000000004505
 30
1562.446557173633
 70
   192
  0
VERTEX
  5
5E4
330
5CE
100
AcDbEntity
  8
0
 62
    33
100
AcDbVertex
100
AcDbPolyFaceMeshVertex
 10
-81.67577116548895
 20
-0.0000000000002711
 30
1538.950509206474
 70
   192
  0
VERTEX
  5
5E5
330
5CE
100
AcDbEntity
  8
0
 62
    33
100
AcDbVertex
100
AcDbPolyFaceMeshVertex
 10
-82.1173916376254
 20
-0.0000000000005411
 30
1548.690908716188
 70
   192
  0
VERTEX
  5
5E6
330
5CE
100
AcDbEntity
  8
0
 62
    33
100
AcDbVertex
100
AcDbPolyFaceMeshVertex
 10
-82.1173916376254
 20
-0.0000000000005411
 30
1562.632814834144
 70
   192
  0
VERTEX
  5
5E7
330
5CE
100
AcDbEntity
  8
0
 62
    33
100
AcDbVertex
100
AcDbPolyFaceMeshVertex
 10
75.77112139863563
 20
-0.000000000000632
 30
1564.370082742499
 70
   192
  0
VERTEX
  5
5E8
330
5CE
100
AcDbEntity
  8
0
 62
    33
100
AcDbVertex
100
AcDbPolyFaceMeshVertex
 10
86.839067650443
 20
-0.0000000000005411
 30
1565.374554289849
 70
   192
  0
VERTEX
  5
5E9
330
5CE
100
AcDbEntity
  8
0
 62
    33
100
AcDbVertex
100
AcDbPolyFaceMeshVertex
 10
-74.8095960545499
 20
-0.0000000000004508
 30
1563.957083073291
 70
   192
  0
VERTEX
  5
5EA
330
5CE
100
AcDbEntity
  8
0
 62
    33
100
AcDbVertex
100
AcDbPolyFaceMeshVertex
 10
79.63834056329846
 20
-0.0000000000005414
 30
1566.83124935291
 70
   192
  0
VERTEX
  5
5EB
330
5CE
100
AcDbEntity
  8
0
 62
    33
100
AcDbVertex
100
AcDbPolyFaceMeshVertex
 10
82.2750134963344
 20
-0.0000000000004064
 30
1567.797831702602
 70
   192
  0
VERTEX
  5
5EC
330
5CE
100
AcDbEntity
  8
0
 62
    33
100
AcDbVertex
100
AcDbPolyFaceMeshVertex
 10
51.06128445752161
 20
-0.000000000000451
 30
1620.936727022431
 70
   192
  0
VERTEX
  5
5ED
330
5CE
100
AcDbEntity
  8
0
 62
    33
100
AcDbVertex
100
AcDbPolyFaceMeshVertex
 10
47.39455920767593
 20
-0.0000000000004963
 30
1598.412896588962
 70
   192
  0
VERTEX
  5
5EE
330
5CE
100
AcDbEntity
  8
0
 62
    33
100
AcDbVertex
100
AcDbPolyFaceMeshVertex
 10
61.53738809539585
 20
-0.0000000000005414
 30
1594.222544110399
 70
   192
  0
VERTEX
  5
5EF
330
5CE
100
AcDbEntity
  8
0
 62
    33
100
AcDbVertex
100
AcDbPolyFaceMeshVertex
 10
40.32284817518504
 20
-0.0000000000005414
 30
1622.770682824617
 70
   192
  0
VERTEX
  5
5F0
330
5CE
100
AcDbEntity
  8
0
 62
    33
100
AcDbVertex
100
AcDbPolyFaceMeshVertex
 10
32.98954596980996
 20
-0.0000000000004514
 30
1648.437500058481
 70
   192
  0
VERTEX
  5
5F1
330
5CE
100
AcDbEntity
  8
0
 62
    33
100
AcDbVertex
100
AcDbPolyFaceMeshVertex
 10
-14.4372006038078
 20
-0.0000000000003609
 30
1609.468163676776
 70
   192
  0
VERTEX
  5
5F2
330
5CE
100
AcDbEntity
  8
0
 62
    33
100
AcDbVertex
100
AcDbPolyFaceMeshVertex
 10
-41.77807529396155
 20
-0.0000000000005414
 30
1600.600756775549
 70
   192
  0
VERTEX
  5
5F3
330
5CE
100
AcDbEntity
  8
0
 62
    33
100
AcDbVertex
100
AcDbPolyFaceMeshVertex
 10
-15.66937807290798
 20
-0.000000000000767
 30
1600.354439917181
 70
   192
  0
VERTEX
  5
5F4
330
5CE
100
AcDbEntity
  8
0
 62
    33
100
AcDbVertex
100
AcDbPolyFaceMeshVertex
 10
-34.14284586183316
 20
-0.0000000000004965
 30
1603.556484928799
 70
   192
  0
VERTEX
  5
5F5
330
5CE
100
AcDbEntity
  8
0
 62
    33
100
AcDbVertex
100
AcDbPolyFaceMeshVertex
 10
-27.98418293106985
 20
-0.0000000000004513
 30
1614.148035691441
 70
   192
  0
VERTEX
  5
5F6
330
5CE
100
AcDbEntity
  8
0
 62
    33
100
AcDbVertex
100
AcDbPolyFaceMeshVertex
 10
-2.122099157014941
 20
-0.0000000000004963
 30
1653.5577320436
 70
   192
  0
VERTEX
  5
5F7
330
5CE
100
AcDbEntity
  8
0
 62
    33
100
AcDbVertex
100
AcDbPolyFaceMeshVertex
 10
-14.4372006038078
 20
-0.0000000000003609
 30
1641.488613792965
 70
   192
  0
VERTEX
  5
5F8
330
5CE
100
AcDbEntity
  8
0
 62
    33
100
AcDbVertex
100
AcDbPolyFaceMeshVertex
 10
-74.80959605454996
 20
-0.0000000000002711
 30
1571.605955582464
 70
   192
  0
VERTEX
  5
5F9
330
5CE
100
AcDbEntity
  8
0
 62
    33
100
AcDbVertex
100
AcDbPolyFaceMeshVertex
 10
74.18971081607631
 20
-0.0000000000004505
 30
1578.2566590527
 70
   192
  0
VERTEX
  5
5FA
330
5CE
100
AcDbEntity
  8
0
 62
    33
100
AcDbVertex
100
AcDbPolyFaceMeshVertex
 10
-69.98662002523997
 20
-0.0000000000004508
 30
1593.143999552358
 70
   192
  0
VERTEX
  5
5FB
330
5CE
100
AcDbEntity
  8
0
 62
    33
100
AcDbVertex
100
AcDbPolyFaceMeshVertex
 10
68.87009712350718
 20
-0.0000000000004508
 30
1582.698296249203
 70
   192
  0
VERTEX
  5
5FC
330
5CE
100
AcDbEntity
  8
0
 62
    33
100
AcDbVertex
100
AcDbPolyFaceMeshVertex
 10
-67.14797023422855
 20
-0.0000000000004061
 30
1593.457790324366
 70
   192
  0
VERTEX
  5
5FD
330
5CE
100
AcDbEntity
  8
0
 62
    33
100
AcDbVertex
100
AcDbPolyFaceMeshVertex
 10
-43.74861016090051
 20
-0.0000000000004965
 30
1605.280925378847
 70
   192
  0
VERTEX
  5
5FE
330
5CE
100
AcDbEntity
  8
0
 62
    33
100
AcDbVertex
100
AcDbPolyFaceMeshVertex
 10
-49.90667991440338
 20
-0.0000000000004512
 30
1620.552348156155
 70
   192
  0
VERTEX
  5
5FF
330
5CE
100
AcDbEntity
  8
0
 62
    33
100
AcDbVertex
100
AcDbPolyFaceMeshVertex
 10
-41.039273013175
 20
-0.0000000000004512
 30
1617.350006555903
 70
   192
  0
VERTEX
  5
600
330
5CE
100
AcDbEntity
  8
0
 62
    33
100
AcDbVertex
100
AcDbPolyFaceMeshVertex
 10
-34.38856954293841
 20
-0.0000000000004514
 30
1639.764469931549
 70
   192
  0
VERTEX
  5
601
330
5CE
100
AcDbEntity
  8
0
 62
    33
100
AcDbVertex
100
AcDbPolyFaceMeshVertex
 10
38.75166990040926
 20
-0.0000000000006315
 30
1602.342028630425
 70
   192
  0
VERTEX
  5
602
330
5CE
100
AcDbEntity
  8
0
 62
    33
100
AcDbVertex
100
AcDbPolyFaceMeshVertex
 10
37.17989844837015
 20
-0.0000000000003611
 30
1616.22296975663
 70
   192
  0
VERTEX
  5
603
330
5CE
100
AcDbEntity
  8
0
 62
    33
100
AcDbVertex
100
AcDbPolyFaceMeshVertex
 10
32.27743666584858
 20
-0.0000000000006318
 30
1621.150419131345
 70
   192
  0
VERTEX
  5
604
330
5CE
100
AcDbEntity
  8
0
 62
    33
100
AcDbVertex
100
AcDbPolyFaceMeshVertex
 10
11.17886290051015
 20
-0.0000000000005415
 30
1603.556484928799
 70
   192
  0
VERTEX
  5
605
330
5CE
100
AcDbEntity
  8
0
 62
    33
100
AcDbVertex
100
AcDbPolyFaceMeshVertex
 10
25.80809714370568
 20
-0.0000000000005413
 30
1631.600200528186
 70
   192
  0
VERTEX
  5
606
330
5CE
100
AcDbEntity
  8
0
 62
    33
100
AcDbVertex
100
AcDbPolyFaceMeshVertex
 10
7.977188624680889
 20
-0.0000000000004512
 30
1655.775102799013
 70
   192
  0
VERTEX
  5
607
330
5CE
100
AcDbEntity
  8
0
 62
    33
100
AcDbVertex
100
AcDbPolyFaceMeshVertex
 10
-7.540625158150931
 20
-0.000000000000361
 30
1604.049341087009
 70
   192
  0
VERTEX
  5
608
330
5CE
100
AcDbEntity
  8
0
 62
    33
100
AcDbVertex
100
AcDbPolyFaceMeshVertex
 10
-8.033555463517523
 20
-0.0000000000004512
 30
1612.917118724026
 70
   192
  0
VERTEX
  5
609
330
5CE
100
AcDbEntity
  8
0
 62
    33
100
AcDbVertex
100
AcDbPolyFaceMeshVertex
 10
-66.4093162477581
 20
-0.0000000000002718
 30
1604.541678215114
 70
   192
  0
VERTEX
  5
60A
330
5CE
100
AcDbEntity
  8
0
 62
    33
100
AcDbVertex
100
AcDbPolyFaceMeshVertex
 10
68.34676648342425
 20
-0.0000000000004956
 30
1595.270243450776
 70
   192
  0
VERTEX
  5
60B
330
5CE
100
AcDbEntity
  8
0
 62
    33
100
AcDbVertex
100
AcDbPolyFaceMeshVertex
 10
-77.99851701922968
 20
-0.0000000000005414
 30
1566.163257607868
 70
   192
  0
VERTEX
  5
60C
330
5CE
100
AcDbEntity
  8
0
 62
    33
100
AcDbFaceRecord
 10
0.0
 20
0.0
 30
0.0
 70
   128
 71
    -1
 72
     2
 73
     3
  0
VERTEX
  5
60D
330
5CE
100
AcDbEntity
  8
0
 62
    33
100
AcDbFaceRecord
 10
0.0
 20
0.0
 30
0.0
 70
   128
 71
    -2
 72
     1
 73
    -4
  0
VERTEX
  5
60E
330
5CE
100
AcDbEntity
  8
0
 62
    33
100
AcDbFaceRecord
 10
0.0
 20
0.0
 30
0.0
 70
   128
 71
    -2
 72
    -4
 73
     5
  0
VERTEX
  5
60F
330
5CE
100
AcDbEntity
  8
0
 62
    33
100
AcDbFaceRecord
 10
0.0
 20
0.0
 30
0.0
 70
   128
 71
    -5
 72
     4
 73
    -6
  0
VERTEX
  5
610
330
5CE
100
AcDbEntity
  8
0
 62
    33
100
AcDbFaceRecord
 10
0.0
 20
0.0
 30
0.0
 70
   128
 71
    -7
 72
     8
 73
     9
  0
VERTEX
  5
611
330
5CE
100
AcDbEntity
  8
0
 62
    33
100
AcDbFaceRecord
 10
0.0
 20
0.0
 30
0.0
 70
   128
 71
    -8
 72
    -7
 73
    10
  0
VERTEX
  5
612
330
5CE
100
AcDbEntity
  8
0
 62
    33
100
AcDbFaceRecord
 10
0.0
 20
0.0
 30
0.0
 70
   128
 71
   -10
 72
     7
 73
   -11
  0
VERTEX
  5
613
330
5CE
100
AcDbEntity
  8
0
 62
    33
100
AcDbFaceRecord
 10
0.0
 20
0.0
 30
0.0
 70
   128
 71
   -10
 72
   -11
 73
    12
  0
VERTEX
  5
614
330
5CE
100
AcDbEntity
  8
0
 62
    33
100
AcDbFaceRecord
 10
0.0
 20
0.0
 30
0.0
 70
   128
 71
   -12
 72
   -11
 73
    13
  0
VERTEX
  5
615
330
5CE
100
AcDbEntity
  8
0
 62
    33
100
AcDbFaceRecord
 10
0.0
 20
0.0
 30
0.0
 70
   128
 71
   -13
 72
    11
 73
   -14
  0
VERTEX
  5
616
330
5CE
100
AcDbEntity
  8
0
 62
    33
100
AcDbFaceRecord
 10
0.0
 20
0.0
 30
0.0
 70
   128
 71
   -13
 72
   -14
 73
    15
  0
VERTEX
  5
617
330
5CE
100
AcDbEntity
  8
0
 62
    33
100
AcDbFaceRecord
 10
0.0
 20
0.0
 30
0.0
 70
   128
 71
   -15
 72
    14
 73
   -16
  0
VERTEX
  5
618
330
5CE
100
AcDbEntity
  8
0
 62
    33
100
AcDbFaceRecord
 10
0.0
 20
0.0
 30
0.0
 70
   128
 71
   -15
 72
   -16
 73
    17
  0
VERTEX
  5
619
330
5CE
100
AcDbEntity
  8
0
 62
    33
100
AcDbFaceRecord
 10
0.0
 20
0.0
 30
0.0
 70
   128
 71
   -17
 72
    16
 73
   -18
  0
VERTEX
  5
61A
330
5CE
100
AcDbEntity
  8
0
 62
    33
100
AcDbFaceRecord
 10
0.0
 20
0.0
 30
0.0
 70
   128
 71
   -17
 72
    18
 73
    -5
  0
VERTEX
  5
61B
330
5CE
100
AcDbEntity
  8
0
 62
    33
100
AcDbFaceRecord
 10
0.0
 20
0.0
 30
0.0
 70
   128
 71
   -17
 72
    -5
 73
    19
  0
VERTEX
  5
61C
330
5CE
100
AcDbEntity
  8
0
 62
    33
100
AcDbFaceRecord
 10
0.0
 20
0.0
 30
0.0
 70
   128
 71
   -19
 72
    -5
 73
    20
  0
VERTEX
  5
61D
330
5CE
100
AcDbEntity
  8
0
 62
    33
100
AcDbFaceRecord
 10
0.0
 20
0.0
 30
0.0
 70
   128
 71
   -20
 72
    -5
 73
    -6
  0
VERTEX
  5
61E
330
5CE
100
AcDbEntity
  8
0
 62
    33
100
AcDbFaceRecord
 10
0.0
 20
0.0
 30
0.0
 70
   128
 71
   -20
 72
     6
 73
   -21
  0
VERTEX
  5
61F
330
5CE
100
AcDbEntity
  8
0
 62
    33
100
AcDbFaceRecord
 10
0.0
 20
0.0
 30
0.0
 70
   128
 71
   -20
 72
   -21
 73
    22
  0
VERTEX
  5
620
330
5CE
100
AcDbEntity
  8
0
 62
    33
100
AcDbFaceRecord
 10
0.0
 20
0.0
 30
0.0
 70
   128
 71
   -22
 72
   -21
 73
    23
  0
VERTEX
  5
621
330
5CE
100
AcDbEntity
  8
0
 62
    33
100
AcDbFaceRecord
 10
0.0
 20
0.0
 30
0.0
 70
   128
 71
   -23
 72
   -21
 73
    24
  0
VERTEX
  5
622
330
5CE
100
AcDbEntity
  8
0
 62
    33
100
AcDbFaceRecord
 10
0.0
 20
0.0
 30
0.0
 70
   128
 71
   -24
 72
   -21
 73
   -25
  0
VERTEX
  5
623
330
5CE
100
AcDbEntity
  8
0
 62
    33
100
AcDbFaceRecord
 10
0.0
 20
0.0
 30
0.0
 70
   128
 71
   -25
 72
    21
 73
   -26
  0
VERTEX
  5
624
330
5CE
100
AcDbEntity
  8
0
 62
    33
100
AcDbFaceRecord
 10
0.0
 20
0.0
 30
0.0
 70
   128
 71
   -24
 72
   -25
 73
   -27
  0
VERTEX
  5
625
330
5CE
100
AcDbEntity
  8
0
 62
    33
100
AcDbFaceRecord
 10
0.0
 20
0.0
 30
0.0
 70
   128
 71
   -25
 72
   -26
 73
    28
  0
VERTEX
  5
626
330
5CE
100
AcDbEntity
  8
0
 62
    33
100
AcDbFaceRecord
 10
0.0
 20
0.0
 30
0.0
 70
   128
 71
   -28
 72
    26
 73
    29
  0
VERTEX
  5
627
330
5CE
100
AcDbEntity
  8
0
 62
    33
100
AcDbFaceRecord
 10
0.0
 20
0.0
 30
0.0
 70
   128
 71
   -30
 72
   -31
 73
    32
  0
VERTEX
  5
628
330
5CE
100
AcDbEntity
  8
0
 62
    33
100
AcDbFaceRecord
 10
0.0
 20
0.0
 30
0.0
 70
   128
 71
   -31
 72
   -30
 73
    33
  0
VERTEX
  5
629
330
5CE
100
AcDbEntity
  8
0
 62
    33
100
AcDbFaceRecord
 10
0.0
 20
0.0
 30
0.0
 70
   128
 71
   -33
 72
    30
 73
    34
  0
VERTEX
  5
62A
330
5CE
100
AcDbEntity
  8
0
 62
    33
100
AcDbFaceRecord
 10
0.0
 20
0.0
 30
0.0
 70
   128
 71
   -35
 72
   -36
 73
    37
  0
VERTEX
  5
62B
330
5CE
100
AcDbEntity
  8
0
 62
    33
100
AcDbFaceRecord
 10
0.0
 20
0.0
 30
0.0
 70
   128
 71
   -36
 72
   -35
 73
    38
  0
VERTEX
  5
62C
330
5CE
100
AcDbEntity
  8
0
 62
    33
100
AcDbFaceRecord
 10
0.0
 20
0.0
 30
0.0
 70
   128
 71
   -38
 72
   -35
 73
    39
  0
VERTEX
  5
62D
330
5CE
100
AcDbEntity
  8
0
 62
    33
100
AcDbFaceRecord
 10
0.0
 20
0.0
 30
0.0
 70
   128
 71
   -39
 72
    35
 73
   -40
  0
VERTEX
  5
62E
330
5CE
100
AcDbEntity
  8
0
 62
    33
100
AcDbFaceRecord
 10
0.0
 20
0.0
 30
0.0
 70
   128
 71
   -39
 72
    40
 73
    41
  0
VERTEX
  5
62F
330
5CE
100
AcDbEntity
  8
0
 62
    33
100
AcDbFaceRecord
 10
0.0
 20
0.0
 30
0.0
 70
   128
 71
   -25
 72
    42
 73
   -27
  0
VERTEX
  5
630
330
5CE
100
AcDbEntity
  8
0
 62
    33
100
AcDbFaceRecord
 10
0.0
 20
0.0
 30
0.0
 70
   128
 71
   -42
 72
    25
 73
   -43
  0
VERTEX
  5
631
330
5CE
100
AcDbEntity
  8
0
 62
    33
100
AcDbFaceRecord
 10
0.0
 20
0.0
 30
0.0
 70
   128
 71
   -42
 72
   -43
 73
    44
  0
VERTEX
  5
632
330
5CE
100
AcDbEntity
  8
0
 62
    33
100
AcDbFaceRecord
 10
0.0
 20
0.0
 30
0.0
 70
   128
 71
   -44
 72
   -43
 73
   -45
  0
VERTEX
  5
633
330
5CE
100
AcDbEntity
  8
0
 62
    33
100
AcDbFaceRecord
 10
0.0
 20
0.0
 30
0.0
 70
   128
 71
   -44
 72
    45
 73
   -32
  0
VERTEX
  5
634
330
5CE
100
AcDbEntity
  8
0
 62
    33
100
AcDbFaceRecord
 10
0.0
 20
0.0
 30
0.0
 70
   128
 71
   -44
 72
   -32
 73
   -46
  0
VERTEX
  5
635
330
5CE
100
AcDbEntity
  8
0
 62
    33
100
AcDbFaceRecord
 10
0.0
 20
0.0
 30
0.0
 70
   128
 71
   -46
 72
   -32
 73
   -36
  0
VERTEX
  5
636
330
5CE
100
AcDbEntity
  8
0
 62
    33
100
AcDbFaceRecord
 10
0.0
 20
0.0
 30
0.0
 70
   128
 71
   -46
 72
    36
 73
   -47
  0
VERTEX
  5
637
330
5CE
100
AcDbEntity
  8
0
 62
    33
100
AcDbFaceRecord
 10
0.0
 20
0.0
 30
0.0
 70
   128
 71
   -46
 72
   -47
 73
    48
  0
VERTEX
  5
638
330
5CE
100
AcDbEntity
  8
0
 62
    33
100
AcDbFaceRecord
 10
0.0
 20
0.0
 30
0.0
 70
   128
 71
   -36
 72
   -32
 73
   -31
  0
VERTEX
  5
639
330
5CE
100
AcDbEntity
  8
0
 62
    33
100
AcDbFaceRecord
 10
0.0
 20
0.0
 30
0.0
 70
   128
 71
   -36
 72
   -31
 73
   -37
  0
VERTEX
  5
63A
330
5CE
100
AcDbEntity
  8
0
 62
    33
100
AcDbFaceRecord
 10
0.0
 20
0.0
 30
0.0
 70
   128
 71
   -48
 72
    47
 73
   -49
  0
VERTEX
  5
63B
330
5CE
100
AcDbEntity
  8
0
 62
    33
100
AcDbFaceRecord
 10
0.0
 20
0.0
 30
0.0
 70
   128
 71
   -48
 72
    49
 73
    50
  0
VERTEX
  5
63C
330
5CE
100
AcDbEntity
  8
0
 62
    33
100
AcDbFaceRecord
 10
0.0
 20
0.0
 30
0.0
 70
   128
 71
   -31
 72
   -51
 73
   -37
  0
VERTEX
  5
63D
330
5CE
100
AcDbEntity
  8
0
 62
    33
100
AcDbFaceRecord
 10
0.0
 20
0.0
 30
0.0
 70
   128
 71
   -51
 72
    31
 73
    52
  0
VERTEX
  5
63E
330
5CE
100
AcDbEntity
  8
0
 62
    33
100
AcDbFaceRecord
 10
0.0
 20
0.0
 30
0.0
 70
   128
 71
   -53
 72
   -54
 73
    51
  0
VERTEX
  5
63F
330
5CE
100
AcDbEntity
  8
0
 62
    33
100
AcDbFaceRecord
 10
0.0
 20
0.0
 30
0.0
 70
   128
 71
   -54
 72
    53
 73
    55
  0
VERTEX
  5
640
330
5CE
100
AcDbEntity
  8
0
 62
    33
100
AcDbFaceRecord
 10
0.0
 20
0.0
 30
0.0
 70
   128
 71
    56
 72
   -57
 73
    54
  0
VERTEX
  5
641
330
5CE
100
AcDbEntity
  8
0
 62
    33
100
AcDbFaceRecord
 10
0.0
 20
0.0
 30
0.0
 70
   128
 71
   -37
 72
    57
 73
    58
  0
VERTEX
  5
642
330
5CE
100
AcDbEntity
  8
0
 62
    33
100
AcDbFaceRecord
 10
0.0
 20
0.0
 30
0.0
 70
   128
 71
   -57
 72
   -37
 73
   -51
  0
VERTEX
  5
643
330
5CE
100
AcDbEntity
  8
0
 62
    33
100
AcDbFaceRecord
 10
0.0
 20
0.0
 30
0.0
 70
   128
 71
   -57
 72
   -51
 73
   -54
  0
VERTEX
  5
644
330
5CE
100
AcDbEntity
  8
0
 62
    33
100
AcDbFaceRecord
 10
0.0
 20
0.0
 30
0.0
 70
   128
 71
    59
 72
   -44
 73
    46
  0
VERTEX
  5
645
330
5CE
100
AcDbEntity
  8
0
 62
    33
100
AcDbFaceRecord
 10
0.0
 20
0.0
 30
0.0
 70
   128
 71
    60
 72
   -45
 73
    43
  0
VERTEX
  5
646
330
5CE
100
AcDbEntity
  8
0
 62
    33
100
AcDbFaceRecord
 10
0.0
 20
0.0
 30
0.0
 70
   128
 71
    61
 72
   -24
 73
    27
  0
SEQEND
  5
647
330
5CE
100
AcDbEntity
  8
0
 62
    33
  0
POLYLINE
  5
648
330
6B
100
AcDbEntity
  8
0
 62
   250
100
AcDbPolyFaceMesh
 66
     1
 10
0.0
 20
0.0
 30
0.0
 70
    64
 71
    12
 72
    10
  0
VERTEX
  5
649
330
648
100
AcDbEntity
  8
0
 62
   250
100
AcDbVertex
100
AcDbPolyFaceMeshVertex
 10
-97.91815097480128
 20
0.0
 30
36.78054935564339
 70
   192
  0
VERTEX
  5
64A
330
648
100
AcDbEntity
  8
0
 62
   250
100
AcDbVertex
100
AcDbPolyFaceMeshVertex
 10
-127.6527925088837
 20
0.0
 30
43.23179697127159
 70
   192
  0
VERTEX
  5
64B
330
648
100
AcDbEntity
  8
0
 62
   250
100
AcDbVertex
100
AcDbPolyFaceMeshVertex
 10
-125.8437501517349
 20
0.0
 30
35.49795181920757
 70
   192
  0
VERTEX
  5
64C
330
648
100
AcDbEntity
  8
0
 62
   250
100
AcDbVertex
100
AcDbPolyFaceMeshVertex
 10
-88.03122065317949
 20
0.0000000000000004
 30
42.32868458869621
 70
   192
  0
VERTEX
  5
64D
330
648
100
AcDbEntity
  8
0
 62
   250
100
AcDbVertex
100
AcDbPolyFaceMeshVertex
 10
-70.56704397686528
 20
0.0
 30
55.94314082959836
 70
   192
  0
VERTEX
  5
64E
330
648
100
AcDbEntity
  8
0
 62
   250
100
AcDbVertex
100
AcDbPolyFaceMeshVertex
 10
-134.7431886251524
 20
-0.0000000000000007
 30
56.23112839067579
 70
   192
  0
VERTEX
  5
64F
330
648
100
AcDbEntity
  8
0
 62
   250
100
AcDbVertex
100
AcDbPolyFaceMeshVertex
 10
-72.82438264168735
 20
-0.0000000000000906
 30
64.83362759861546
 70
   192
  0
VERTEX
  5
650
330
648
100
AcDbEntity
  8
0
 62
   250
100
AcDbVertex
100
AcDbPolyFaceMeshVertex
 10
-159.5139745300166
 20
0.0000000000000007
 30
67.51276675139876
 70
   192
  0
VERTEX
  5
651
330
648
100
AcDbEntity
  8
0
 62
   250
100
AcDbVertex
100
AcDbPolyFaceMeshVertex
 10
-76.96164316389856
 20
-0.0000000000000451
 30
75.46504943047965
 70
   192
  0
VERTEX
  5
652
330
648
100
AcDbEntity
  8
0
 62
   250
100
AcDbVertex
100
AcDbPolyFaceMeshVertex
 10
-110.6695342983655
 20
-0.0000000000000458
 30
92.67697747579848
 70
   192
  0
VERTEX
  5
653
330
648
100
AcDbEntity
  8
0
 62
   250
100
AcDbVertex
100
AcDbPolyFaceMeshVertex
 10
-102.2490864646394
 20
-0.0000000000000448
 30
92.67697747579848
 70
   192
  0
VERTEX
  5
654
330
648
100
AcDbEntity
  8
0
 62
   250
100
AcDbVertex
100
AcDbPolyFaceMeshVertex
 10
-109.1212707245686
 20
-0.0000000000000451
 30
92.67697747579848
 70
   192
  0
VERTEX
  5
655
330
648
100
AcDbEntity
  8
0
 62
   250
100
AcDbFaceRecord
 10
0.0
 20
0.0
 30
0.0
 70
   128
 71
    -1
 72
     2
 73
     3
  0
VERTEX
  5
656
330
648
100
AcDbEntity
  8
0
 62
   250
100
AcDbFaceRecord
 10
0.0
 20
0.0
 30
0.0
 70
   128
 71
    -2
 72
     1
 73
    -4
  0
VERTEX
  5
657
330
648
100
AcDbEntity
  8
0
 62
   250
100
AcDbFaceRecord
 10
0.0
 20
0.0
 30
0.0
 70
   128
 71
    -2
 72
     4
 73
    -5
  0
VERTEX
  5
658
330
648
100
AcDbEntity
  8
0
 62
   250
100
AcDbFaceRecord
 10
0.0
 20
0.0
 30
0.0
 70
   128
 71
    -2
 72
    -5
 73
     6
  0
VERTEX
  5
659
330
648
100
AcDbEntity
  8
0
 62
   250
100
AcDbFaceRecord
 10
0.0
 20
0.0
 30
0.0
 70
   128
 71
    -6
 72
     5
 73
    -7
  0
VERTEX
  5
65A
330
648
100
AcDbEntity
  8
0
 62
   250
100
AcDbFaceRecord
 10
0.0
 20
0.0
 30
0.0
 70
   128
 71
    -6
 72
    -7
 73
     8
  0
VERTEX
  5
65B
330
648
100
AcDbEntity
  8
0
 62
   250
100
AcDbFaceRecord
 10
0.0
 20
0.0
 30
0.0
 70
   128
 71
    -8
 72
     7
 73
    -9
  0
VERTEX
  5
65C
330
648
100
AcDbEntity
  8
0
 62
   250
100
AcDbFaceRecord
 10
0.0
 20
0.0
 30
0.0
 70
   128
 71
    -8
 72
    -9
 73
    10
  0
VERTEX
  5
65D
330
648
100
AcDbEntity
  8
0
 62
   250
100
AcDbFaceRecord
 10
0.0
 20
0.0
 30
0.0
 70
   128
 71
   -10
 72
     9
 73
   -11
  0
VERTEX
  5
65E
330
648
100
AcDbEntity
  8
0
 62
   250
100
AcDbFaceRecord
 10
0.0
 20
0.0
 30
0.0
 70
   128
 71
   -10
 72
    11
 73
    12
  0
SEQEND
  5
65F
330
648
100
AcDbEntity
  8
0
 62
   250
  0
POLYLINE
  5
660
330
6B
100
AcDbEntity
  8
0
 62
    33
100
AcDbPolyFaceMesh
 66
     1
 10
0.0
 20
0.0
 30
0.0
 70
    64
 71
    10
 72
     8
  0
VERTEX
  5
661
330
660
100
AcDbEntity
  8
0
 62
    33
100
AcDbVertex
100
AcDbPolyFaceMeshVertex
 10
-149.0147369788937
 20
-0.0000000000001805
 30
761.5380237971979
 70
   192
  0
VERTEX
  5
662
330
660
100
AcDbEntity
  8
0
 62
    33
100
AcDbVertex
100
AcDbPolyFaceMeshVertex
 10
-153.3481934720983
 20
-0.0000000000002707
 30
762.3569050084599
 70
   192
  0
VERTEX
  5
663
330
660
100
AcDbEntity
  8
0
 62
    33
100
AcDbVertex
100
AcDbPolyFaceMeshVertex
 10
-153.7170025214628
 20
-0.0000000000002707
 30
761.2973668808156
 70
   192
  0
VERTEX
  5
664
330
660
100
AcDbEntity
  8
0
 62
    33
100
AcDbVertex
100
AcDbPolyFaceMeshVertex
 10
-146.6875542827107
 20
-0.0000000000002714
 30
763.2736604680794
 70
   192
  0
VERTEX
  5
665
330
660
100
AcDbEntity
  8
0
 62
    33
100
AcDbVertex
100
AcDbPolyFaceMeshVertex
 10
-154.1480930109512
 20
-0.0000000000003165
 30
767.5561037166852
 70
   192
  0
VERTEX
  5
666
330
660
100
AcDbEntity
  8
0
 62
    33
100
AcDbVertex
100
AcDbPolyFaceMeshVertex
 10
-145.6524181326983
 20
-0.0000000000001347
 30
767.8187629080326
 70
   192
  0
VERTEX
  5
667
330
660
100
AcDbEntity
  8
0
 62
    33
100
AcDbVertex
100
AcDbPolyFaceMeshVertex
 10
-157.3481360493084
 20
-0.0000000000002256
 30
771.4221365268229
 70
   192
  0
VERTEX
  5
668
330
660
100
AcDbEntity
  8
0
 62
    33
100
AcDbVertex
100
AcDbPolyFaceMeshVertex
 10
-146.3887412365879
 20
-0.0000000000001805
 30
768.8900110863514
 70
   192
  0
VERTEX
  5
669
330
660
100
AcDbEntity
  8
0
 62
    33
100
AcDbVertex
100
AcDbPolyFaceMeshVertex
 10
-147.5402465979498
 20
-0.0000000000002249
 30
770.5652919707443
 70
   192
  0
VERTEX
  5
66A
330
660
100
AcDbEntity
  8
0
 62
    33
100
AcDbVertex
100
AcDbPolyFaceMeshVertex
 10
-167.4797519918251
 20
-0.0000000000002707
 30
777.1550464772289
 70
   192
  0
VERTEX
  5
66B
330
660
100
AcDbEntity
  8
0
 62
    33
100
AcDbFaceRecord
 10
0.0
 20
0.0
 30
0.0
 70
   128
 71
    -1
 72
     2
 73
     3
  0
VERTEX
  5
66C
330
660
100
AcDbEntity
  8
0
 62
    33
100
AcDbFaceRecord
 10
0.0
 20
0.0
 30
0.0
 70
   128
 71
    -2
 72
     1
 73
    -4
  0
VERTEX
  5
66D
330
660
100
AcDbEntity
  8
0
 62
    33
100
AcDbFaceRecord
 10
0.0
 20
0.0
 30
0.0
 70
   128
 71
    -2
 72
    -4
 73
     5
  0
VERTEX
  5
66E
330
660
100
AcDbEntity
  8
0
 62
    33
100
AcDbFaceRecord
 10
0.0
 20
0.0
 30
0.0
 70
   128
 71
    -5
 72
     4
 73
    -6
  0
VERTEX
  5
66F
330
660
100
AcDbEntity
  8
0
 62
    33
100
AcDbFaceRecord
 10
0.0
 20
0.0
 30
0.0
 70
   128
 71
    -5
 72
    -6
 73
     7
  0
VERTEX
  5
670
330
660
100
AcDbEntity
  8
0
 62
    33
100
AcDbFaceRecord
 10
0.0
 20
0.0
 30
0.0
 70
   128
 71
    -7
 72
     6
 73
    -8
  0
VERTEX
  5
671
330
660
100
AcDbEntity
  8
0
 62
    33
100
AcDbFaceRecord
 10
0.0
 20
0.0
 30
0.0
 70
   128
 71
    -7
 72
     8
 73
    -9
  0
VERTEX
  5
672
330
660
100
AcDbEntity
  8
0
 62
    33
100
AcDbFaceRecord
 10
0.0
 20
0.0
 30
0.0
 70
   128
 71
    -7
 72
     9
 73
    10
  0
SEQEND
  5
673
330
660
100
AcDbEntity
  8
0
 62
    33
  0
POLYLINE
  5
674
330
6B
100
AcDbEntity
  8
0
 62
   251
100
AcDbPolyFaceMesh
 66
     1
 10
0.0
 20
0.0
 30
0.0
 70
    64
 71
     9
 72
     7
  0
VERTEX
  5
675
330
674
100
AcDbEntity
  8
0
 62
   251
100
AcDbVertex
100
AcDbPolyFaceMeshVertex
 10
-56.87695763495955
 20
-0.0000000000000449
 30
63.08855413698927
 70
   192
  0
VERTEX
  5
676
330
674
100
AcDbEntity
  8
0
 62
   251
100
AcDbVertex
100
AcDbPolyFaceMeshVertex
 10
-72.82438264168735
 20
-0.0000000000000906
 30
64.83362759861546
 70
   192
  0
VERTEX
  5
677
330
674
100
AcDbEntity
  8
0
 62
   251
100
AcDbVertex
100
AcDbPolyFaceMeshVertex
 10
-70.56704397686528
 20
0.0
 30
55.94314082959836
 70
   192
  0
VERTEX
  5
678
330
674
100
AcDbEntity
  8
0
 62
   251
100
AcDbVertex
100
AcDbPolyFaceMeshVertex
 10
-5.599304271403719
 20
0.0
 30
75.72842013515185
 70
   192
  0
VERTEX
  5
679
330
674
100
AcDbEntity
  8
0
 62
   251
100
AcDbVertex
100
AcDbPolyFaceMeshVertex
 10
-59.53350200629846
 20
-0.0000000000000455
 30
71.08235922446448
 70
   192
  0
VERTEX
  5
67A
330
674
100
AcDbEntity
  8
0
 62
   251
100
AcDbVertex
100
AcDbPolyFaceMeshVertex
 10
-20.88696527627946
 20
-0.0000000000000452
 30
80.37403616289205
 70
   192
  0
VERTEX
  5
67B
330
674
100
AcDbEntity
  8
0
 62
   251
100
AcDbVertex
100
AcDbPolyFaceMeshVertex
 10
-0.1001061625300783
 20
-0.0000000000000451
 30
80.97210713808519
 70
   192
  0
VERTEX
  5
67C
330
674
100
AcDbEntity
  8
0
 62
   251
100
AcDbVertex
100
AcDbPolyFaceMeshVertex
 10
-4.959414299184732
 20
-0.0000000000000451
 30
85.24209366417335
 70
   192
  0
VERTEX
  5
67D
330
674
100
AcDbEntity
  8
0
 62
   251
100
AcDbVertex
100
AcDbPolyFaceMeshVertex
 10
0.3776981226356231
 20
-0.0000000000000902
 30
94.7013431793349
 70
   192
  0
VERTEX
  5
67E
330
674
100
AcDbEntity
  8
0
 62
   251
100
AcDbFaceRecord
 10
0.0
 20
0.0
 30
0.0
 70
   128
 71
    -1
 72
     2
 73
     3
  0
VERTEX
  5
67F
330
674
100
AcDbEntity
  8
0
 62
   251
100
AcDbFaceRecord
 10
0.0
 20
0.0
 30
0.0
 70
   128
 71
    -2
 72
     1
 73
    -4
  0
VERTEX
  5
680
330
674
100
AcDbEntity
  8
0
 62
   251
100
AcDbFaceRecord
 10
0.0
 20
0.0
 30
0.0
 70
   128
 71
    -2
 72
    -4
 73
     5
  0
VERTEX
  5
681
330
674
100
AcDbEntity
  8
0
 62
   251
100
AcDbFaceRecord
 10
0.0
 20
0.0
 30
0.0
 70
   128
 71
    -5
 72
    -4
 73
     6
  0
VERTEX
  5
682
330
674
100
AcDbEntity
  8
0
 62
   251
100
AcDbFaceRecord
 10
0.0
 20
0.0
 30
0.0
 70
   128
 71
    -6
 72
     4
 73
    -7
  0
VERTEX
  5
683
330
674
100
AcDbEntity
  8
0
 62
   251
100
AcDbFaceRecord
 10
0.0
 20
0.0
 30
0.0
 70
   128
 71
    -6
 72
    -7
 73
     8
  0
VERTEX
  5
684
330
674
100
AcDbEntity
  8
0
 62
   251
100
AcDbFaceRecord
 10
0.0
 20
0.0
 30
0.0
 70
   128
 71
    -8
 72
     7
 73
     9
  0
SEQEND
  5
685
330
674
100
AcDbEntity
  8
0
 62
   251
  0
POLYLINE
  5
686
330
6B
100
AcDbEntity
  8
0
 62
    33
100
AcDbPolyFaceMesh
 66
     1
 10
0.0
 20
0.0
 30
0.0
 70
    64
 71
     8
 72
     6
  0
VERTEX
  5
687
330
686
100
AcDbEntity
  8
0
 62
    33
100
AcDbVertex
100
AcDbPolyFaceMeshVertex
 10
128.938795945253
 20
0.0
 30
44.32142843661658
 70
   192
  0
VERTEX
  5
688
330
686
100
AcDbEntity
  8
0
 62
    33
100
AcDbVertex
100
AcDbPolyFaceMeshVertex
 10
58.19304335203584
 20
0.0000000000000004
 30
45.19353307075716
 70
   192
  0
VERTEX
  5
689
330
686
100
AcDbEntity
  8
0
 62
    33
100
AcDbVertex
100
AcDbPolyFaceMeshVertex
 10
109.4631450413235
 20
-0.0000000000000899
 30
43.2893351657608
 70
   192
  0
VERTEX
  5
68A
330
686
100
AcDbEntity
  8
0
 62
    33
100
AcDbVertex
100
AcDbPolyFaceMeshVertex
 10
120.6101321633963
 20
0.0000000000000451
 30
53.69247800031351
 70
   192
  0
VERTEX
  5
68B
330
686
100
AcDbEntity
  8
0
 62
    33
100
AcDbVertex
100
AcDbPolyFaceMeshVertex
 10
57.40086645343255
 20
-0.0000000000000449
 30
50.83039770742282
 70
   192
  0
VERTEX
  5
68C
330
686
100
AcDbEntity
  8
0
 62
    33
100
AcDbVertex
100
AcDbPolyFaceMeshVertex
 10
64.46323494403472
 20
0.0000000000000004
 30
59.77921818796617
 70
   192
  0
VERTEX
  5
68D
330
686
100
AcDbEntity
  8
0
 62
    33
100
AcDbVertex
100
AcDbPolyFaceMeshVertex
 10
107.0287455548939
 20
-0.0000000000000451
 30
57.62376030935635
 70
   192
  0
VERTEX
  5
68E
330
686
100
AcDbEntity
  8
0
 62
    33
100
AcDbVertex
100
AcDbPolyFaceMeshVertex
 10
76.29326568419323
 20
-0.0000000000000451
 30
62.27011780867505
 70
   192
  0
VERTEX
  5
68F
330
686
100
AcDbEntity
  8
0
 62
    33
100
AcDbFaceRecord
 10
0.0
 20
0.0
 30
0.0
 70
   128
 71
    -1
 72
     2
 73
     3
  0
VERTEX
  5
690
330
686
100
AcDbEntity
  8
0
 62
    33
100
AcDbFaceRecord
 10
0.0
 20
0.0
 30
0.0
 70
   128
 71
    -2
 72
     1
 73
    -4
  0
VERTEX
  5
691
330
686
100
AcDbEntity
  8
0
 62
    33
100
AcDbFaceRecord
 10
0.0
 20
0.0
 30
0.0
 70
   128
 71
    -2
 72
    -4
 73
     5
  0
VERTEX
  5
692
330
686
100
AcDbEntity
  8
0
 62
    33
100
AcDbFaceRecord
 10
0.0
 20
0.0
 30
0.0
 70
   128
 71
    -5
 72
    -4
 73
     6
  0
VERTEX
  5
693
330
686
100
AcDbEntity
  8
0
 62
    33
100
AcDbFaceRecord
 10
0.0
 20
0.0
 30
0.0
 70
   128
 71
    -6
 72
     4
 73
    -7
  0
VERTEX
  5
694
330
686
100
AcDbEntity
  8
0
 62
    33
100
AcDbFaceRecord
 10
0.0
 20
0.0
 30
0.0
 70
   128
 71
    -6
 72
     7
 73
     8
  0
SEQEND
  5
695
330
686
100
AcDbEntity
  8
0
 62
    33
  0
POLYLINE
  5
696
330
6B
100
AcDbEntity
  8
0
 62
    33
100
AcDbPolyFaceMesh
 66
     1
 10
0.0
 20
0.0
 30
0.0
 70
    64
 71
    29
 72
    27
  0
VERTEX
  5
697
330
696
100
AcDbEntity
  8
0
 62
    33
100
AcDbVertex
100
AcDbPolyFaceMeshVertex
 10
51.73824800866324
 20
-0.0000000000003606
 30
1466.75097475473
 70
   192
  0
VERTEX
  5
698
330
696
100
AcDbEntity
  8
0
 62
    33
100
AcDbVertex
100
AcDbPolyFaceMeshVertex
 10
16.16748368045034
 20
-0.000000000000361
 30
1470.983961849052
 70
   192
  0
VERTEX
  5
699
330
696
100
AcDbEntity
  8
0
 62
    33
100
AcDbVertex
100
AcDbPolyFaceMeshVertex
 10
0.0943076853447926
 20
-0.0000000000004512
 30
1467.768866937652
 70
   192
  0
VERTEX
  5
69A
330
696
100
AcDbEntity
  8
0
 62
    33
100
AcDbVertex
100
AcDbPolyFaceMeshVertex
 10
53.89222294411599
 20
-0.0000000000005414
 30
1483.175904866662
 70
   192
  0
VERTEX
  5
69B
330
696
100
AcDbEntity
  8
0
 62
    33
100
AcDbVertex
100
AcDbPolyFaceMeshVertex
 10
32.88514677156117
 20
-0.0000000000002252
 30
1482.235793052321
 70
   192
  0
VERTEX
  5
69C
330
696
100
AcDbEntity
  8
0
 62
    33
100
AcDbVertex
100
AcDbPolyFaceMeshVertex
 10
44.13593991462033
 20
-0.0000000000004961
 30
1493.165380707587
 70
   192
  0
VERTEX
  5
69D
330
696
100
AcDbEntity
  8
0
 62
    33
100
AcDbVertex
100
AcDbPolyFaceMeshVertex
 10
57.31663528211828
 20
-0.0000000000005869
 30
1504.738788134435
 70
   192
  0
VERTEX
  5
69E
330
696
100
AcDbEntity
  8
0
 62
    33
100
AcDbVertex
100
AcDbPolyFaceMeshVertex
 10
63.42458155691484
 20
-0.0000000000004061
 30
1514.060865407582
 70
   192
  0
VERTEX
  5
69F
330
696
100
AcDbEntity
  8
0
 62
    33
100
AcDbVertex
100
AcDbPolyFaceMeshVertex
 10
13.59339094863695
 20
-0.0000000000004512
 30
1347.520194669324
 70
   192
  0
VERTEX
  5
6A0
330
696
100
AcDbEntity
  8
0
 62
    33
100
AcDbVertex
100
AcDbPolyFaceMeshVertex
 10
-41.22790338273794
 20
-0.0000000000004061
 30
1333.316416817855
 70
   192
  0
VERTEX
  5
6A1
330
696
100
AcDbEntity
  8
0
 62
    33
100
AcDbVertex
100
AcDbPolyFaceMeshVertex
 10
-22.78839499210538
 20
-0.0000000000004962
 30
1326.339243411616
 70
   192
  0
VERTEX
  5
6A2
330
696
100
AcDbEntity
  8
0
 62
    33
100
AcDbVertex
100
AcDbPolyFaceMeshVertex
 10
-54.43469854979797
 20
-0.0000000000005416
 30
1341.539781506024
 70
   192
  0
VERTEX
  5
6A3
330
696
100
AcDbEntity
  8
0
 62
    33
100
AcDbVertex
100
AcDbPolyFaceMeshVertex
 10
-64.90101476283583
 20
-0.0000000000005411
 30
1353.500978568413
 70
   192
  0
VERTEX
  5
6A4
330
696
100
AcDbEntity
  8
0
 62
    33
100
AcDbVertex
100
AcDbPolyFaceMeshVertex
 10
36.02023689964474
 20
-0.0000000000004514
 30
1366.707699588317
 70
   192
  0
VERTEX
  5
6A5
330
696
100
AcDbEntity
  8
0
 62
    33
100
AcDbVertex
100
AcDbPolyFaceMeshVertex
 10
-71.37969682686766
 20
-0.0000000000004508
 30
1365.212448003175
 70
   192
  0
VERTEX
  5
6A6
330
696
100
AcDbEntity
  8
0
 62
    33
100
AcDbVertex
100
AcDbPolyFaceMeshVertex
 10
-74.12076895815223
 20
-0.000000000000361
 30
1381.160908478781
 70
   192
  0
VERTEX
  5
6A7
330
696
100
AcDbEntity
  8
0
 62
    33
100
AcDbVertex
100
AcDbPolyFaceMeshVertex
 10
57.45010016624244
 20
-0.000000000000451
 30
1393.121808952539
 70
   192
  0
VERTEX
  5
6A8
330
696
100
AcDbEntity
  8
0
 62
    33
100
AcDbVertex
100
AcDbPolyFaceMeshVertex
 10
-73.12467603963682
 20
-0.000000000000361
 30
1392.872377913542
 70
   192
  0
VERTEX
  5
6A9
330
696
100
AcDbEntity
  8
0
 62
    33
100
AcDbVertex
100
AcDbPolyFaceMeshVertex
 10
-60.29825579233118
 20
-0.0000000000004956
 30
1409.315029196201
 70
   192
  0
VERTEX
  5
6AA
330
696
100
AcDbEntity
  8
0
 62
    33
100
AcDbVertex
100
AcDbPolyFaceMeshVertex
 10
84.26527150726152
 20
-0.0000000000005411
 30
1426.739833731699
 70
   192
  0
VERTEX
  5
6AB
330
696
100
AcDbEntity
  8
0
 62
    33
100
AcDbVertex
100
AcDbPolyFaceMeshVertex
 10
-46.02537278974852
 20
-0.0000000000003611
 30
1419.394148950961
 70
   192
  0
VERTEX
  5
6AC
330
696
100
AcDbEntity
  8
0
 62
    33
100
AcDbVertex
100
AcDbPolyFaceMeshVertex
 10
-39.79982912260553
 20
-0.0000000000004963
 30
1436.264406892921
 70
   192
  0
VERTEX
  5
6AD
330
696
100
AcDbEntity
  8
0
 62
    33
100
AcDbVertex
100
AcDbPolyFaceMeshVertex
 10
77.31797940563739
 20
-0.0000000000005418
 30
1429.054559705362
 70
   192
  0
VERTEX
  5
6AE
330
696
100
AcDbEntity
  8
0
 62
    33
100
AcDbVertex
100
AcDbPolyFaceMeshVertex
 10
60.08514186180604
 20
-0.0000000000003606
 30
1441.171243357756
 70
   192
  0
VERTEX
  5
6AF
330
696
100
AcDbEntity
  8
0
 62
    33
100
AcDbVertex
100
AcDbPolyFaceMeshVertex
 10
-38.48935225481956
 20
-0.0000000000005866
 30
1458.202029896455
 70
   192
  0
VERTEX
  5
6B0
330
696
100
AcDbEntity
  8
0
 62
    33
100
AcDbVertex
100
AcDbPolyFaceMeshVertex
 10
53.89222294411599
 20
-0.0000000000004508
 30
1454.365285213668
 70
   192
  0
VERTEX
  5
6B1
330
696
100
AcDbEntity
  8
0
 62
    33
100
AcDbVertex
100
AcDbPolyFaceMeshVertex
 10
-15.97886830976099
 20
-0.0000000000004963
 30
1468.733299019767
 70
   192
  0
VERTEX
  5
6B2
330
696
100
AcDbEntity
  8
0
 62
    33
100
AcDbVertex
100
AcDbPolyFaceMeshVertex
 10
-32.05293407076084
 20
-0.0000000000004512
 30
1475.806270553942
 70
   192
  0
VERTEX
  5
6B3
330
696
100
AcDbEntity
  8
0
 62
    33
100
AcDbVertex
100
AcDbPolyFaceMeshVertex
 10
-40.57734712236904
 20
-0.0000000000004512
 30
1482.035294487082
 70
   192
  0
VERTEX
  5
6B4
330
696
100
AcDbEntity
  8
0
 62
    33
100
AcDbFaceRecord
 10
0.0
 20
0.0
 30
0.0
 70
   128
 71
    -1
 72
     2
 73
    -3
  0
VERTEX
  5
6B5
330
696
100
AcDbEntity
  8
0
 62
    33
100
AcDbFaceRecord
 10
0.0
 20
0.0
 30
0.0
 70
   128
 71
    -2
 72
     1
 73
    -4
  0
VERTEX
  5
6B6
330
696
100
AcDbEntity
  8
0
 62
    33
100
AcDbFaceRecord
 10
0.0
 20
0.0
 30
0.0
 70
   128
 71
    -2
 72
    -4
 73
     5
  0
VERTEX
  5
6B7
330
696
100
AcDbEntity
  8
0
 62
    33
100
AcDbFaceRecord
 10
0.0
 20
0.0
 30
0.0
 70
   128
 71
    -5
 72
    -4
 73
     6
  0
VERTEX
  5
6B8
330
696
100
AcDbEntity
  8
0
 62
    33
100
AcDbFaceRecord
 10
0.0
 20
0.0
 30
0.0
 70
   128
 71
    -6
 72
    -4
 73
     7
  0
VERTEX
  5
6B9
330
696
100
AcDbEntity
  8
0
 62
    33
100
AcDbFaceRecord
 10
0.0
 20
0.0
 30
0.0
 70
   128
 71
    -7
 72
     4
 73
     8
  0
VERTEX
  5
6BA
330
696
100
AcDbEntity
  8
0
 62
    33
100
AcDbFaceRecord
 10
0.0
 20
0.0
 30
0.0
 70
   128
 71
    -9
 72
    10
 73
    11
  0
VERTEX
  5
6BB
330
696
100
AcDbEntity
  8
0
 62
    33
100
AcDbFaceRecord
 10
0.0
 20
0.0
 30
0.0
 70
   128
 71
   -10
 72
    -9
 73
    12
  0
VERTEX
  5
6BC
330
696
100
AcDbEntity
  8
0
 62
    33
100
AcDbFaceRecord
 10
0.0
 20
0.0
 30
0.0
 70
   128
 71
   -12
 72
    -9
 73
    13
  0
VERTEX
  5
6BD
330
696
100
AcDbEntity
  8
0
 62
    33
100
AcDbFaceRecord
 10
0.0
 20
0.0
 30
0.0
 70
   128
 71
   -13
 72
     9
 73
   -14
  0
VERTEX
  5
6BE
330
696
100
AcDbEntity
  8
0
 62
    33
100
AcDbFaceRecord
 10
0.0
 20
0.0
 30
0.0
 70
   128
 71
   -13
 72
   -14
 73
    15
  0
VERTEX
  5
6BF
330
696
100
AcDbEntity
  8
0
 62
    33
100
AcDbFaceRecord
 10
0.0
 20
0.0
 30
0.0
 70
   128
 71
   -15
 72
   -14
 73
    16
  0
VERTEX
  5
6C0
330
696
100
AcDbEntity
  8
0
 62
    33
100
AcDbFaceRecord
 10
0.0
 20
0.0
 30
0.0
 70
   128
 71
   -16
 72
    14
 73
   -17
  0
VERTEX
  5
6C1
330
696
100
AcDbEntity
  8
0
 62
    33
100
AcDbFaceRecord
 10
0.0
 20
0.0
 30
0.0
 70
   128
 71
   -16
 72
   -17
 73
    18
  0
VERTEX
  5
6C2
330
696
100
AcDbEntity
  8
0
 62
    33
100
AcDbFaceRecord
 10
0.0
 20
0.0
 30
0.0
 70
   128
 71
   -18
 72
   -17
 73
    19
  0
VERTEX
  5
6C3
330
696
100
AcDbEntity
  8
0
 62
    33
100
AcDbFaceRecord
 10
0.0
 20
0.0
 30
0.0
 70
   128
 71
   -19
 72
    17
 73
   -20
  0
VERTEX
  5
6C4
330
696
100
AcDbEntity
  8
0
 62
    33
100
AcDbFaceRecord
 10
0.0
 20
0.0
 30
0.0
 70
   128
 71
   -19
 72
   -20
 73
    21
  0
VERTEX
  5
6C5
330
696
100
AcDbEntity
  8
0
 62
    33
100
AcDbFaceRecord
 10
0.0
 20
0.0
 30
0.0
 70
   128
 71
   -21
 72
   -20
 73
    22
  0
VERTEX
  5
6C6
330
696
100
AcDbEntity
  8
0
 62
    33
100
AcDbFaceRecord
 10
0.0
 20
0.0
 30
0.0
 70
   128
 71
   -22
 72
    20
 73
   -23
  0
VERTEX
  5
6C7
330
696
100
AcDbEntity
  8
0
 62
    33
100
AcDbFaceRecord
 10
0.0
 20
0.0
 30
0.0
 70
   128
 71
   -22
 72
    23
 73
   -24
  0
VERTEX
  5
6C8
330
696
100
AcDbEntity
  8
0
 62
    33
100
AcDbFaceRecord
 10
0.0
 20
0.0
 30
0.0
 70
   128
 71
   -22
 72
   -24
 73
    25
  0
VERTEX
  5
6C9
330
696
100
AcDbEntity
  8
0
 62
    33
100
AcDbFaceRecord
 10
0.0
 20
0.0
 30
0.0
 70
   128
 71
   -25
 72
    24
 73
   -26
  0
VERTEX
  5
6CA
330
696
100
AcDbEntity
  8
0
 62
    33
100
AcDbFaceRecord
 10
0.0
 20
0.0
 30
0.0
 70
   128
 71
   -25
 72
    26
 73
    -1
  0
VERTEX
  5
6CB
330
696
100
AcDbEntity
  8
0
 62
    33
100
AcDbFaceRecord
 10
0.0
 20
0.0
 30
0.0
 70
   128
 71
   -25
 72
    -1
 73
    -3
  0
VERTEX
  5
6CC
330
696
100
AcDbEntity
  8
0
 62
    33
100
AcDbFaceRecord
 10
0.0
 20
0.0
 30
0.0
 70
   128
 71
   -25
 72
     3
 73
   -27
  0
VERTEX
  5
6CD
330
696
100
AcDbEntity
  8
0
 62
    33
100
AcDbFaceRecord
 10
0.0
 20
0.0
 30
0.0
 70
   128
 71
   -25
 72
    27
 73
   -28
  0
VERTEX
  5
6CE
330
696
100
AcDbEntity
  8
0
 62
    33
100
AcDbFaceRecord
 10
0.0
 20
0.0
 30
0.0
 70
   128
 71
   -25
 72
    28
 73
    29
  0
SEQEND
  5
6CF
330
696
100
AcDbEntity
  8
0
 62
    33
  0
POLYLINE
  5
6D0
330
6B
100
AcDbEntity
  8
0
 62
    18
100
AcDbPolyFaceMesh
 66
     1
 10
0.0
 20
0.0
 30
0.0
 70
    64
 71
    84
 72
    82
  0
VERTEX
  5
6D1
330
6D0
100
AcDbEntity
  8
0
 62
    18
100
AcDbVertex
100
AcDbPolyFaceMeshVertex
 10
121.3560525713363
 20
-0.0000000000004519
 30
1508.125533716251
 70
   192
  0
VERTEX
  5
6D2
330
6D0
100
AcDbEntity
  8
0
 62
    18
100
AcDbVertex
100
AcDbPolyFaceMeshVertex
 10
151.8361696304118
 20
-0.0000000000003151
 30
1409.966931007991
 70
   192
  0
VERTEX
  5
6D3
330
6D0
100
AcDbEntity
  8
0
 62
    18
100
AcDbVertex
100
AcDbPolyFaceMeshVertex
 10
160.5895279924385
 20
-0.0000000000004963
 30
1405.179983916314
 70
   192
  0
VERTEX
  5
6D4
330
6D0
100
AcDbEntity
  8
0
 62
    18
100
AcDbVertex
100
AcDbPolyFaceMeshVertex
 10
84.26527150726152
 20
-0.0000000000005411
 30
1426.739833731699
 70
   192
  0
VERTEX
  5
6D5
330
6D0
100
AcDbEntity
  8
0
 62
    18
100
AcDbVertex
100
AcDbPolyFaceMeshVertex
 10
77.31797940563739
 20
-0.0000000000005418
 30
1429.054559705362
 70
   192
  0
VERTEX
  5
6D6
330
6D0
100
AcDbEntity
  8
0
 62
    18
100
AcDbVertex
100
AcDbPolyFaceMeshVertex
 10
60.08514186180604
 20
-0.0000000000003606
 30
1441.171243357756
 70
   192
  0
VERTEX
  5
6D7
330
6D0
100
AcDbEntity
  8
0
 62
    18
100
AcDbVertex
100
AcDbPolyFaceMeshVertex
 10
53.89222294411599
 20
-0.0000000000004508
 30
1454.365285213668
 70
   192
  0
VERTEX
  5
6D8
330
6D0
100
AcDbEntity
  8
0
 62
    18
100
AcDbVertex
100
AcDbPolyFaceMeshVertex
 10
51.73824800866324
 20
-0.0000000000003606
 30
1466.75097475473
 70
   192
  0
VERTEX
  5
6D9
330
6D0
100
AcDbEntity
  8
0
 62
    18
100
AcDbVertex
100
AcDbPolyFaceMeshVertex
 10
53.89222294411599
 20
-0.0000000000005414
 30
1483.175904866662
 70
   192
  0
VERTEX
  5
6DA
330
6D0
100
AcDbEntity
  8
0
 62
    18
100
AcDbVertex
100
AcDbPolyFaceMeshVertex
 10
63.42458155691484
 20
-0.0000000000004061
 30
1514.060865407582
 70
   192
  0
VERTEX
  5
6DB
330
6D0
100
AcDbEntity
  8
0
 62
    18
100
AcDbVertex
100
AcDbPolyFaceMeshVertex
 10
76.49079371269738
 20
-0.0000000000005414
 30
1518.676377689236
 70
   192
  0
VERTEX
  5
6DC
330
6D0
100
AcDbEntity
  8
0
 62
    18
100
AcDbVertex
100
AcDbPolyFaceMeshVertex
 10
79.60408457637335
 20
-0.0000000000004512
 30
1521.32825078963
 70
   192
  0
VERTEX
  5
6DD
330
6D0
100
AcDbEntity
  8
0
 62
    18
100
AcDbVertex
100
AcDbPolyFaceMeshVertex
 10
85.96561413100659
 20
-0.0000000000004505
 30
1529.566519056526
 70
   192
  0
VERTEX
  5
6DE
330
6D0
100
AcDbEntity
  8
0
 62
    18
100
AcDbVertex
100
AcDbPolyFaceMeshVertex
 10
97.01383723882735
 20
-0.000000000000361
 30
1595.833835997572
 70
   192
  0
VERTEX
  5
6DF
330
6D0
100
AcDbEntity
  8
0
 62
    18
100
AcDbVertex
100
AcDbPolyFaceMeshVertex
 10
72.68570986630877
 20
-0.0000000000003158
 30
1518.445631734016
 70
   192
  0
VERTEX
  5
6E0
330
6D0
100
AcDbEntity
  8
0
 62
    18
100
AcDbVertex
100
AcDbPolyFaceMeshVertex
 10
88.32542157664207
 20
-0.0000000000004505
 30
1562.446557173633
 70
   192
  0
VERTEX
  5
6E1
330
6D0
100
AcDbEntity
  8
0
 62
    18
100
AcDbVertex
100
AcDbPolyFaceMeshVertex
 10
86.839067650443
 20
-0.0000000000005411
 30
1565.374554289849
 70
   192
  0
VERTEX
  5
6E2
330
6D0
100
AcDbEntity
  8
0
 62
    18
100
AcDbVertex
100
AcDbPolyFaceMeshVertex
 10
82.2750134963344
 20
-0.0000000000004064
 30
1567.797831702602
 70
   192
  0
VERTEX
  5
6E3
330
6D0
100
AcDbEntity
  8
0
 62
    18
100
AcDbVertex
100
AcDbPolyFaceMeshVertex
 10
74.18971081607631
 20
-0.0000000000004505
 30
1578.2566590527
 70
   192
  0
VERTEX
  5
6E4
330
6D0
100
AcDbEntity
  8
0
 62
    18
100
AcDbVertex
100
AcDbPolyFaceMeshVertex
 10
68.34676648342425
 20
-0.0000000000004956
 30
1595.270243450776
 70
   192
  0
VERTEX
  5
6E5
330
6D0
100
AcDbEntity
  8
0
 62
    18
100
AcDbVertex
100
AcDbPolyFaceMeshVertex
 10
40.32284817518504
 20
-0.0000000000005414
 30
1622.770682824617
 70
   192
  0
VERTEX
  5
6E6
330
6D0
100
AcDbEntity
  8
0
 62
    18
100
AcDbVertex
100
AcDbPolyFaceMeshVertex
 10
37.17989844837015
 20
-0.0000000000003611
 30
1616.22296975663
 70
   192
  0
VERTEX
  5
6E7
330
6D0
100
AcDbEntity
  8
0
 62
    18
100
AcDbVertex
100
AcDbPolyFaceMeshVertex
 10
47.39455920767593
 20
-0.0000000000004963
 30
1598.412896588962
 70
   192
  0
VERTEX
  5
6E8
330
6D0
100
AcDbEntity
  8
0
 62
    18
100
AcDbVertex
100
AcDbPolyFaceMeshVertex
 10
32.27743666584858
 20
-0.0000000000006318
 30
1621.150419131345
 70
   192
  0
VERTEX
  5
6E9
330
6D0
100
AcDbEntity
  8
0
 62
    18
100
AcDbVertex
100
AcDbPolyFaceMeshVertex
 10
25.80809714370568
 20
-0.0000000000005413
 30
1631.600200528186
 70
   192
  0
VERTEX
  5
6EA
330
6D0
100
AcDbEntity
  8
0
 62
    18
100
AcDbVertex
100
AcDbPolyFaceMeshVertex
 10
32.98954596980996
 20
-0.0000000000004514
 30
1648.437500058481
 70
   192
  0
VERTEX
  5
6EB
330
6D0
100
AcDbEntity
  8
0
 62
    18
100
AcDbVertex
100
AcDbPolyFaceMeshVertex
 10
-34.14284586183316
 20
-0.0000000000004965
 30
1603.556484928799
 70
   192
  0
VERTEX
  5
6EC
330
6D0
100
AcDbEntity
  8
0
 62
    18
100
AcDbVertex
100
AcDbPolyFaceMeshVertex
 10
-43.74861016090051
 20
-0.0000000000004965
 30
1605.280925378847
 70
   192
  0
VERTEX
  5
6ED
330
6D0
100
AcDbEntity
  8
0
 62
    18
100
AcDbVertex
100
AcDbPolyFaceMeshVertex
 10
-41.77807529396155
 20
-0.0000000000005414
 30
1600.600756775549
 70
   192
  0
VERTEX
  5
6EE
330
6D0
100
AcDbEntity
  8
0
 62
    18
100
AcDbVertex
100
AcDbPolyFaceMeshVertex
 10
-27.98418293106985
 20
-0.0000000000004513
 30
1614.148035691441
 70
   192
  0
VERTEX
  5
6EF
330
6D0
100
AcDbEntity
  8
0
 62
    18
100
AcDbVertex
100
AcDbPolyFaceMeshVertex
 10
-41.039273013175
 20
-0.0000000000004512
 30
1617.350006555903
 70
   192
  0
VERTEX
  5
6F0
330
6D0
100
AcDbEntity
  8
0
 62
    18
100
AcDbVertex
100
AcDbPolyFaceMeshVertex
 10
-14.4372006038078
 20
-0.0000000000003609
 30
1641.488613792965
 70
   192
  0
VERTEX
  5
6F1
330
6D0
100
AcDbEntity
  8
0
 62
    18
100
AcDbVertex
100
AcDbPolyFaceMeshVertex
 10
-34.38856954293841
 20
-0.0000000000004514
 30
1639.764469931549
 70
   192
  0
VERTEX
  5
6F2
330
6D0
100
AcDbEntity
  8
0
 62
    18
100
AcDbVertex
100
AcDbPolyFaceMeshVertex
 10
7.977188624680889
 20
-0.0000000000004512
 30
1655.775102799013
 70
   192
  0
VERTEX
  5
6F3
330
6D0
100
AcDbEntity
  8
0
 62
    18
100
AcDbVertex
100
AcDbPolyFaceMeshVertex
 10
-8.033555463517523
 20
-0.0000000000004512
 30
1612.917118724026
 70
   192
  0
VERTEX
  5
6F4
330
6D0
100
AcDbEntity
  8
0
 62
    18
100
AcDbVertex
100
AcDbPolyFaceMeshVertex
 10
-7.540625158150931
 20
-0.000000000000361
 30
1604.049341087009
 70
   192
  0
VERTEX
  5
6F5
330
6D0
100
AcDbEntity
  8
0
 62
    18
100
AcDbVertex
100
AcDbPolyFaceMeshVertex
 10
-2.122099157014941
 20
-0.0000000000004963
 30
1653.5577320436
 70
   192
  0
VERTEX
  5
6F6
330
6D0
100
AcDbEntity
  8
0
 62
    18
100
AcDbVertex
100
AcDbPolyFaceMeshVertex
 10
61.53738809539585
 20
-0.0000000000005414
 30
1594.222544110399
 70
   192
  0
VERTEX
  5
6F7
330
6D0
100
AcDbEntity
  8
0
 62
    18
100
AcDbVertex
100
AcDbPolyFaceMeshVertex
 10
68.87009712350718
 20
-0.0000000000004508
 30
1582.698296249203
 70
   192
  0
VERTEX
  5
6F8
330
6D0
100
AcDbEntity
  8
0
 62
    18
100
AcDbVertex
100
AcDbPolyFaceMeshVertex
 10
51.06128445752161
 20
-0.000000000000451
 30
1620.936727022431
 70
   192
  0
VERTEX
  5
6F9
330
6D0
100
AcDbEntity
  8
0
 62
    18
100
AcDbVertex
100
AcDbPolyFaceMeshVertex
 10
80.82795756379448
 20
-0.0000000000005411
 30
1637.985234731857
 70
   192
  0
VERTEX
  5
6FA
330
6D0
100
AcDbEntity
  8
0
 62
    18
100
AcDbVertex
100
AcDbPolyFaceMeshVertex
 10
68.48230748796816
 20
-0.0000000000005418
 30
1657.476557630125
 70
   192
  0
VERTEX
  5
6FB
330
6D0
100
AcDbEntity
  8
0
 62
    18
100
AcDbVertex
100
AcDbPolyFaceMeshVertex
 10
17.2740558641575
 20
-0.000000000000406
 30
1691.717826344567
 70
   192
  0
VERTEX
  5
6FC
330
6D0
100
AcDbEntity
  8
0
 62
    18
100
AcDbVertex
100
AcDbPolyFaceMeshVertex
 10
0.982590636350669
 20
-0.0000000000004963
 30
1689.837862230935
 70
   192
  0
VERTEX
  5
6FD
330
6D0
100
AcDbEntity
  8
0
 62
    18
100
AcDbVertex
100
AcDbPolyFaceMeshVertex
 10
35.44455836612112
 20
-0.0000000000004512
 30
1685.451575887766
 70
   192
  0
VERTEX
  5
6FE
330
6D0
100
AcDbEntity
  8
0
 62
    18
100
AcDbVertex
100
AcDbPolyFaceMeshVertex
 10
8.189249496122489
 20
-0.000000000000361
 30
1692.657344981643
 70
   192
  0
VERTEX
  5
6FF
330
6D0
100
AcDbEntity
  8
0
 62
    18
100
AcDbVertex
100
AcDbPolyFaceMeshVertex
 10
-49.90667991440338
 20
-0.0000000000004512
 30
1620.552348156155
 70
   192
  0
VERTEX
  5
700
330
6D0
100
AcDbEntity
  8
0
 62
    18
100
AcDbVertex
100
AcDbPolyFaceMeshVertex
 10
-66.4093162477581
 20
-0.0000000000002718
 30
1604.541678215114
 70
   192
  0
VERTEX
  5
701
330
6D0
100
AcDbEntity
  8
0
 62
    18
100
AcDbVertex
100
AcDbPolyFaceMeshVertex
 10
-67.14797023422855
 20
-0.0000000000004061
 30
1593.457790324366
 70
   192
  0
VERTEX
  5
702
330
6D0
100
AcDbEntity
  8
0
 62
    18
100
AcDbVertex
100
AcDbPolyFaceMeshVertex
 10
-90.11431090573059
 20
-0.0000000000004064
 30
1612.789585612529
 70
   192
  0
VERTEX
  5
703
330
6D0
100
AcDbEntity
  8
0
 62
    18
100
AcDbVertex
100
AcDbPolyFaceMeshVertex
 10
-82.8815522463957
 20
-0.000000000000361
 30
1632.577311774292
 70
   192
  0
VERTEX
  5
704
330
6D0
100
AcDbEntity
  8
0
 62
    18
100
AcDbVertex
100
AcDbPolyFaceMeshVertex
 10
-65.99809611033928
 20
-0.000000000000496
 30
1657.749307950264
 70
   192
  0
VERTEX
  5
705
330
6D0
100
AcDbEntity
  8
0
 62
    18
100
AcDbVertex
100
AcDbPolyFaceMeshVertex
 10
53.86419531845035
 20
-0.0000000000005869
 30
1672.4970293517
 70
   192
  0
VERTEX
  5
706
330
6D0
100
AcDbEntity
  8
0
 62
    18
100
AcDbVertex
100
AcDbPolyFaceMeshVertex
 10
-47.31078791818188
 20
-0.0000000000004514
 30
1675.544180950576
 70
   192
  0
VERTEX
  5
707
330
6D0
100
AcDbEntity
  8
0
 62
    18
100
AcDbVertex
100
AcDbPolyFaceMeshVertex
 10
-31.89930115970209
 20
-0.0000000000004965
 30
1684.967988124286
 70
   192
  0
VERTEX
  5
708
330
6D0
100
AcDbEntity
  8
0
 62
    18
100
AcDbVertex
100
AcDbPolyFaceMeshVertex
 10
-13.05139022364931
 20
-0.0000000000004512
 30
1691.203430437003
 70
   192
  0
VERTEX
  5
709
330
6D0
100
AcDbEntity
  8
0
 62
    18
100
AcDbVertex
100
AcDbPolyFaceMeshVertex
 10
11.17886290051015
 20
-0.0000000000005415
 30
1603.556484928799
 70
   192
  0
VERTEX
  5
70A
330
6D0
100
AcDbEntity
  8
0
 62
    18
100
AcDbVertex
100
AcDbPolyFaceMeshVertex
 10
38.75166990040926
 20
-0.0000000000006315
 30
1602.342028630425
 70
   192
  0
VERTEX
  5
70B
330
6D0
100
AcDbEntity
  8
0
 62
    18
100
AcDbVertex
100
AcDbPolyFaceMeshVertex
 10
-14.4372006038078
 20
-0.0000000000003609
 30
1609.468163676776
 70
   192
  0
VERTEX
  5
70C
330
6D0
100
AcDbEntity
  8
0
 62
    18
100
AcDbVertex
100
AcDbPolyFaceMeshVertex
 10
-15.66937807290798
 20
-0.000000000000767
 30
1600.354439917181
 70
   192
  0
VERTEX
  5
70D
330
6D0
100
AcDbEntity
  8
0
 62
    18
100
AcDbVertex
100
AcDbPolyFaceMeshVertex
 10
-74.80959605454996
 20
-0.0000000000002711
 30
1571.605955582464
 70
   192
  0
VERTEX
  5
70E
330
6D0
100
AcDbEntity
  8
0
 62
    18
100
AcDbVertex
100
AcDbPolyFaceMeshVertex
 10
-77.99851701922968
 20
-0.0000000000005414
 30
1566.163257607868
 70
   192
  0
VERTEX
  5
70F
330
6D0
100
AcDbEntity
  8
0
 62
    18
100
AcDbVertex
100
AcDbPolyFaceMeshVertex
 10
-74.8095960545499
 20
-0.0000000000004508
 30
1563.957083073291
 70
   192
  0
VERTEX
  5
710
330
6D0
100
AcDbEntity
  8
0
 62
    18
100
AcDbVertex
100
AcDbPolyFaceMeshVertex
 10
-94.69156325393567
 20
-0.0000000000003158
 30
1568.839673417509
 70
   192
  0
VERTEX
  5
711
330
6D0
100
AcDbEntity
  8
0
 62
    18
100
AcDbVertex
100
AcDbPolyFaceMeshVertex
 10
-69.98662002523997
 20
-0.0000000000004508
 30
1593.143999552358
 70
   192
  0
VERTEX
  5
712
330
6D0
100
AcDbEntity
  8
0
 62
    18
100
AcDbVertex
100
AcDbPolyFaceMeshVertex
 10
79.63834056329846
 20
-0.0000000000005414
 30
1566.83124935291
 70
   192
  0
VERTEX
  5
713
330
6D0
100
AcDbEntity
  8
0
 62
    18
100
AcDbVertex
100
AcDbPolyFaceMeshVertex
 10
75.77112139863563
 20
-0.000000000000632
 30
1564.370082742499
 70
   192
  0
VERTEX
  5
714
330
6D0
100
AcDbEntity
  8
0
 62
    18
100
AcDbVertex
100
AcDbPolyFaceMeshVertex
 10
-46.02537278974852
 20
-0.0000000000003611
 30
1419.394148950961
 70
   192
  0
VERTEX
  5
715
330
6D0
100
AcDbEntity
  8
0
 62
    18
100
AcDbVertex
100
AcDbPolyFaceMeshVertex
 10
-98.37371111261255
 20
-0.0000000000005411
 30
1460.215421820631
 70
   192
  0
VERTEX
  5
716
330
6D0
100
AcDbEntity
  8
0
 62
    18
100
AcDbVertex
100
AcDbPolyFaceMeshVertex
 10
-109.1466813327885
 20
-0.0000000000004071
 30
1391.728529521642
 70
   192
  0
VERTEX
  5
717
330
6D0
100
AcDbEntity
  8
0
 62
    18
100
AcDbVertex
100
AcDbPolyFaceMeshVertex
 10
-39.79982912260553
 20
-0.0000000000004963
 30
1436.264406892921
 70
   192
  0
VERTEX
  5
718
330
6D0
100
AcDbEntity
  8
0
 62
    18
100
AcDbVertex
100
AcDbPolyFaceMeshVertex
 10
-38.48935225481956
 20
-0.0000000000005866
 30
1458.202029896455
 70
   192
  0
VERTEX
  5
719
330
6D0
100
AcDbEntity
  8
0
 62
    18
100
AcDbVertex
100
AcDbPolyFaceMeshVertex
 10
-40.57734712236904
 20
-0.0000000000004512
 30
1482.035294487082
 70
   192
  0
VERTEX
  5
71A
330
6D0
100
AcDbEntity
  8
0
 62
    18
100
AcDbVertex
100
AcDbPolyFaceMeshVertex
 10
-48.76955910166198
 20
-0.0000000000004512
 30
1488.021569926273
 70
   192
  0
VERTEX
  5
71B
330
6D0
100
AcDbEntity
  8
0
 62
    18
100
AcDbVertex
100
AcDbPolyFaceMeshVertex
 10
-94.69156325393571
 20
-0.000000000000496
 30
1530.994000139394
 70
   192
  0
VERTEX
  5
71C
330
6D0
100
AcDbEntity
  8
0
 62
    18
100
AcDbVertex
100
AcDbPolyFaceMeshVertex
 10
-62.91431581548584
 20
-0.0000000000004508
 30
1504.095635687271
 70
   192
  0
VERTEX
  5
71D
330
6D0
100
AcDbEntity
  8
0
 62
    18
100
AcDbVertex
100
AcDbPolyFaceMeshVertex
 10
-70.93807635473206
 20
-0.0000000000004505
 30
1518.503763105768
 70
   192
  0
VERTEX
  5
71E
330
6D0
100
AcDbEntity
  8
0
 62
    18
100
AcDbVertex
100
AcDbPolyFaceMeshVertex
 10
-67.70184950334489
 20
-0.0000000000005414
 30
1517.914738083833
 70
   192
  0
VERTEX
  5
71F
330
6D0
100
AcDbEntity
  8
0
 62
    18
100
AcDbVertex
100
AcDbPolyFaceMeshVertex
 10
-79.61670459208071
 20
-0.000000000000361
 30
1530.566096891461
 70
   192
  0
VERTEX
  5
720
330
6D0
100
AcDbEntity
  8
0
 62
    18
100
AcDbVertex
100
AcDbPolyFaceMeshVertex
 10
-81.67577116548895
 20
-0.0000000000002711
 30
1538.950509206474
 70
   192
  0
VERTEX
  5
721
330
6D0
100
AcDbEntity
  8
0
 62
    18
100
AcDbVertex
100
AcDbPolyFaceMeshVertex
 10
-82.1173916376254
 20
-0.0000000000005411
 30
1548.690908716188
 70
   192
  0
VERTEX
  5
722
330
6D0
100
AcDbEntity
  8
0
 62
    18
100
AcDbVertex
100
AcDbPolyFaceMeshVertex
 10
-82.1173916376254
 20
-0.0000000000005411
 30
1562.632814834144
 70
   192
  0
VERTEX
  5
723
330
6D0
100
AcDbEntity
  8
0
 62
    18
100
AcDbVertex
100
AcDbPolyFaceMeshVertex
 10
68.99644388047861
 20
-0.0000000000004057
 30
1519.944590677049
 70
   192
  0
VERTEX
  5
724
330
6D0
100
AcDbEntity
  8
0
 62
    18
100
AcDbVertex
100
AcDbPolyFaceMeshVertex
 10
66.23075489278928
 20
-0.0000000000004505
 30
1522.668312373399
 70
   192
  0
VERTEX
  5
725
330
6D0
100
AcDbEntity
  8
0
 62
    18
100
AcDbFaceRecord
 10
0.0
 20
0.0
 30
0.0
 70
   128
 71
    -1
 72
     2
 73
     3
  0
VERTEX
  5
726
330
6D0
100
AcDbEntity
  8
0
 62
    18
100
AcDbFaceRecord
 10
0.0
 20
0.0
 30
0.0
 70
   128
 71
    -2
 72
    -1
 73
     4
  0
VERTEX
  5
727
330
6D0
100
AcDbEntity
  8
0
 62
    18
100
AcDbFaceRecord
 10
0.0
 20
0.0
 30
0.0
 70
   128
 71
    -4
 72
    -1
 73
     5
  0
VERTEX
  5
728
330
6D0
100
AcDbEntity
  8
0
 62
    18
100
AcDbFaceRecord
 10
0.0
 20
0.0
 30
0.0
 70
   128
 71
    -5
 72
    -1
 73
     6
  0
VERTEX
  5
729
330
6D0
100
AcDbEntity
  8
0
 62
    18
100
AcDbFaceRecord
 10
0.0
 20
0.0
 30
0.0
 70
   128
 71
    -6
 72
    -1
 73
     7
  0
VERTEX
  5
72A
330
6D0
100
AcDbEntity
  8
0
 62
    18
100
AcDbFaceRecord
 10
0.0
 20
0.0
 30
0.0
 70
   128
 71
    -7
 72
    -1
 73
     8
  0
VERTEX
  5
72B
330
6D0
100
AcDbEntity
  8
0
 62
    18
100
AcDbFaceRecord
 10
0.0
 20
0.0
 30
0.0
 70
   128
 71
    -8
 72
    -1
 73
     9
  0
VERTEX
  5
72C
330
6D0
100
AcDbEntity
  8
0
 62
    18
100
AcDbFaceRecord
 10
0.0
 20
0.0
 30
0.0
 70
   128
 71
    -9
 72
    -1
 73
    10
  0
VERTEX
  5
72D
330
6D0
100
AcDbEntity
  8
0
 62
    18
100
AcDbFaceRecord
 10
0.0
 20
0.0
 30
0.0
 70
   128
 71
   -10
 72
    -1
 73
   -11
  0
VERTEX
  5
72E
330
6D0
100
AcDbEntity
  8
0
 62
    18
100
AcDbFaceRecord
 10
0.0
 20
0.0
 30
0.0
 70
   128
 71
   -11
 72
    -1
 73
    12
  0
VERTEX
  5
72F
330
6D0
100
AcDbEntity
  8
0
 62
    18
100
AcDbFaceRecord
 10
0.0
 20
0.0
 30
0.0
 70
   128
 71
   -12
 72
    -1
 73
    13
  0
VERTEX
  5
730
330
6D0
100
AcDbEntity
  8
0
 62
    18
100
AcDbFaceRecord
 10
0.0
 20
0.0
 30
0.0
 70
   128
 71
   -13
 72
     1
 73
   -14
  0
VERTEX
  5
731
330
6D0
100
AcDbEntity
  8
0
 62
    18
100
AcDbFaceRecord
 10
0.0
 20
0.0
 30
0.0
 70
   128
 71
   -10
 72
    11
 73
   -15
  0
VERTEX
  5
732
330
6D0
100
AcDbEntity
  8
0
 62
    18
100
AcDbFaceRecord
 10
0.0
 20
0.0
 30
0.0
 70
   128
 71
   -13
 72
   -14
 73
    16
  0
VERTEX
  5
733
330
6D0
100
AcDbEntity
  8
0
 62
    18
100
AcDbFaceRecord
 10
0.0
 20
0.0
 30
0.0
 70
   128
 71
   -16
 72
   -14
 73
    17
  0
VERTEX
  5
734
330
6D0
100
AcDbEntity
  8
0
 62
    18
100
AcDbFaceRecord
 10
0.0
 20
0.0
 30
0.0
 70
   128
 71
   -17
 72
   -14
 73
    18
  0
VERTEX
  5
735
330
6D0
100
AcDbEntity
  8
0
 62
    18
100
AcDbFaceRecord
 10
0.0
 20
0.0
 30
0.0
 70
   128
 71
   -18
 72
   -14
 73
   -19
  0
VERTEX
  5
736
330
6D0
100
AcDbEntity
  8
0
 62
    18
100
AcDbFaceRecord
 10
0.0
 20
0.0
 30
0.0
 70
   128
 71
   -19
 72
   -14
 73
    20
  0
VERTEX
  5
737
330
6D0
100
AcDbEntity
  8
0
 62
    18
100
AcDbFaceRecord
 10
0.0
 20
0.0
 30
0.0
 70
   128
 71
   -21
 72
    22
 73
    23
  0
VERTEX
  5
738
330
6D0
100
AcDbEntity
  8
0
 62
    18
100
AcDbFaceRecord
 10
0.0
 20
0.0
 30
0.0
 70
   128
 71
   -22
 72
   -21
 73
   -24
  0
VERTEX
  5
739
330
6D0
100
AcDbEntity
  8
0
 62
    18
100
AcDbFaceRecord
 10
0.0
 20
0.0
 30
0.0
 70
   128
 71
   -24
 72
   -21
 73
    25
  0
VERTEX
  5
73A
330
6D0
100
AcDbEntity
  8
0
 62
    18
100
AcDbFaceRecord
 10
0.0
 20
0.0
 30
0.0
 70
   128
 71
   -25
 72
    21
 73
   -26
  0
VERTEX
  5
73B
330
6D0
100
AcDbEntity
  8
0
 62
    18
100
AcDbFaceRecord
 10
0.0
 20
0.0
 30
0.0
 70
   128
 71
   -27
 72
    28
 73
    29
  0
VERTEX
  5
73C
330
6D0
100
AcDbEntity
  8
0
 62
    18
100
AcDbFaceRecord
 10
0.0
 20
0.0
 30
0.0
 70
   128
 71
   -28
 72
    27
 73
   -30
  0
VERTEX
  5
73D
330
6D0
100
AcDbEntity
  8
0
 62
    18
100
AcDbFaceRecord
 10
0.0
 20
0.0
 30
0.0
 70
   128
 71
   -28
 72
   -30
 73
    31
  0
VERTEX
  5
73E
330
6D0
100
AcDbEntity
  8
0
 62
    18
100
AcDbFaceRecord
 10
0.0
 20
0.0
 30
0.0
 70
   128
 71
   -31
 72
    30
 73
   -32
  0
VERTEX
  5
73F
330
6D0
100
AcDbEntity
  8
0
 62
    18
100
AcDbFaceRecord
 10
0.0
 20
0.0
 30
0.0
 70
   128
 71
   -31
 72
   -32
 73
    33
  0
VERTEX
  5
740
330
6D0
100
AcDbEntity
  8
0
 62
    18
100
AcDbFaceRecord
 10
0.0
 20
0.0
 30
0.0
 70
   128
 71
   -34
 72
    35
 73
    36
  0
VERTEX
  5
741
330
6D0
100
AcDbEntity
  8
0
 62
    18
100
AcDbFaceRecord
 10
0.0
 20
0.0
 30
0.0
 70
   128
 71
   -35
 72
   -34
 73
   -37
  0
VERTEX
  5
742
330
6D0
100
AcDbEntity
  8
0
 62
    18
100
AcDbFaceRecord
 10
0.0
 20
0.0
 30
0.0
 70
   128
 71
   -20
 72
    38
 73
    39
  0
VERTEX
  5
743
330
6D0
100
AcDbEntity
  8
0
 62
    18
100
AcDbFaceRecord
 10
0.0
 20
0.0
 30
0.0
 70
   128
 71
   -38
 72
   -20
 73
    40
  0
VERTEX
  5
744
330
6D0
100
AcDbEntity
  8
0
 62
    18
100
AcDbFaceRecord
 10
0.0
 20
0.0
 30
0.0
 70
   128
 71
   -40
 72
   -20
 73
   -14
  0
VERTEX
  5
745
330
6D0
100
AcDbEntity
  8
0
 62
    18
100
AcDbFaceRecord
 10
0.0
 20
0.0
 30
0.0
 70
   128
 71
   -40
 72
    14
 73
   -41
  0
VERTEX
  5
746
330
6D0
100
AcDbEntity
  8
0
 62
    18
100
AcDbFaceRecord
 10
0.0
 20
0.0
 30
0.0
 70
   128
 71
   -40
 72
   -41
 73
    26
  0
VERTEX
  5
747
330
6D0
100
AcDbEntity
  8
0
 62
    18
100
AcDbFaceRecord
 10
0.0
 20
0.0
 30
0.0
 70
   128
 71
   -26
 72
    41
 73
   -42
  0
VERTEX
  5
748
330
6D0
100
AcDbEntity
  8
0
 62
    18
100
AcDbFaceRecord
 10
0.0
 20
0.0
 30
0.0
 70
   128
 71
   -26
 72
   -42
 73
   -34
  0
VERTEX
  5
749
330
6D0
100
AcDbEntity
  8
0
 62
    18
100
AcDbFaceRecord
 10
0.0
 20
0.0
 30
0.0
 70
   128
 71
   -43
 72
   -44
 73
    45
  0
VERTEX
  5
74A
330
6D0
100
AcDbEntity
  8
0
 62
    18
100
AcDbFaceRecord
 10
0.0
 20
0.0
 30
0.0
 70
   128
 71
   -44
 72
    43
 73
    46
  0
VERTEX
  5
74B
330
6D0
100
AcDbEntity
  8
0
 62
    18
100
AcDbFaceRecord
 10
0.0
 20
0.0
 30
0.0
 70
   128
 71
   -47
 72
    48
 73
    49
  0
VERTEX
  5
74C
330
6D0
100
AcDbEntity
  8
0
 62
    18
100
AcDbFaceRecord
 10
0.0
 20
0.0
 30
0.0
 70
   128
 71
   -48
 72
   -47
 73
   -50
  0
VERTEX
  5
74D
330
6D0
100
AcDbEntity
  8
0
 62
    18
100
AcDbFaceRecord
 10
0.0
 20
0.0
 30
0.0
 70
   128
 71
   -50
 72
   -47
 73
    51
  0
VERTEX
  5
74E
330
6D0
100
AcDbEntity
  8
0
 62
    18
100
AcDbFaceRecord
 10
0.0
 20
0.0
 30
0.0
 70
   128
 71
   -51
 72
    47
 73
   -33
  0
VERTEX
  5
74F
330
6D0
100
AcDbEntity
  8
0
 62
    18
100
AcDbFaceRecord
 10
0.0
 20
0.0
 30
0.0
 70
   128
 71
   -51
 72
   -33
 73
    52
  0
VERTEX
  5
750
330
6D0
100
AcDbEntity
  8
0
 62
    18
100
AcDbFaceRecord
 10
0.0
 20
0.0
 30
0.0
 70
   128
 71
   -52
 72
   -33
 73
   -32
  0
VERTEX
  5
751
330
6D0
100
AcDbEntity
  8
0
 62
    18
100
AcDbFaceRecord
 10
0.0
 20
0.0
 30
0.0
 70
   128
 71
   -52
 72
    32
 73
   -37
  0
VERTEX
  5
752
330
6D0
100
AcDbEntity
  8
0
 62
    18
100
AcDbFaceRecord
 10
0.0
 20
0.0
 30
0.0
 70
   128
 71
   -52
 72
   -37
 73
   -34
  0
VERTEX
  5
753
330
6D0
100
AcDbEntity
  8
0
 62
    18
100
AcDbFaceRecord
 10
0.0
 20
0.0
 30
0.0
 70
   128
 71
   -52
 72
   -34
 73
   -42
  0
VERTEX
  5
754
330
6D0
100
AcDbEntity
  8
0
 62
    18
100
AcDbFaceRecord
 10
0.0
 20
0.0
 30
0.0
 70
   128
 71
   -52
 72
    42
 73
   -53
  0
VERTEX
  5
755
330
6D0
100
AcDbEntity
  8
0
 62
    18
100
AcDbFaceRecord
 10
0.0
 20
0.0
 30
0.0
 70
   128
 71
   -52
 72
   -53
 73
    54
  0
VERTEX
  5
756
330
6D0
100
AcDbEntity
  8
0
 62
    18
100
AcDbFaceRecord
 10
0.0
 20
0.0
 30
0.0
 70
   128
 71
   -54
 72
    53
 73
   -45
  0
VERTEX
  5
757
330
6D0
100
AcDbEntity
  8
0
 62
    18
100
AcDbFaceRecord
 10
0.0
 20
0.0
 30
0.0
 70
   128
 71
   -54
 72
   -45
 73
    55
  0
VERTEX
  5
758
330
6D0
100
AcDbEntity
  8
0
 62
    18
100
AcDbFaceRecord
 10
0.0
 20
0.0
 30
0.0
 70
   128
 71
   -55
 72
   -45
 73
    56
  0
VERTEX
  5
759
330
6D0
100
AcDbEntity
  8
0
 62
    18
100
AcDbFaceRecord
 10
0.0
 20
0.0
 30
0.0
 70
   128
 71
   -56
 72
   -45
 73
    44
  0
VERTEX
  5
75A
330
6D0
100
AcDbEntity
  8
0
 62
    18
100
AcDbFaceRecord
 10
0.0
 20
0.0
 30
0.0
 70
   128
 71
   -25
 72
    34
 73
    57
  0
VERTEX
  5
75B
330
6D0
100
AcDbEntity
  8
0
 62
    18
100
AcDbFaceRecord
 10
0.0
 20
0.0
 30
0.0
 70
   128
 71
   -34
 72
   -25
 73
   -26
  0
VERTEX
  5
75C
330
6D0
100
AcDbEntity
  8
0
 62
    18
100
AcDbFaceRecord
 10
0.0
 20
0.0
 30
0.0
 70
   128
 71
    24
 72
    58
 73
   -22
  0
VERTEX
  5
75D
330
6D0
100
AcDbEntity
  8
0
 62
    18
100
AcDbFaceRecord
 10
0.0
 20
0.0
 30
0.0
 70
   128
 71
   -35
 72
    59
 73
    60
  0
VERTEX
  5
75E
330
6D0
100
AcDbEntity
  8
0
 62
    18
100
AcDbFaceRecord
 10
0.0
 20
0.0
 30
0.0
 70
   128
 71
   -59
 72
   -35
 73
    37
  0
VERTEX
  5
75F
330
6D0
100
AcDbEntity
  8
0
 62
    18
100
AcDbFaceRecord
 10
0.0
 20
0.0
 30
0.0
 70
   128
 71
   -61
 72
    62
 73
    63
  0
VERTEX
  5
760
330
6D0
100
AcDbEntity
  8
0
 62
    18
100
AcDbFaceRecord
 10
0.0
 20
0.0
 30
0.0
 70
   128
 71
   -62
 72
   -61
 73
   -64
  0
VERTEX
  5
761
330
6D0
100
AcDbEntity
  8
0
 62
    18
100
AcDbFaceRecord
 10
0.0
 20
0.0
 30
0.0
 70
   128
 71
   -64
 72
   -61
 73
    50
  0
VERTEX
  5
762
330
6D0
100
AcDbEntity
  8
0
 62
    18
100
AcDbFaceRecord
 10
0.0
 20
0.0
 30
0.0
 70
   128
 71
   -50
 72
    61
 73
   -65
  0
VERTEX
  5
763
330
6D0
100
AcDbEntity
  8
0
 62
    18
100
AcDbFaceRecord
 10
0.0
 20
0.0
 30
0.0
 70
   128
 71
   -50
 72
    65
 73
   -48
  0
VERTEX
  5
764
330
6D0
100
AcDbEntity
  8
0
 62
    18
100
AcDbFaceRecord
 10
0.0
 20
0.0
 30
0.0
 70
   128
 71
   -66
 72
    19
 73
    67
  0
VERTEX
  5
765
330
6D0
100
AcDbEntity
  8
0
 62
    18
100
AcDbFaceRecord
 10
0.0
 20
0.0
 30
0.0
 70
   128
 71
   -19
 72
    66
 73
   -18
  0
VERTEX
  5
766
330
6D0
100
AcDbEntity
  8
0
 62
    18
100
AcDbFaceRecord
 10
0.0
 20
0.0
 30
0.0
 70
   128
 71
   -68
 72
    69
 73
    70
  0
VERTEX
  5
767
330
6D0
100
AcDbEntity
  8
0
 62
    18
100
AcDbFaceRecord
 10
0.0
 20
0.0
 30
0.0
 70
   128
 71
   -69
 72
    68
 73
   -71
  0
VERTEX
  5
768
330
6D0
100
AcDbEntity
  8
0
 62
    18
100
AcDbFaceRecord
 10
0.0
 20
0.0
 30
0.0
 70
   128
 71
   -69
 72
    71
 73
   -72
  0
VERTEX
  5
769
330
6D0
100
AcDbEntity
  8
0
 62
    18
100
AcDbFaceRecord
 10
0.0
 20
0.0
 30
0.0
 70
   128
 71
   -69
 72
    72
 73
   -73
  0
VERTEX
  5
76A
330
6D0
100
AcDbEntity
  8
0
 62
    18
100
AcDbFaceRecord
 10
0.0
 20
0.0
 30
0.0
 70
   128
 71
   -69
 72
    73
 73
   -74
  0
VERTEX
  5
76B
330
6D0
100
AcDbEntity
  8
0
 62
    18
100
AcDbFaceRecord
 10
0.0
 20
0.0
 30
0.0
 70
   128
 71
   -69
 72
   -74
 73
    75
  0
VERTEX
  5
76C
330
6D0
100
AcDbEntity
  8
0
 62
    18
100
AcDbFaceRecord
 10
0.0
 20
0.0
 30
0.0
 70
   128
 71
   -75
 72
    74
 73
   -76
  0
VERTEX
  5
76D
330
6D0
100
AcDbEntity
  8
0
 62
    18
100
AcDbFaceRecord
 10
0.0
 20
0.0
 30
0.0
 70
   128
 71
   -75
 72
   -76
 73
   -77
  0
VERTEX
  5
76E
330
6D0
100
AcDbEntity
  8
0
 62
    18
100
AcDbFaceRecord
 10
0.0
 20
0.0
 30
0.0
 70
   128
 71
   -77
 72
    76
 73
    78
  0
VERTEX
  5
76F
330
6D0
100
AcDbEntity
  8
0
 62
    18
100
AcDbFaceRecord
 10
0.0
 20
0.0
 30
0.0
 70
   128
 71
   -75
 72
    77
 73
   -79
  0
VERTEX
  5
770
330
6D0
100
AcDbEntity
  8
0
 62
    18
100
AcDbFaceRecord
 10
0.0
 20
0.0
 30
0.0
 70
   128
 71
   -75
 72
    79
 73
   -80
  0
VERTEX
  5
771
330
6D0
100
AcDbEntity
  8
0
 62
    18
100
AcDbFaceRecord
 10
0.0
 20
0.0
 30
0.0
 70
   128
 71
   -75
 72
   -80
 73
    64
  0
VERTEX
  5
772
330
6D0
100
AcDbEntity
  8
0
 62
    18
100
AcDbFaceRecord
 10
0.0
 20
0.0
 30
0.0
 70
   128
 71
   -64
 72
    80
 73
   -81
  0
VERTEX
  5
773
330
6D0
100
AcDbEntity
  8
0
 62
    18
100
AcDbFaceRecord
 10
0.0
 20
0.0
 30
0.0
 70
   128
 71
   -64
 72
    81
 73
   -82
  0
VERTEX
  5
774
330
6D0
100
AcDbEntity
  8
0
 62
    18
100
AcDbFaceRecord
 10
0.0
 20
0.0
 30
0.0
 70
   128
 71
   -64
 72
    82
 73
   -62
  0
VERTEX
  5
775
330
6D0
100
AcDbEntity
  8
0
 62
    18
100
AcDbFaceRecord
 10
0.0
 20
0.0
 30
0.0
 70
   128
 71
   -10
 72
    83
 73
    84
  0
VERTEX
  5
776
330
6D0
100
AcDbEntity
  8
0
 62
    18
100
AcDbFaceRecord
 10
0.0
 20
0.0
 30
0.0
 70
   128
 71
   -83
 72
   -10
 73
    15
  0
SEQEND
  5
777
330
6D0
100
AcDbEntity
  8
0
 62
    18
  0
POLYLINE
  5
778
330
6B
100
AcDbEntity
  8
0
 62
    33
100
AcDbPolyFaceMesh
 66
     1
 10
0.0
 20
0.0
 30
0.0
 70
    64
 71
    51
 72
    49
  0
VERTEX
  5
779
330
778
100
AcDbEntity
  8
0
 62
    33
100
AcDbVertex
100
AcDbPolyFaceMeshVertex
 10
-149.2650577837848
 20
-0.0000000000002249
 30
791.3072179068388
 70
   192
  0
VERTEX
  5
77A
330
778
100
AcDbEntity
  8
0
 62
    33
100
AcDbVertex
100
AcDbPolyFaceMeshVertex
 10
-162.0038360905153
 20
-0.0000000000001805
 30
796.3434411621162
 70
   192
  0
VERTEX
  5
77B
330
778
100
AcDbEntity
  8
0
 62
    33
100
AcDbVertex
100
AcDbPolyFaceMeshVertex
 10
-155.7822963698974
 20
-0.00000000000027
 30
790.4186383672005
 70
   192
  0
VERTEX
  5
77C
330
778
100
AcDbEntity
  8
0
 62
    33
100
AcDbVertex
100
AcDbPolyFaceMeshVertex
 10
-145.1186004226706
 20
-0.0000000000002249
 30
796.7875826376186
 70
   192
  0
VERTEX
  5
77D
330
778
100
AcDbEntity
  8
0
 62
    33
100
AcDbVertex
100
AcDbPolyFaceMeshVertex
 10
-169.5575036490115
 20
-0.0000000000002263
 30
826.2630057078691
 70
   192
  0
VERTEX
  5
77E
330
778
100
AcDbEntity
  8
0
 62
    33
100
AcDbVertex
100
AcDbPolyFaceMeshVertex
 10
-144.2291311171385
 20
-0.00000000000027
 30
807.7483120991799
 70
   192
  0
VERTEX
  5
77F
330
778
100
AcDbEntity
  8
0
 62
    33
100
AcDbVertex
100
AcDbPolyFaceMeshVertex
 10
-150.1542305006853
 20
-0.0000000000002256
 30
824.6336960613409
 70
   192
  0
VERTEX
  5
780
330
778
100
AcDbEntity
  8
0
 62
    33
100
AcDbVertex
100
AcDbPolyFaceMeshVertex
 10
-152.2279782113476
 20
-0.00000000000027
 30
853.072393570576
 70
   192
  0
VERTEX
  5
781
330
778
100
AcDbEntity
  8
0
 62
    33
100
AcDbVertex
100
AcDbPolyFaceMeshVertex
 10
-207.2757179627864
 20
-0.0000000000002249
 30
831.1432233430368
 70
   192
  0
VERTEX
  5
782
330
778
100
AcDbEntity
  8
0
 62
    33
100
AcDbVertex
100
AcDbPolyFaceMeshVertex
 10
-201.5742464073064
 20
-0.0000000000001805
 30
860.7466244077299
 70
   192
  0
VERTEX
  5
783
330
778
100
AcDbEntity
  8
0
 62
    33
100
AcDbVertex
100
AcDbPolyFaceMeshVertex
 10
-154.0242672573466
 20
-0.00000000000027
 30
858.1686760237068
 70
   192
  0
VERTEX
  5
784
330
778
100
AcDbEntity
  8
0
 62
    33
100
AcDbVertex
100
AcDbPolyFaceMeshVertex
 10
-157.4119026050568
 20
-0.0000000000002256
 30
867.4398883465706
 70
   192
  0
VERTEX
  5
785
330
778
100
AcDbEntity
  8
0
 62
    33
100
AcDbVertex
100
AcDbPolyFaceMeshVertex
 10
-201.9486895544336
 20
-0.0000000000003172
 30
872.4163489926232
 70
   192
  0
VERTEX
  5
786
330
778
100
AcDbEntity
  8
0
 62
    33
100
AcDbVertex
100
AcDbPolyFaceMeshVertex
 10
-166.150293451631
 20
-0.0000000000002256
 30
882.1371896806673
 70
   192
  0
VERTEX
  5
787
330
778
100
AcDbEntity
  8
0
 62
    33
100
AcDbVertex
100
AcDbPolyFaceMeshVertex
 10
-206.7252494629315
 20
-0.0000000000001805
 30
890.4600598546687
 70
   192
  0
VERTEX
  5
788
330
778
100
AcDbEntity
  8
0
 62
    33
100
AcDbVertex
100
AcDbPolyFaceMeshVertex
 10
-168.5197400277863
 20
-0.00000000000027
 30
894.5801208275903
 70
   192
  0
VERTEX
  5
789
330
778
100
AcDbEntity
  8
0
 62
    33
100
AcDbVertex
100
AcDbPolyFaceMeshVertex
 10
-202.4795832046175
 20
-0.0000000000002256
 30
905.3200400530845
 70
   192
  0
VERTEX
  5
78A
330
778
100
AcDbEntity
  8
0
 62
    33
100
AcDbVertex
100
AcDbPolyFaceMeshVertex
 10
-167.7294796194536
 20
-0.0000000000001812
 30
905.2457446009212
 70
   192
  0
VERTEX
  5
78B
330
778
100
AcDbEntity
  8
0
 62
    33
100
AcDbVertex
100
AcDbPolyFaceMeshVertex
 10
-166.3197733088906
 20
-0.0000000000003151
 30
910.854938238521
 70
   192
  0
VERTEX
  5
78C
330
778
100
AcDbEntity
  8
0
 62
    33
100
AcDbVertex
100
AcDbPolyFaceMeshVertex
 10
-201.4183890815123
 20
-0.0000000000001805
 30
924.9562835713651
 70
   192
  0
VERTEX
  5
78D
330
778
100
AcDbEntity
  8
0
 62
    33
100
AcDbVertex
100
AcDbPolyFaceMeshVertex
 10
-126.6224436034437
 20
-0.0000000000003617
 30
1068.241662163992
 70
   192
  0
VERTEX
  5
78E
330
778
100
AcDbEntity
  8
0
 62
    33
100
AcDbVertex
100
AcDbPolyFaceMeshVertex
 10
-203.3456220082695
 20
-0.0000000000002714
 30
1025.346048406399
 70
   192
  0
VERTEX
  5
78F
330
778
100
AcDbEntity
  8
0
 62
    33
100
AcDbVertex
100
AcDbPolyFaceMeshVertex
 10
-203.3456220082696
 20
-0.0000000000003617
 30
1065.262651803176
 70
   192
  0
VERTEX
  5
790
330
778
100
AcDbEntity
  8
0
 62
    33
100
AcDbVertex
100
AcDbPolyFaceMeshVertex
 10
-193.3664526222849
 20
-0.0000000000003617
 30
1111.167157226198
 70
   192
  0
VERTEX
  5
791
330
778
100
AcDbEntity
  8
0
 62
    33
100
AcDbVertex
100
AcDbPolyFaceMeshVertex
 10
-124.2544799704443
 20
-0.000000000000361
 30
1084.516073545494
 70
   192
  0
VERTEX
  5
792
330
778
100
AcDbEntity
  8
0
 62
    33
100
AcDbVertex
100
AcDbPolyFaceMeshVertex
 10
-118.3375367742614
 20
-0.0000000000001791
 30
1114.696339498238
 70
   192
  0
VERTEX
  5
793
330
778
100
AcDbEntity
  8
0
 62
    33
100
AcDbVertex
100
AcDbPolyFaceMeshVertex
 10
-186.7136730316285
 20
-0.0000000000003617
 30
1153.744679676628
 70
   192
  0
VERTEX
  5
794
330
778
100
AcDbEntity
  8
0
 62
    33
100
AcDbVertex
100
AcDbPolyFaceMeshVertex
 10
-119.4481129044919
 20
-0.0000000000004068
 30
1172.549066231025
 70
   192
  0
VERTEX
  5
795
330
778
100
AcDbEntity
  8
0
 62
    33
100
AcDbVertex
100
AcDbPolyFaceMeshVertex
 10
-171.6250229984146
 20
-0.0000000000003624
 30
1323.409021880665
 70
   192
  0
VERTEX
  5
796
330
778
100
AcDbEntity
  8
0
 62
    33
100
AcDbVertex
100
AcDbPolyFaceMeshVertex
 10
-132.8457628558508
 20
-0.000000000000361
 30
1217.208047696533
 70
   192
  0
VERTEX
  5
797
330
778
100
AcDbEntity
  8
0
 62
    33
100
AcDbVertex
100
AcDbPolyFaceMeshVertex
 10
-149.799658791861
 20
-0.0000000000004526
 30
1283.353689151554
 70
   192
  0
VERTEX
  5
798
330
778
100
AcDbEntity
  8
0
 62
    33
100
AcDbVertex
100
AcDbPolyFaceMeshVertex
 10
-140.6980951661536
 20
-0.000000000000361
 30
1274.616558806658
 70
   192
  0
VERTEX
  5
799
330
778
100
AcDbEntity
  8
0
 62
    33
100
AcDbVertex
100
AcDbPolyFaceMeshVertex
 10
-154.4154676621468
 20
-0.0000000000001805
 30
759.2907717371745
 70
   192
  0
VERTEX
  5
79A
330
778
100
AcDbEntity
  8
0
 62
    33
100
AcDbVertex
100
AcDbPolyFaceMeshVertex
 10
-175.1863109898013
 20
-0.0000000000001812
 30
763.905394252934
 70
   192
  0
VERTEX
  5
79B
330
778
100
AcDbEntity
  8
0
 62
    33
100
AcDbVertex
100
AcDbPolyFaceMeshVertex
 10
-158.0145707040362
 20
-0.0000000000002263
 30
758.3574073141975
 70
   192
  0
VERTEX
  5
79C
330
778
100
AcDbEntity
  8
0
 62
    33
100
AcDbVertex
100
AcDbPolyFaceMeshVertex
 10
-153.7170025214628
 20
-0.0000000000002707
 30
761.2973668808156
 70
   192
  0
VERTEX
  5
79D
330
778
100
AcDbEntity
  8
0
 62
    33
100
AcDbVertex
100
AcDbPolyFaceMeshVertex
 10
-153.3481934720983
 20
-0.0000000000002707
 30
762.3569050084599
 70
   192
  0
VERTEX
  5
79E
330
778
100
AcDbEntity
  8
0
 62
    33
100
AcDbVertex
100
AcDbPolyFaceMeshVertex
 10
-154.1480930109512
 20
-0.0000000000003165
 30
767.5561037166852
 70
   192
  0
VERTEX
  5
79F
330
778
100
AcDbEntity
  8
0
 62
    33
100
AcDbVertex
100
AcDbPolyFaceMeshVertex
 10
-192.8122767645376
 20
-0.0000000000002707
 30
770.7186282931712
 70
   192
  0
VERTEX
  5
7A0
330
778
100
AcDbEntity
  8
0
 62
    33
100
AcDbVertex
100
AcDbPolyFaceMeshVertex
 10
-157.3481360493084
 20
-0.0000000000002256
 30
771.4221365268229
 70
   192
  0
VERTEX
  5
7A1
330
778
100
AcDbEntity
  8
0
 62
    33
100
AcDbVertex
100
AcDbPolyFaceMeshVertex
 10
-196.2188937846557
 20
-0.0000000000002249
 30
773.3851083836612
 70
   192
  0
VERTEX
  5
7A2
330
778
100
AcDbEntity
  8
0
 62
    33
100
AcDbVertex
100
AcDbPolyFaceMeshVertex
 10
-167.4797519918251
 20
-0.0000000000002707
 30
777.1550464772289
 70
   192
  0
VERTEX
  5
7A3
330
778
100
AcDbEntity
  8
0
 62
    33
100
AcDbVertex
100
AcDbPolyFaceMeshVertex
 10
-205.4023158726264
 20
-0.0000000000002707
 30
803.1563786137211
 70
   192
  0
VERTEX
  5
7A4
330
778
100
AcDbEntity
  8
0
 62
    33
100
AcDbVertex
100
AcDbPolyFaceMeshVertex
 10
-173.0275906362467
 20
-0.0000000000002256
 30
782.5461380299623
 70
   192
  0
VERTEX
  5
7A5
330
778
100
AcDbEntity
  8
0
 62
    33
100
AcDbVertex
100
AcDbPolyFaceMeshVertex
 10
-178.2785440606491
 20
-0.000000000000227
 30
787.5531473050497
 70
   192
  0
VERTEX
  5
7A6
330
778
100
AcDbEntity
  8
0
 62
    33
100
AcDbVertex
100
AcDbPolyFaceMeshVertex
 10
-178.5195223236514
 20
-0.0000000000001805
 30
790.0308487316612
 70
   192
  0
VERTEX
  5
7A7
330
778
100
AcDbEntity
  8
0
 62
    33
100
AcDbVertex
100
AcDbPolyFaceMeshVertex
 10
-180.1451246122871
 20
-0.0000000000002256
 30
802.7512385432454
 70
   192
  0
VERTEX
  5
7A8
330
778
100
AcDbEntity
  8
0
 62
    33
100
AcDbVertex
100
AcDbPolyFaceMeshVertex
 10
-178.8112172426212
 20
-0.0000000000002256
 30
815.1490882181965
 70
   192
  0
VERTEX
  5
7A9
330
778
100
AcDbEntity
  8
0
 62
    33
100
AcDbVertex
100
AcDbPolyFaceMeshVertex
 10
-211.0303817418393
 20
-0.0000000000003158
 30
814.2655506852925
 70
   192
  0
VERTEX
  5
7AA
330
778
100
AcDbEntity
  8
0
 62
    33
100
AcDbVertex
100
AcDbPolyFaceMeshVertex
 10
-211.0303817418395
 20
-0.0000000000001819
 30
818.7087449721104
 70
   192
  0
VERTEX
  5
7AB
330
778
100
AcDbEntity
  8
0
 62
    33
100
AcDbVertex
100
AcDbPolyFaceMeshVertex
 10
-176.0120137395846
 20
-0.0000000000002256
 30
824.2146163251904
 70
   192
  0
VERTEX
  5
7AC
330
778
100
AcDbEntity
  8
0
 62
    33
100
AcDbFaceRecord
 10
0.0
 20
0.0
 30
0.0
 70
   128
 71
    -1
 72
     2
 73
     3
  0
VERTEX
  5
7AD
330
778
100
AcDbEntity
  8
0
 62
    33
100
AcDbFaceRecord
 10
0.0
 20
0.0
 30
0.0
 70
   128
 71
    -2
 72
     1
 73
    -4
  0
VERTEX
  5
7AE
330
778
100
AcDbEntity
  8
0
 62
    33
100
AcDbFaceRecord
 10
0.0
 20
0.0
 30
0.0
 70
   128
 71
    -2
 72
    -4
 73
     5
  0
VERTEX
  5
7AF
330
778
100
AcDbEntity
  8
0
 62
    33
100
AcDbFaceRecord
 10
0.0
 20
0.0
 30
0.0
 70
   128
 71
    -5
 72
     4
 73
    -6
  0
VERTEX
  5
7B0
330
778
100
AcDbEntity
  8
0
 62
    33
100
AcDbFaceRecord
 10
0.0
 20
0.0
 30
0.0
 70
   128
 71
    -5
 72
     6
 73
    -7
  0
VERTEX
  5
7B1
330
778
100
AcDbEntity
  8
0
 62
    33
100
AcDbFaceRecord
 10
0.0
 20
0.0
 30
0.0
 70
   128
 71
    -5
 72
     7
 73
    -8
  0
VERTEX
  5
7B2
330
778
100
AcDbEntity
  8
0
 62
    33
100
AcDbFaceRecord
 10
0.0
 20
0.0
 30
0.0
 70
   128
 71
    -5
 72
    -8
 73
    -9
  0
VERTEX
  5
7B3
330
778
100
AcDbEntity
  8
0
 62
    33
100
AcDbFaceRecord
 10
0.0
 20
0.0
 30
0.0
 70
   128
 71
    -9
 72
    -8
 73
    10
  0
VERTEX
  5
7B4
330
778
100
AcDbEntity
  8
0
 62
    33
100
AcDbFaceRecord
 10
0.0
 20
0.0
 30
0.0
 70
   128
 71
   -10
 72
     8
 73
   -11
  0
VERTEX
  5
7B5
330
778
100
AcDbEntity
  8
0
 62
    33
100
AcDbFaceRecord
 10
0.0
 20
0.0
 30
0.0
 70
   128
 71
   -10
 72
    11
 73
   -12
  0
VERTEX
  5
7B6
330
778
100
AcDbEntity
  8
0
 62
    33
100
AcDbFaceRecord
 10
0.0
 20
0.0
 30
0.0
 70
   128
 71
   -10
 72
   -12
 73
    13
  0
VERTEX
  5
7B7
330
778
100
AcDbEntity
  8
0
 62
    33
100
AcDbFaceRecord
 10
0.0
 20
0.0
 30
0.0
 70
   128
 71
   -13
 72
    12
 73
   -14
  0
VERTEX
  5
7B8
330
778
100
AcDbEntity
  8
0
 62
    33
100
AcDbFaceRecord
 10
0.0
 20
0.0
 30
0.0
 70
   128
 71
   -13
 72
   -14
 73
    15
  0
VERTEX
  5
7B9
330
778
100
AcDbEntity
  8
0
 62
    33
100
AcDbFaceRecord
 10
0.0
 20
0.0
 30
0.0
 70
   128
 71
   -15
 72
    14
 73
   -16
  0
VERTEX
  5
7BA
330
778
100
AcDbEntity
  8
0
 62
    33
100
AcDbFaceRecord
 10
0.0
 20
0.0
 30
0.0
 70
   128
 71
   -15
 72
   -16
 73
    17
  0
VERTEX
  5
7BB
330
778
100
AcDbEntity
  8
0
 62
    33
100
AcDbFaceRecord
 10
0.0
 20
0.0
 30
0.0
 70
   128
 71
   -17
 72
    16
 73
   -18
  0
VERTEX
  5
7BC
330
778
100
AcDbEntity
  8
0
 62
    33
100
AcDbFaceRecord
 10
0.0
 20
0.0
 30
0.0
 70
   128
 71
   -17
 72
    18
 73
   -19
  0
VERTEX
  5
7BD
330
778
100
AcDbEntity
  8
0
 62
    33
100
AcDbFaceRecord
 10
0.0
 20
0.0
 30
0.0
 70
   128
 71
   -17
 72
   -19
 73
    20
  0
VERTEX
  5
7BE
330
778
100
AcDbEntity
  8
0
 62
    33
100
AcDbFaceRecord
 10
0.0
 20
0.0
 30
0.0
 70
   128
 71
   -20
 72
    19
 73
   -21
  0
VERTEX
  5
7BF
330
778
100
AcDbEntity
  8
0
 62
    33
100
AcDbFaceRecord
 10
0.0
 20
0.0
 30
0.0
 70
   128
 71
   -20
 72
   -21
 73
    22
  0
VERTEX
  5
7C0
330
778
100
AcDbEntity
  8
0
 62
    33
100
AcDbFaceRecord
 10
0.0
 20
0.0
 30
0.0
 70
   128
 71
   -22
 72
   -21
 73
    23
  0
VERTEX
  5
7C1
330
778
100
AcDbEntity
  8
0
 62
    33
100
AcDbFaceRecord
 10
0.0
 20
0.0
 30
0.0
 70
   128
 71
   -23
 72
   -21
 73
    24
  0
VERTEX
  5
7C2
330
778
100
AcDbEntity
  8
0
 62
    33
100
AcDbFaceRecord
 10
0.0
 20
0.0
 30
0.0
 70
   128
 71
   -24
 72
    21
 73
   -25
  0
VERTEX
  5
7C3
330
778
100
AcDbEntity
  8
0
 62
    33
100
AcDbFaceRecord
 10
0.0
 20
0.0
 30
0.0
 70
   128
 71
   -24
 72
    25
 73
   -26
  0
VERTEX
  5
7C4
330
778
100
AcDbEntity
  8
0
 62
    33
100
AcDbFaceRecord
 10
0.0
 20
0.0
 30
0.0
 70
   128
 71
   -24
 72
   -26
 73
    27
  0
VERTEX
  5
7C5
330
778
100
AcDbEntity
  8
0
 62
    33
100
AcDbFaceRecord
 10
0.0
 20
0.0
 30
0.0
 70
   128
 71
   -27
 72
    26
 73
   -28
  0
VERTEX
  5
7C6
330
778
100
AcDbEntity
  8
0
 62
    33
100
AcDbFaceRecord
 10
0.0
 20
0.0
 30
0.0
 70
   128
 71
   -27
 72
   -28
 73
    29
  0
VERTEX
  5
7C7
330
778
100
AcDbEntity
  8
0
 62
    33
100
AcDbFaceRecord
 10
0.0
 20
0.0
 30
0.0
 70
   128
 71
   -29
 72
    28
 73
   -30
  0
VERTEX
  5
7C8
330
778
100
AcDbEntity
  8
0
 62
    33
100
AcDbFaceRecord
 10
0.0
 20
0.0
 30
0.0
 70
   128
 71
   -29
 72
   -30
 73
    31
  0
VERTEX
  5
7C9
330
778
100
AcDbEntity
  8
0
 62
    33
100
AcDbFaceRecord
 10
0.0
 20
0.0
 30
0.0
 70
   128
 71
   -31
 72
    30
 73
    32
  0
VERTEX
  5
7CA
330
778
100
AcDbEntity
  8
0
 62
    33
100
AcDbFaceRecord
 10
0.0
 20
0.0
 30
0.0
 70
   128
 71
   -33
 72
    34
 73
    35
  0
VERTEX
  5
7CB
330
778
100
AcDbEntity
  8
0
 62
    33
100
AcDbFaceRecord
 10
0.0
 20
0.0
 30
0.0
 70
   128
 71
   -34
 72
    33
 73
   -36
  0
VERTEX
  5
7CC
330
778
100
AcDbEntity
  8
0
 62
    33
100
AcDbFaceRecord
 10
0.0
 20
0.0
 30
0.0
 70
   128
 71
   -34
 72
    36
 73
   -37
  0
VERTEX
  5
7CD
330
778
100
AcDbEntity
  8
0
 62
    33
100
AcDbFaceRecord
 10
0.0
 20
0.0
 30
0.0
 70
   128
 71
   -34
 72
    37
 73
   -38
  0
VERTEX
  5
7CE
330
778
100
AcDbEntity
  8
0
 62
    33
100
AcDbFaceRecord
 10
0.0
 20
0.0
 30
0.0
 70
   128
 71
   -34
 72
   -38
 73
    39
  0
VERTEX
  5
7CF
330
778
100
AcDbEntity
  8
0
 62
    33
100
AcDbFaceRecord
 10
0.0
 20
0.0
 30
0.0
 70
   128
 71
   -39
 72
    38
 73
   -40
  0
VERTEX
  5
7D0
330
778
100
AcDbEntity
  8
0
 62
    33
100
AcDbFaceRecord
 10
0.0
 20
0.0
 30
0.0
 70
   128
 71
   -39
 72
   -40
 73
    41
  0
VERTEX
  5
7D1
330
778
100
AcDbEntity
  8
0
 62
    33
100
AcDbFaceRecord
 10
0.0
 20
0.0
 30
0.0
 70
   128
 71
   -41
 72
    40
 73
   -42
  0
VERTEX
  5
7D2
330
778
100
AcDbEntity
  8
0
 62
    33
100
AcDbFaceRecord
 10
0.0
 20
0.0
 30
0.0
 70
   128
 71
   -41
 72
   -42
 73
    43
  0
VERTEX
  5
7D3
330
778
100
AcDbEntity
  8
0
 62
    33
100
AcDbFaceRecord
 10
0.0
 20
0.0
 30
0.0
 70
   128
 71
   -43
 72
    42
 73
   -44
  0
VERTEX
  5
7D4
330
778
100
AcDbEntity
  8
0
 62
    33
100
AcDbFaceRecord
 10
0.0
 20
0.0
 30
0.0
 70
   128
 71
   -43
 72
    44
 73
   -45
  0
VERTEX
  5
7D5
330
778
100
AcDbEntity
  8
0
 62
    33
100
AcDbFaceRecord
 10
0.0
 20
0.0
 30
0.0
 70
   128
 71
   -43
 72
    45
 73
   -46
  0
VERTEX
  5
7D6
330
778
100
AcDbEntity
  8
0
 62
    33
100
AcDbFaceRecord
 10
0.0
 20
0.0
 30
0.0
 70
   128
 71
   -43
 72
    46
 73
   -47
  0
VERTEX
  5
7D7
330
778
100
AcDbEntity
  8
0
 62
    33
100
AcDbFaceRecord
 10
0.0
 20
0.0
 30
0.0
 70
   128
 71
   -43
 72
    47
 73
   -48
  0
VERTEX
  5
7D8
330
778
100
AcDbEntity
  8
0
 62
    33
100
AcDbFaceRecord
 10
0.0
 20
0.0
 30
0.0
 70
   128
 71
   -43
 72
   -48
 73
    49
  0
VERTEX
  5
7D9
330
778
100
AcDbEntity
  8
0
 62
    33
100
AcDbFaceRecord
 10
0.0
 20
0.0
 30
0.0
 70
   128
 71
   -49
 72
   -48
 73
    50
  0
VERTEX
  5
7DA
330
778
100
AcDbEntity
  8
0
 62
    33
100
AcDbFaceRecord
 10
0.0
 20
0.0
 30
0.0
 70
   128
 71
   -50
 72
    48
 73
   -51
  0
VERTEX
  5
7DB
330
778
100
AcDbEntity
  8
0
 62
    33
100
AcDbFaceRecord
 10
0.0
 20
0.0
 30
0.0
 70
   128
 71
   -50
 72
   -51
 73
     9
  0
VERTEX
  5
7DC
330
778
100
AcDbEntity
  8
0
 62
    33
100
AcDbFaceRecord
 10
0.0
 20
0.0
 30
0.0
 70
   128
 71
    -9
 72
    51
 73
    -5
  0
SEQEND
  5
7DD
330
778
100
AcDbEntity
  8
0
 62
    33
  0
ENDBLK
  5
6D
330
6B
100
AcDbEntity
  8
0
100
AcDbBlockEnd
  0
ENDSEC
  0
SECTION
  2
ENTITIES
  0
LINE
  5
7DE
330
1F
100
AcDbEntity
  8
0
100
AcDbLine
 10
0.0
 20
0.0
 30
0.0
 11
70.0
 21
0.0
 31
0.0
  0
LINE
  5
7DF
330
1F
100
AcDbEntity
  8
0
100
AcDbLine
 10
70.0
 20
0.0
 30
0.0
 11
70.0
 21
73.0
 31
0.0
  0
LINE
  5
7E0
330
1F
100
AcDbEntity
  8
0
100
AcDbLine
 10
70.0
 20
73.0
 30
0.0
 11
0.0
 21
73.0
 31
0.0
  0
LINE
  5
7E1
330
1F
100
AcDbEntity
  8
0
100
AcDbLine
 10
0.0
 20
73.0
 30
0.0
 11
0.0
 21
0.0
 31
0.0
  0
CIRCLE
  5
7E2
330
1F
100
AcDbEntity
  8
0
100
AcDbCircle
 10
10.0
 20
64.0
 30
0.0
 40
1.75
  0
CIRCLE
  5
7E3
330
1F
100
AcDbEntity
  8
0
100
AcDbCircle
 10
60.0
 20
64.0
 30
0.0
 40
1.749999999999997
  0
CIRCLE
  5
7E4
330
1F
100
AcDbEntity
  8
0
100
AcDbCircle
 10
60.0
 20
8.999999999999998
 30
0.0
 40
1.749999999999997
  0
CIRCLE
  5
7E5
330
1F
100
AcDbEntity
  8
0
100
AcDbCircle
 10
10.0
 20
8.999999999999998
 30
0.0
 40
1.75
  0
CIRCLE
  5
7E6
330
1F
100
AcDbEntity
  8
0
100
AcDbCircle
 10
25.0
 20
26.5
 30
0.0
 40
1.750000000000002
  0
CIRCLE
  5
7E7
330
1F
100
AcDbEntity
  8
0
100
AcDbCircle
 10
45.0
 20
26.5
 30
0.0
 40
1.750000000000002
  0
CIRCLE
  5
7E8
330
1F
100
AcDbEntity
  8
0
100
AcDbCircle
 10
65.0
 20
36.5
 30
0.0
 40
1.749999999999997
  0
CIRCLE
  5
7E9
330
1F
100
AcDbEntity
  8
0
100
AcDbCircle
 10
4.999999999999999
 20
36.5
 30
0.0
 40
1.75
  0
CIRCLE
  5
7EA
330
1F
100
AcDbEntity
  8
0
100
AcDbCircle
 10
10.0
 20
47.7
 30
0.0
 40
1.75
  0
CIRCLE
  5
7EB
330
1F
100
AcDbEntity
  8
0
100
AcDbCircle
 10
60.0
 20
47.7
 30
0.0
 40
1.749999999999997
  0
ARC
  5
7EC
330
1F
100
AcDbEntity
  8
0
100
AcDbCircle
 10
17.7
 20
36.5
 30
0.0
 40
6.2
100
AcDbArc
 50
165.0
 51
345.0
  0
ARC
  5
7ED
330
1F
100
AcDbEntity
  8
0
100
AcDbCircle
 10
35.0
 20
36.5
 30
0.0
 40
6.2
100
AcDbArc
 50
180.0
 51
0.0
  0
ARC
  5
7EE
330
1F
100
AcDbEntity
  8
0
100
AcDbCircle
 10
52.3
 20
36.5
 30
0.0
 40
6.200000000000002
100
AcDbArc
 50
194.9999999999999
 51
14.99999999999998
  0
ARC
  5
7EF
330
1F
100
AcDbEntity
  8
0
100
AcDbCircle
 10
20.6
 20
44.49999999999999
 30
0.0
 40
8.100000000000001
100
AcDbArc
 50
314.9999999999999
 51
320.4945533731282
  0
ARC
  5
7F0
330
1F
100
AcDbEntity
  8
0
100
AcDbCircle
 10
20.6
 20
44.49999999999999
 30
0.0
 40
8.100000000000012
100
AcDbArc
 50
45.0
 51
195.0
  0
ARC
  5
7F1
330
1F
100
AcDbEntity
  8
0
100
AcDbCircle
 10
35.0
 20
44.49999999999999
 30
0.0
 40
8.100000000000005
100
AcDbArc
 50
45.0
 51
135.0
  0
ARC
  5
7F2
330
1F
100
AcDbEntity
  8
0
100
AcDbCircle
 10
49.4
 20
44.49999999999999
 30
0.0
 40
8.100000000000001
100
AcDbArc
 50
345.0
 51
134.9999999999999
  0
LINE
  5
7F3
330
1F
100
AcDbEntity
  8
0
100
AcDbLine
 10
28.8
 20
36.5
 30
0.0
 11
28.8
 21
38.38812444574634
 31
0.0
  0
LINE
  5
7F4
330
1F
100
AcDbEntity
  8
0
100
AcDbLine
 10
41.2
 20
36.5
 30
0.0
 11
41.2
 21
38.38812444574633
 31
0.0
  0
LINE
  5
7F5
330
1F
100
AcDbEntity
  8
0
100
AcDbLine
 10
11.71125987700778
 20
38.10467807963563
 30
0.0
 11
12.77600080705855
 21
42.40356573466957
 31
0.0
  0
LINE
  5
7F6
330
1F
100
AcDbEntity
  8
0
100
AcDbLine
 10
58.28874012299222
 20
38.10467807963563
 30
0.0
 11
57.22399919294146
 21
42.40356573466957
 31
0.0
  0
LINE
  5
7F7
330
1F
100
AcDbEntity
  8
0
100
AcDbLine
 10
46.31125987700777
 20
34.89532192036437
 30
0.0
 11
43.67243507238896
 21
38.77243507238896
 31
0.0
  0
LINE
  5
7F8
330
1F
100
AcDbEntity
  8
0
100
AcDbLine
 10
23.68874012299222
 20
34.89532192036437
 30
0.0
 11
26.32756492761104
 21
38.77243507238895
 31
0.0
  0
ARC
  5
7F9
330
1F
100
AcDbEntity
  8
0
100
AcDbCircle
 10
49.4
 20
44.49999999999999
 30
0.0
 40
8.100000000000001
100
AcDbArc
 50
219.5054466268718
 51
225.0
  0
LINE
  5
7FA
330
1F
100
AcDbEntity
  8
0
100
AcDbLine
 10
27.8
 20
39.38812444574633
 30
0.0
 11
26.80000000000001
 21
39.38812444574633
 31
0.0
  0
LINE
  5
7FB
330
1F
100
AcDbEntity
  8
0
100
AcDbLine
 10
27.8
 20
39.38812444574633
 30
0.0
 11
28.8
 21
38.38812444574634
 31
0.0
  0
LINE
  5
7FC
330
1F
100
AcDbEntity
  8
0
100
AcDbLine
 10
42.2
 20
39.38812444574633
 30
0.0
 11
43.2
 21
39.38812444574633
 31
0.0
  0
LINE
  5
7FD
330
1F
100
AcDbEntity
  8
0
100
AcDbLine
 10
41.2
 20
38.38812444574633
 30
0.0
 11
42.2
 21
39.38812444574633
 31
0.0
  0
LINE
  5
7FE
330
1F
100
AcDbEntity
  8
0
100
AcDbLine
 10
26.32756492761104
 20
50.22756492761103
 30
0.0
 11
29.27243507238896
 21
50.22756492761103
 31
0.0
  0
LINE
  5
7FF
330
1F
100
AcDbEntity
  8
0
100
AcDbLine
 10
40.72756492761103
 20
50.22756492761103
 30
0.0
 11
43.67243507238896
 21
50.22756492761103
 31
0.0
  0
ENDSEC
  0
SECTION
  2
OBJECTS
  0
DICTIONARY
  5
C
330
0
100
AcDbDictionary
  3
ACAD_GROUP
350
D
  3
ACAD_LAYOUT
350
1A
  3
ACAD_MATERIAL
350
43
  3
ACAD_MLEADERSTYLE
350
822
  3
ACAD_MLINESTYLE
350
17
  3
ACAD_PLOTSETTINGS
350
19
  3
ACAD_SCALELIST
350
47
  3
ACAD_VISUALSTYLE
350
2A
  3
ACDBHEADERROUNDTRIPXREC
350
800
  3
ACDBVARIABLEDICTIONARY
350
820
  0
DICTIONARY
  5
827
330
8
100
AcDbDictionary
280
     1
  3
ACAD_XREC_ROUNDTRIP
360
828
  0
DICTIONARY
  5
D
102
{ACAD_REACTORS
330
C
102
}
330
C
100
AcDbDictionary
  0
DICTIONARY
  5
1A
102
{ACAD_REACTORS
330
C
102
}
330
C
100
AcDbDictionary
  0
DICTIONARY
  5
43
102
{ACAD_REACTORS
330
C
102
}
330
C
100
AcDbDictionary
  3
BYBLOCK
350
45
  3
BYLAYER
350
44
  3
GLOBAL
350
46
  0
DICTIONARY
  5
822
102
{ACAD_REACTORS
330
C
102
}
330
C
100
AcDbDictionary
  0
DICTIONARY
  5
17
102
{ACAD_REACTORS
330
C
102
}
330
C
100
AcDbDictionary
  3
STANDARD
350
18
  0
DICTIONARY
  5
19
102
{ACAD_REACTORS
330
C
102
}
330
C
100
AcDbDictionary
  0
DICTIONARY
  5
47
102
{ACAD_REACTORS
330
C
102
}
330
C
100
AcDbDictionary
  3
A0
350
48
  3
A1
350
49
  3
A2
350
4A
  3
A3
350
4B
  3
A4
350
4C
  3
A5
350
4D
  3
A6
350
4E
  3
A7
350
4F
  3
A8
350
50
  3
A9
350
51
  3
B0
350
52
  3
B1
350
53
  3
B2
350
54
  3
B3
350
55
  3
B4
350
56
  3
B5
350
57
  3
B6
350
58
  3
B7
350
59
  3
B8
350
5A
  3
B9
350
5B
  3
C0
350
5C
  3
C1
350
5D
  3
C2
350
5E
  3
C3
350
5F
  3
C4
350
60
  3
C5
350
61
  3
C6
350
62
  3
C7
350
63
  3
C8
350
64
  3
C9
350
65
  3
D0
350
66
  3
D1
350
67
  3
D2
350
68
  0
DICTIONARY
  5
2A
102
{ACAD_REACTORS
330
C
102
}
330
C
100
AcDbDictionary
  3
2DWIREFRAME
350
2F
  3
BASIC
350
32
  3
BRIGHTEN
350
36
  3
COLORCHANGE
350
3A
  3
CONCEPTUAL
350
34
  3
DIM
350
35
  3
EDGECOLOROFF
350
3D
  3
FACEPATTERN
350
39
  3
FLAT
350
2B
  3
FLATWITHEDGES
350
2C
  3
GOURAUD
350
2D
  3
GOURAUDWITHEDGES
350
2E
  3
HIDDEN
350
31
  3
JITTEROFF
350
3B
  3
LINEPATTERN
350
38
  3
OVERHANGOFF
350
3C
  3
REALISTIC
350
33
  3
SHADED
350
42
  3
SHADED_WITH_EDGES
350
41
  3
SHADES_OF_GRAY
350
3E
  3
SKETCHY
350
3F
  3
THICKEN
350
37
  3
WIREFRAME
350
30
  3
X-RAY
350
40
  0
DICTIONARY
  5
800
102
{ACAD_REACTORS
330
C
102
}
330
C
100
AcDbDictionary
  3
CEPSNTYPE
350
809
  3
DIMSTYLEDATA
350
81F
  3
FINGERPRINTGUID
350
80A
  3
HYPERLINKBASE
350
803
  3
INSUNITS
350
808
  3
LAYOUTDICT
350
805
  3
LWETCUNION
350
807
  3
PLOTSETDICT
350
806
  3
PSVPSCALE
350
80C
  3
PUCSBASE
350
80F
  3
PUCSORGBACK
350
815
  3
PUCSORGBOTTOM
350
811
  3
PUCSORGFRONT
350
814
  3
PUCSORGLEFT
350
812
  3
PUCSORGRIGHT
350
813
  3
PUCSORGTOP
350
810
  3
PUCSORTHOREF
350
80D
  3
PUCSORTHOVIEW
350
80E
  3
STYLESHEET
350
804
  3
TSTACKALIGN
350
801
  3
TSTACKSIZE
350
802
  3
UCSBASE
350
818
  3
UCSORGBACK
350
81E
  3
UCSORGBOTTOM
350
81A
  3
UCSORGFRONT
350
81D
  3
UCSORGLEFT
350
81B
  3
UCSORGRIGHT
350
81C
  3
UCSORGTOP
350
819
  3
UCSORTHOREF
350
816
  3
UCSORTHOVIEW
350
817
  3
VERSIONGUID
350
80B
  0
DICTIONARY
  5
820
102
{ACAD_REACTORS
330
C
102
}
330
C
100
AcDbDictionary
  3
CANNOSCALE
350
829
  3
DIMASSOC
350
825
  3
HIDETEXT
350
826
  3
MSLTSCALE
350
82A
  0
XRECORD
  5
828
102
{ACAD_REACTORS
330
827
102
}
330
827
100
AcDbXrecord
102
VTR_0.000_0.000_1.000_1.000_GRIDDISPLAY
 70
     3
102
VTR_0.000_0.000_1.000_1.000_GRIDMAJOR
 70
     5
102
VTR_0.000_0.000_1.000_1.000_DEFAULTLIGHTING
280
     1
102
VTR_0.000_0.000_1.000_1.000_DEFAULTLIGHTINGTYPE
 70
     1
102
VTR_0.000_0.000_1.000_1.000_BRIGHTNESS
141
0.0
102
VTR_0.000_0.000_1.000_1.000_CONTRAST
142
0.0
  0
MATERIAL
  5
45
102
{ACAD_REACTORS
330
43
102
}
102
{ACAD_XDICTIONARY
360
82D
102
}
330
43
100
AcDbMaterial
  1
BYBLOCK
  0
MATERIAL
  5
44
102
{ACAD_REACTORS
330
43
102
}
102
{ACAD_XDICTIONARY
360
82B
102
}
330
43
100
AcDbMaterial
  1
BYLAYER
  0
MATERIAL
  5
46
102
{ACAD_REACTORS
330
43
102
}
102
{ACAD_XDICTIONARY
360
82F
102
}
330
43
100
AcDbMaterial
  1
GLOBAL
  0
MLINESTYLE
  5
18
102
{ACAD_REACTORS
330
17
102
}
330
17
100
AcDbMlineStyle
  2
Standard
 70
     0
  3

 62
   256
 51
90.0
 52
90.0
 71
     2
 49
0.5
 62
   256
  6
BYLAYER
 49
-0.5
 62
   256
  6
BYLAYER
  0
ACAD_PROXY_OBJECT
  5
48
102
{ACAD_REACTORS
330
47
102
}
330
47
100
AcDbProxyObject
 90
      499
 91
      503
 93
       41
310
903313A31580
  0
ACAD_PROXY_OBJECT
  5
49
102
{ACAD_REACTORS
330
47
102
}
330
47
100
AcDbProxyObject
 90
      499
 91
      503
 93
      105
310
903313A324000000000000004000
  0
ACAD_PROXY_OBJECT
  5
4A
102
{ACAD_REACTORS
330
47
102
}
330
47
100
AcDbProxyObject
 90
      499
 91
      503
 93
      105
310
903313A344000000000000104000
  0
ACAD_PROXY_OBJECT
  5
4B
102
{ACAD_REACTORS
330
47
102
}
330
47
100
AcDbProxyObject
 90
      499
 91
      503
 93
      105
310
903313A354000000000000144000
  0
ACAD_PROXY_OBJECT
  5
4C
102
{ACAD_REACTORS
330
47
102
}
330
47
100
AcDbProxyObject
 90
      499
 91
      503
 93
      105
310
903313A384000000000000204000
  0
ACAD_PROXY_OBJECT
  5
4D
102
{ACAD_REACTORS
330
47
102
}
330
47
100
AcDbProxyObject
 90
      499
 91
      503
 93
      113
310
904313A31304000000000000244000
  0
ACAD_PROXY_OBJECT
  5
4E
102
{ACAD_REACTORS
330
47
102
}
330
47
100
AcDbProxyObject
 90
      499
 91
      503
 93
      113
310
904313A31364000000000000304000
  0
ACAD_PROXY_OBJECT
  5
4F
102
{ACAD_REACTORS
330
47
102
}
330
47
100
AcDbProxyObject
 90
      499
 91
      503
 93
      113
310
904313A32304000000000000344000
  0
ACAD_PROXY_OBJECT
  5
50
102
{ACAD_REACTORS
330
47
102
}
330
47
100
AcDbProxyObject
 90
      499
 91
      503
 93
      113
310
904313A333040000000000003E4000
  0
ACAD_PROXY_OBJECT
  5
51
102
{ACAD_REACTORS
330
47
102
}
330
47
100
AcDbProxyObject
 90
      499
 91
      503
 93
      113
310
904313A34304000000000000444000
  0
ACAD_PROXY_OBJECT
  5
52
102
{ACAD_REACTORS
330
47
102
}
330
47
100
AcDbProxyObject
 90
      499
 91
      503
 93
      113
310
904313A35304000000000000494000
  0
ACAD_PROXY_OBJECT
  5
53
102
{ACAD_REACTORS
330
47
102
}
330
47
100
AcDbProxyObject
 90
      499
 91
      503
 93
      121
310
905313A3130304000000000000594000
  0
ACAD_PROXY_OBJECT
  5
54
102
{ACAD_REACTORS
330
47
102
}
330
47
100
AcDbProxyObject
 90
      499
 91
      503
 93
      105
310
903323A310000000000000010100
  0
ACAD_PROXY_OBJECT
  5
55
102
{ACAD_REACTORS
330
47
102
}
330
47
100
AcDbProxyObject
 90
      499
 91
      503
 93
      105
310
903343A310000000000000410100
  0
ACAD_PROXY_OBJECT
  5
56
102
{ACAD_REACTORS
330
47
102
}
330
47
100
AcDbProxyObject
 90
      499
 91
      503
 93
      105
310
903383A310000000000000810100
  0
ACAD_PROXY_OBJECT
  5
57
102
{ACAD_REACTORS
330
47
102
}
330
47
100
AcDbProxyObject
 90
      499
 91
      503
 93
      113
310
90431303A310000000000000910100
  0
ACAD_PROXY_OBJECT
  5
58
102
{ACAD_REACTORS
330
47
102
}
330
47
100
AcDbProxyObject
 90
      499
 91
      503
 93
      121
310
9053130303A310000000000001650100
  0
ACAD_PROXY_OBJECT
  5
59
102
{ACAD_REACTORS
330
47
102
}
330
47
100
AcDbProxyObject
 90
      499
 91
      503
 93
      257
310
90E312F31323822203D2031272D3022000000000000200FC000000000000284000
  0
ACAD_PROXY_OBJECT
  5
5A
102
{ACAD_REACTORS
330
47
102
}
330
47
100
AcDbProxyObject
 90
      499
 91
      503
 93
      249
310
90D312F363422203D2031272D3022000000000000240FC000000000000284000
  0
ACAD_PROXY_OBJECT
  5
5B
102
{ACAD_REACTORS
330
47
102
}
330
47
100
AcDbProxyObject
 90
      499
 91
      503
 93
      249
310
90D312F333222203D2031272D3022000000000000280FC000000000000284000
  0
ACAD_PROXY_OBJECT
  5
5C
102
{ACAD_REACTORS
330
47
102
}
330
47
100
AcDbProxyObject
 90
      499
 91
      503
 93
      249
310
90D312F313622203D2031272D30220000000000002C0FC000000000000284000
  0
ACAD_PROXY_OBJECT
  5
5D
102
{ACAD_REACTORS
330
47
102
}
330
47
100
AcDbProxyObject
 90
      499
 91
      503
 93
      249
310
90D332F333222203D2031272D30220000000000002E0FC000000000000284000
  0
ACAD_PROXY_OBJECT
  5
5E
102
{ACAD_REACTORS
330
47
102
}
330
47
100
AcDbProxyObject
 90
      499
 91
      503
 93
      241
310
90C312F3822203D2031272D3022000000000000300FC000000000000284000
  0
ACAD_PROXY_OBJECT
  5
5F
102
{ACAD_REACTORS
330
47
102
}
330
47
100
AcDbProxyObject
 90
      499
 91
      503
 93
      249
310
90D332F313622203D2031272D3022000000000000320FC000000000000284000
  0
ACAD_PROXY_OBJECT
  5
60
102
{ACAD_REACTORS
330
47
102
}
330
47
100
AcDbProxyObject
 90
      499
 91
      503
 93
      241
310
90C312F3422203D2031272D3022000000000000340FC000000000000284000
  0
ACAD_PROXY_OBJECT
  5
61
102
{ACAD_REACTORS
330
47
102
}
330
47
100
AcDbProxyObject
 90
      499
 91
      503
 93
      241
310
90C332F3822203D2031272D3022000000000000360FC000000000000284000
  0
ACAD_PROXY_OBJECT
  5
62
102
{ACAD_REACTORS
330
47
102
}
330
47
100
AcDbProxyObject
 90
      499
 91
      503
 93
      241
310
90C312F3222203D2031272D3022000000000000380FC000000000000284000
  0
ACAD_PROXY_OBJECT
  5
63
102
{ACAD_REACTORS
330
47
102
}
330
47
100
AcDbProxyObject
 90
      499
 91
      503
 93
      241
310
90C332F3422203D2031272D30220000000000003A0FC000000000000284000
  0
ACAD_PROXY_OBJECT
  5
64
102
{ACAD_REACTORS
330
47
102
}
330
47
100
AcDbProxyObject
 90
      499
 91
      503
 93
      161
310
90A3122203D2031272D30224000000000000284000
  0
ACAD_PROXY_OBJECT
  5
65
102
{ACAD_REACTORS
330
47
102
}
330
47
100
AcDbProxyObject
 90
      499
 91
      503
 93
      257
310
90E312D312F3222203D2031272D30220000000000003E0FC000000000000284000
  0
ACAD_PROXY_OBJECT
  5
66
102
{ACAD_REACTORS
330
47
102
}
330
47
100
AcDbProxyObject
 90
      499
 91
      503
 93
      225
310
90A3322203D2031272D302200000000000002100000000000000284000
  0
ACAD_PROXY_OBJECT
  5
67
102
{ACAD_REACTORS
330
47
102
}
330
47
100
AcDbProxyObject
 90
      499
 91
      503
 93
      225
310
90A3622203D2031272D302200000000000006100000000000000284000
  0
ACAD_PROXY_OBJECT
  5
68
102
{ACAD_REACTORS
330
47
102
}
330
47
100
AcDbProxyObject
 90
      499
 91
      503
 93
      249
310
90D31272D3022203D2031272D30220000000000000A100000000000000284000
  0
ACAD_PROXY_OBJECT
  5
2F
102
{ACAD_REACTORS
330
2A
102
}
330
2A
100
AcDbProxyObject
 90
      499
 91
      501
 93
      436
310
42CC9915DA5C99599C985B595049028333333333333E33F0000000000000F90107901411070040501600405405064090741402480A0340
1001
ACAD
1000
AcDbSavedByObjectVersion
1070
     0
  0
ACAD_PROXY_OBJECT
  5
32
102
{ACAD_REACTORS
330
2A
102
}
330
2A
100
AcDbProxyObject
 90
      499
 91
      501
 93
      388
310
4150985CDA58D07406404333333333333E33F0000000000000F90107A41107004050150841D405064090741402480A0350
1001
ACAD
1000
AcDbSavedByObjectVersion
1070
     0
  0
ACAD_PROXY_OBJECT
  5
36
102
{ACAD_REACTORS
330
2A
102
}
330
2A
100
AcDbProxyObject
 90
      499
 91
      501
 93
      428
310
42109C9A59DA1D195B90C409028333333333333E33F0000000000000F9010790141107004050150841D405064090741402480A029950
1001
ACAD
1000
AcDbSavedByObjectVersion
1070
     0
  0
ACAD_PROXY_OBJECT
  5
3A
102
{ACAD_REACTORS
330
2A
102
}
330
2A
100
AcDbProxyObject
 90
      499
 91
      501
 93
      452
310
42D0DBDB1BDC90DA185B99D95104090240C333333333333E33F0000000000000F90108901411070040501508421405064090741402480A0350
1001
ACAD
1000
AcDbSavedByObjectVersion
1070
     0
  0
ACAD_PROXY_OBJECT
  5
34
102
{ACAD_REACTORS
330
2A
102
}
330
2A
100
AcDbProxyObject
 90
      499
 91
      501
 93
      500
310
4290DBDB98D95C1D1D585B10940D028333333333333E33F0000000000000F90107902409070040501000000000018199010841D405064090740C02480A0340
1001
ACAD
1000
AcDbSavedByObjectVersion
1070
     0
  0
ACAD_PROXY_OBJECT
  5
35
102
{ACAD_REACTORS
330
2A
102
}
330
2A
100
AcDbProxyObject
 90
      499
 91
      501
 93
      412
310
40D11A5B50B409028333333333333E33F0000000000000F9010790141107004050150841D405064090741402480A02677FFFFFD0
1001
ACAD
1000
AcDbSavedByObjectVersion
1070
     0
  0
ACAD_PROXY_OBJECT
  5
3D
102
{ACAD_REACTORS
330
2A
102
}
330
2A
100
AcDbProxyObject
 90
      499
 91
      501
 93
      452
310
43115919D950DBDB1BDC93D999916409028333333333333E33F0000000000000F9010790141107004050150841D405064090741402480A0350
1001
ACAD
1000
AcDbSavedByObjectVersion
1070
     0
  0
ACAD_PROXY_OBJECT
  5
39
102
{ACAD_REACTORS
330
2A
102
}
330
2A
100
AcDbProxyObject
 90
      499
 91
      501
 93
      444
310
42D19858D95C185D1D195C9B90F409028333333333333E33F0000000000000F9010790141107004050150841D405064090741402480A0350
1001
ACAD
1000
AcDbSavedByObjectVersion
1070
     0
  0
ACAD_PROXY_OBJECT
  5
2B
102
{ACAD_REACTORS
330
2A
102
}
330
2A
100
AcDbProxyObject
 90
      499
 91
      501
 93
      380
310
41119B185D240901404333333333333E33F0000000000000F9010740A907004050150841D405064090741402480A1B50
1001
ACAD
1000
AcDbSavedByObjectVersion
1070
     0
  0
ACAD_PROXY_OBJECT
  5
2C
102
{ACAD_REACTORS
330
2A
102
}
330
2A
100
AcDbProxyObject
 90
      499
 91
      501
 93
      468
310
43519B185D15DA5D1A115919D95CD0140901404333333333333E33F0000000000000F90107409019070040501600405405064090741402480A1B50
1001
ACAD
1000
AcDbSavedByObjectVersion
1070
     0
  0
ACAD_PROXY_OBJECT
  5
2D
102
{ACAD_REACTORS
330
2A
102
}
330
2A
100
AcDbProxyObject
 90
      499
 91
      501
 93
      404
310
41D1DBDD5C985D5910240902404333333333333E33F0000000000000F9010740A9070040501641D405064090741402480A1B50
1001
ACAD
1000
AcDbSavedByObjectVersion
1070
     0
  0
ACAD_PROXY_OBJECT
  5
2E
102
{ACAD_REACTORS
330
2A
102
}
330
2A
100
AcDbProxyObject
 90
      499
 91
      501
 93
      492
310
4411DBDD5C985D5915DA5D1A115919D95CD0340902404333333333333E33F0000000000000F90107409019070040501600405405064090741402480A1B50
1001
ACAD
1000
AcDbSavedByObjectVersion
1070
     0
  0
ACAD_PROXY_OBJECT
  5
31
102
{ACAD_REACTORS
330
2A
102
}
330
2A
100
AcDbProxyObject
 90
      499
 91
      501
 93
      476
310
41921A5919195B90640502408333333333333E33F0000000000000F901079024090700405020000000000001110200405405064090740C02480A0340
1001
ACAD
1000
AcDbSavedByObjectVersion
1070
     0
  0
ACAD_PROXY_OBJECT
  5
3B
102
{ACAD_REACTORS
330
2A
102
}
330
2A
100
AcDbProxyObject
 90
      499
 91
      501
 93
      428
310
42529A5D1D195C93D999914409028333333333333E33F0000000000000F9010790141107004050150A41D405064090741402480A0350
1001
ACAD
1000
AcDbSavedByObjectVersion
1070
     0
  0
ACAD_PROXY_OBJECT
  5
38
102
{ACAD_REACTORS
330
2A
102
}
330
2A
100
AcDbProxyObject
 90
      499
 91
      501
 93
      444
310
42D31A5B995C185D1D195C9B90E409028333333333333E33F0000000000000F9010790141107004050750841D405064090741402483A0350
1001
ACAD
1000
AcDbSavedByObjectVersion
1070
     0
  0
ACAD_PROXY_OBJECT
  5
3C
102
{ACAD_REACTORS
330
2A
102
}
330
2A
100
AcDbProxyObject
 90
      499
 91
      501
 93
      444
310
42D3DD995C9A185B99D3D999915409028333333333333E33F0000000000000F9010790141107004050150941D405064090741402480A0350
1001
ACAD
1000
AcDbSavedByObjectVersion
1070
     0
  0
ACAD_PROXY_OBJECT
  5
33
102
{ACAD_REACTORS
330
2A
102
}
330
2A
100
AcDbProxyObject
 90
      499
 91
      501
 93
      428
310
425499585B1A5CDD1A58D08409038333333333333E33F0000000000000F9010740A907004050150800405405064090740C02480A1B40
1001
ACAD
1000
AcDbSavedByObjectVersion
1070
     0
  0
ACAD_PROXY_OBJECT
  5
42
102
{ACAD_REACTORS
330
2A
102
}
330
2A
100
AcDbProxyObject
 90
      499
 91
      501
 93
      420
310
4194DA1859195911B40902404333333333333E33F0000000000000F9010740A41107004050150800405405064090840C02480A0B40
1001
ACAD
1000
AcDbSavedByObjectVersion
1070
     0
  0
ACAD_PROXY_OBJECT
  5
41
102
{ACAD_REACTORS
330
2A
102
}
330
2A
100
AcDbProxyObject
 90
      499
 91
      501
 93
      516
310
4454DA18591959081DDA5D1A08195919D95CD1A40902404333333333333E33F0000000000000F901074090142907004050250800405405064090740C02480A0B40
1001
ACAD
1000
AcDbSavedByObjectVersion
1070
     0
  0
ACAD_PROXY_OBJECT
  5
3E
102
{ACAD_REACTORS
330
2A
102
}
330
2A
100
AcDbProxyObject
 90
      499
 91
      501
 93
      532
310
4394DA1859195CC81BD98811DC985E5174090240C333333333333E33F0000000000000F901079024090741D01000000000000111010841D405064090740C02480A0340
1001
ACAD
1000
AcDbSavedByObjectVersion
1070
     0
  0
ACAD_PROXY_OBJECT
  5
3F
102
{ACAD_REACTORS
330
2A
102
}
330
2A
100
AcDbProxyObject
 90
      499
 91
      501
 93
      476
310
41D4DAD95D18DA1E51840502408333333333333E33F0000000000000F901079024090741D01000000000000111010B41D405064090741802480A0340
1001
ACAD
1000
AcDbSavedByObjectVersion
1070
     0
  0
ACAD_PROXY_OBJECT
  5
37
102
{ACAD_REACTORS
330
2A
102
}
330
2A
100
AcDbProxyObject
 90
      499
 91
      501
 93
      412
310
41D51A1A58DAD95B90D409028333333333333E33F0000000000000F9010790141107004050150C41D405064090741402480A0350
1001
ACAD
1000
AcDbSavedByObjectVersion
1070
     0
  0
ACAD_PROXY_OBJECT
  5
30
102
{ACAD_REACTORS
330
2A
102
}
330
2A
100
AcDbProxyObject
 90
      499
 91
      501
 93
      420
310
4255DA5C99599C985B595059028333333333333E33F0000000000000F90107901411070040501600405405064090740C02480A0340
1001
ACAD
1000
AcDbSavedByObjectVersion
1070
     0
  0
ACAD_PROXY_OBJECT
  5
40
102
{ACAD_REACTORS
330
2A
102
}
330
2A
100
AcDbProxyObject
 90
      499
 91
      501
 93
      404
310
41560B54985E51940902404000000000000E03F0000000000000F9010740501907004050150841D405064090740C02480A1B40
1001
ACAD
1000
AcDbSavedByObjectVersion
1070
     0
  0
XRECORD
  5
809
102
{ACAD_REACTORS
330
800
102
}
330
800
100
AcDbXrecord
 90
        0
  0
XRECORD
  5
81F
102
{ACAD_REACTORS
330
800
102
}
330
800
100
AcDbXrecord
1000
DSTYLE
1002
{
1070
   340
340
11
1002
}
  0
XRECORD
  5
80A
102
{ACAD_REACTORS
330
800
102
}
330
800
100
AcDbXrecord
  1
{C1C4AF08-BD42-4A76-B76E-C6AA0C3B243D}
  0
XRECORD
  5
803
102
{ACAD_REACTORS
330
800
102
}
330
800
100
AcDbXrecord
  1

  0
XRECORD
  5
808
102
{ACAD_REACTORS
330
800
102
}
330
800
100
AcDbXrecord
 90
        1
  0
XRECORD
  5
805
102
{ACAD_REACTORS
330
800
102
}
330
800
100
AcDbXrecord
340
1A
  0
XRECORD
  5
807
102
{ACAD_REACTORS
330
800
102
}
330
800
100
AcDbXrecord
 90
    10781
  0
XRECORD
  5
806
102
{ACAD_REACTORS
330
800
102
}
330
800
100
AcDbXrecord
340
19
  0
XRECORD
  5
80C
102
{ACAD_REACTORS
330
800
102
}
330
800
100
AcDbXrecord
 40
0.0
  0
XRECORD
  5
80F
102
{ACAD_REACTORS
330
800
102
}
330
800
100
AcDbXrecord
340
0
  0
XRECORD
  5
815
102
{ACAD_REACTORS
330
800
102
}
330
800
100
AcDbXrecord
 10
0.0
 20
0.0
 30
0.0
  0
XRECORD
  5
811
102
{ACAD_REACTORS
330
800
102
}
330
800
100
AcDbXrecord
 10
0.0
 20
0.0
 30
0.0
  0
XRECORD
  5
814
102
{ACAD_REACTORS
330
800
102
}
330
800
100
AcDbXrecord
 10
0.0
 20
0.0
 30
0.0
  0
XRECORD
  5
812
102
{ACAD_REACTORS
330
800
102
}
330
800
100
AcDbXrecord
 10
0.0
 20
0.0
 30
0.0
  0
XRECORD
  5
813
102
{ACAD_REACTORS
330
800
102
}
330
800
100
AcDbXrecord
 10
0.0
 20
0.0
 30
0.0
  0
XRECORD
  5
810
102
{ACAD_REACTORS
330
800
102
}
330
800
100
AcDbXrecord
 10
0.0
 20
0.0
 30
0.0
  0
XRECORD
  5
80D
102
{ACAD_REACTORS
330
800
102
}
330
800
100
AcDbXrecord
340
0
  0
XRECORD
  5
80E
102
{ACAD_REACTORS
330
800
102
}
330
800
100
AcDbXrecord
 70
     0
  0
XRECORD
  5
804
102
{ACAD_REACTORS
330
800
102
}
330
800
100
AcDbXrecord
  1

  0
XRECORD
  5
801
102
{ACAD_REACTORS
330
800
102
}
330
800
100
AcDbXrecord
 90
        1
  0
XRECORD
  5
802
102
{ACAD_REACTORS
330
800
102
}
330
800
100
AcDbXrecord
 90
       70
  0
XRECORD
  5
818
102
{ACAD_REACTORS
330
800
102
}
330
800
100
AcDbXrecord
340
0
  0
XRECORD
  5
81E
102
{ACAD_REACTORS
330
800
102
}
330
800
100
AcDbXrecord
 10
0.0
 20
0.0
 30
0.0
  0
XRECORD
  5
81A
102
{ACAD_REACTORS
330
800
102
}
330
800
100
AcDbXrecord
 10
0.0
 20
0.0
 30
0.0
  0
XRECORD
  5
81D
102
{ACAD_REACTORS
330
800
102
}
330
800
100
AcDbXrecord
 10
0.0
 20
0.0
 30
0.0
  0
XRECORD
  5
81B
102
{ACAD_REACTORS
330
800
102
}
330
800
100
AcDbXrecord
 10
0.0
 20
0.0
 30
0.0
  0
XRECORD
  5
81C
102
{ACAD_REACTORS
330
800
102
}
330
800
100
AcDbXrecord
 10
0.0
 20
0.0
 30
0.0
  0
XRECORD
  5
819
102
{ACAD_REACTORS
330
800
102
}
330
800
100
AcDbXrecord
 10
0.0
 20
0.0
 30
0.0
  0
XRECORD
  5
816
102
{ACAD_REACTORS
330
800
102
}
330
800
100
AcDbXrecord
340
0
  0
XRECORD
  5
817
102
{ACAD_REACTORS
330
800
102
}
330
800
100
AcDbXrecord
 70
     0
  0
XRECORD
  5
80B
102
{ACAD_REACTORS
330
800
102
}
330
800
100
AcDbXrecord
  1
{FAEB1C32-E019-11D5-929B-00C0DF256EC4}
  0
DICTIONARYVAR
  5
829
102
{ACAD_REACTORS
330
820
102
}
330
820
100
DictionaryVariables
280
     0
  1
1:1
  0
DICTIONARYVAR
  5
825
102
{ACAD_REACTORS
330
820
102
}
330
820
100
DictionaryVariables
280
     0
  1
2
  0
DICTIONARYVAR
  5
826
102
{ACAD_REACTORS
330
820
102
}
330
820
100
DictionaryVariables
280
     0
  1
1
  0
DICTIONARYVAR
  5
82A
102
{ACAD_REACTORS
330
820
102
}
330
820
100
DictionaryVariables
280
     0
  1
1
  0
DICTIONARY
  5
82D
330
45
100
AcDbDictionary
280
     1
  3
ACAD_XREC_ROUNDTRIP
360
82E
  0
DICTIONARY
  5
82B
330
44
100
AcDbDictionary
280
     1
  3
ACAD_XREC_ROUNDTRIP
360
82C
  0
DICTIONARY
  5
82F
330
46
100
AcDbDictionary
280
     1
  3
ACAD_XREC_ROUNDTRIP
360
830
  0
XRECORD
  5
82E
102
{ACAD_REACTORS
330
82D
102
}
330
82D
100
AcDbXrecord
102
MATERIAL
148
0.0
149
0.0
149
0.0
 93
        0
 94
      127
282
     0
 72
     1
 77
     1
171
     1
175
     1
179
     1
273
     0
  0
XRECORD
  5
82C
102
{ACAD_REACTORS
330
82B
102
}
330
82B
100
AcDbXrecord
102
MATERIAL
148
0.0
149
0.0
149
0.0
 93
        0
 94
      127
282
     0
 72
     1
 77
     1
171
     1
175
     1
179
     1
273
     0
  0
XRECORD
  5
830
102
{ACAD_REACTORS
330
82F
102
}
330
82F
100
AcDbXrecord
102
MATERIAL
148
0.0
149
0.0
149
0.0
 93
        0
 94
      127
282
     0
 72
     1
 77
     1
171
     1
175
     1
179
     1
273
     0
  0
ENDSEC
  0
EOF
