ISO-10303-21;
HEADER;
FILE_DESCRIPTION (( 'STEP AP203' ),
    '1' );
FILE_NAME ('goupille.STEP',
    '2016-12-01T16:28:53',
    ( '' ),
    ( '' ),
    'SwSTEP 2.0',
    'SolidWorks 2016',
    '' );
FILE_SCHEMA (( 'CONFIG_CONTROL_DESIGN' ));
ENDSEC;

DATA;
#1 = DIRECTION ( 'NONE',  ( 0.7071067811865463500, 8.659560562354919300E-017, -0.7071067811865487900 ) ) ;
#2 = CARTESIAN_POINT ( 'NONE',  ( -1.500000000000000200, 0.0000000000000000000, -6.999999999999987600 ) ) ;
#3 = CARTESIAN_POINT ( 'NONE',  ( 0.0000000000000000000, 0.0000000000000000000, 7.000000000000008900 ) ) ;
#4 = ORIENTED_EDGE ( 'NONE', *, *, #235, .T. ) ;
#5 = AXIS2_PLACEMENT_3D ( 'NONE', #272, #185, #184 ) ;
#6 = CIRCLE ( 'NONE', #8, 1.500000000000000200 ) ;
#7 = PERSON_AND_ORGANIZATION ( #223, #43 ) ;
#8 = AXIS2_PLACEMENT_3D ( 'NONE', #3, #225, #21 ) ;
#9 = COORDINATED_UNIVERSAL_TIME_OFFSET ( 1, 0, .AHEAD. ) ;
#10 = LINE ( 'NONE', #83, #267 ) ;
#11 = CARTESIAN_POINT ( 'NONE',  ( -1.250000000000009500, 0.0000000000000000000, 7.250000000000000000 ) ) ;
#12 = LOCAL_TIME ( 17, 28, 53.00000000000000000, #204 ) ;
#13 = ORIENTED_EDGE ( 'NONE', *, *, #55, .F. ) ;
#14 = PERSON_AND_ORGANIZATION ( #223, #43 ) ;
#15 = PERSON_AND_ORGANIZATION_ROLE ( 'design_supplier' ) ;
#16 = AXIS2_PLACEMENT_3D ( 'NONE', #92, #174, #196 ) ;
#17 = CIRCLE ( 'NONE', #200, 1.249999999999987100 ) ;
#18 = DIRECTION ( 'NONE',  ( 0.0000000000000000000, 0.0000000000000000000, -1.000000000000000000 ) ) ;
#19 = PERSON_AND_ORGANIZATION ( #223, #43 ) ;
#20 = CARTESIAN_POINT ( 'NONE',  ( 0.0000000000000000000, 0.0000000000000000000, 0.0000000000000000000 ) ) ;
#21 = DIRECTION ( 'NONE',  ( 1.000000000000000000, 0.0000000000000000000, 0.0000000000000000000 ) ) ;
#22 = DESIGN_CONTEXT ( 'detailed design', #145, 'design' ) ;
#23 = AXIS2_PLACEMENT_3D ( 'NONE', #20, #250, #222 ) ;
#24 = DIRECTION ( 'NONE',  ( -0.0000000000000000000, -0.0000000000000000000, -1.000000000000000000 ) ) ;
#25 = CC_DESIGN_PERSON_AND_ORGANIZATION_ASSIGNMENT ( #19, #142, ( #237 ) ) ;
#26 = EDGE_CURVE ( 'NONE', #144, #260, #6, .T. ) ;
#27 = UNCERTAINTY_MEASURE_WITH_UNIT (LENGTH_MEASURE( 1.000000000000000100E-005 ), #38, 'distance_accuracy_value', 'NONE');
#28 = ORIENTED_EDGE ( 'NONE', *, *, #34, .F. ) ;
#29 = FACE_OUTER_BOUND ( 'NONE', #253, .T. ) ;
#30 = ORIENTED_EDGE ( 'NONE', *, *, #265, .T. ) ;
#31 = CARTESIAN_POINT ( 'NONE',  ( 0.0000000000000000000, 0.0000000000000000000, -6.999999999999987600 ) ) ;
#32 = APPROVAL ( #217, 'UNSPECIFIED' ) ;
#33 = DATE_TIME_ROLE ( 'classification_date' ) ;
#34 = EDGE_CURVE ( 'NONE', #256, #102, #214, .T. ) ;
#35 = ORIENTED_EDGE ( 'NONE', *, *, #170, .T. ) ;
#36 = VERTEX_POINT ( 'NONE', #2 ) ;
#37 = APPROVAL_PERSON_ORGANIZATION ( #94, #251, #153 ) ;
#38 =( LENGTH_UNIT ( ) NAMED_UNIT ( * ) SI_UNIT ( .MILLI., .METRE. ) );
#39 = PLANE ( 'NONE',  #5 ) ;
#40 = APPROVAL_STATUS ( 'not_yet_approved' ) ;
#41 = CYLINDRICAL_SURFACE ( 'NONE', #90, 1.500000000000000200 ) ;
#42 = EDGE_LOOP ( 'NONE', ( #149, #208, #186, #141 ) ) ;
#43 = ORGANIZATION ( 'UNSPECIFIED', 'UNSPECIFIED', '' ) ;
#44 = PRODUCT ( 'goupille', 'goupille', '', ( #77 ) ) ;
#45 = AXIS2_PLACEMENT_3D ( 'NONE', #175, #239, #120 ) ;
#46 = ADVANCED_FACE ( 'NONE', ( #119 ), #106, .T. ) ;
#47 = DIRECTION ( 'NONE',  ( 1.000000000000000000, 0.0000000000000000000, -0.0000000000000000000 ) ) ;
#48 = CC_DESIGN_APPROVAL ( #32, ( #264 ) ) ;
#49 = CIRCLE ( 'NONE', #121, 1.500000000000000200 ) ;
#50 = ORIENTED_EDGE ( 'NONE', *, *, #81, .T. ) ;
#51 = COORDINATED_UNIVERSAL_TIME_OFFSET ( 1, 0, .AHEAD. ) ;
#52 = EDGE_LOOP ( 'NONE', ( #236, #70, #30, #233 ) ) ;
#53 = DIRECTION ( 'NONE',  ( -0.0000000000000000000, -0.0000000000000000000, -1.000000000000000000 ) ) ;
#54 = FACE_OUTER_BOUND ( 'NONE', #52, .T. ) ;
#55 = EDGE_CURVE ( 'NONE', #176, #36, #49, .T. ) ;
#56 = APPROVAL_STATUS ( 'not_yet_approved' ) ;
#57 = CALENDAR_DATE ( 2016, 1, 12 ) ;
#58 = CARTESIAN_POINT ( 'NONE',  ( -1.249999999999987100, 1.683889348827602900E-016, -7.250000000000000000 ) ) ;
#59 = CARTESIAN_POINT ( 'NONE',  ( -1.500000000000000200, 0.0000000000000000000, 7.000000000000008900 ) ) ;
#60 = VECTOR ( 'NONE', #271, 1000.000000000000000 ) ;
#61 = DIRECTION ( 'NONE',  ( 0.7071067811865489100, 0.0000000000000000000, 0.7071067811865462400 ) ) ;
#62 = CALENDAR_DATE ( 2016, 1, 12 ) ;
#63 = CARTESIAN_POINT ( 'NONE',  ( 0.0000000000000000000, 0.0000000000000000000, 7.250000000000000000 ) ) ;
#64 = CARTESIAN_POINT ( 'NONE',  ( 1.500000000000000200, 0.0000000000000000000, -6.999999999999987600 ) ) ;
#65 = ADVANCED_FACE ( 'NONE', ( #156 ), #39, .T. ) ;
#66 = ORIENTED_EDGE ( 'NONE', *, *, #26, .T. ) ;
#67 = VECTOR ( 'NONE', #137, 999.9999999999998900 ) ;
#68 = DIRECTION ( 'NONE',  ( 0.0000000000000000000, 0.0000000000000000000, 1.000000000000000000 ) ) ;
#69 = DIRECTION ( 'NONE',  ( -0.0000000000000000000, -0.0000000000000000000, -1.000000000000000000 ) ) ;
#70 = ORIENTED_EDGE ( 'NONE', *, *, #178, .F. ) ;
#71 = PERSON_AND_ORGANIZATION ( #223, #43 ) ;
#72 = CC_DESIGN_APPROVAL ( #168, ( #237 ) ) ;
#73 = VECTOR ( 'NONE', #125, 1000.000000000000000 ) ;
#74 = EDGE_CURVE ( 'NONE', #195, #144, #10, .T. ) ;
#75 = LINE ( 'NONE', #123, #130 ) ;
#76 = DIRECTION ( 'NONE',  ( 0.0000000000000000000, 0.0000000000000000000, -1.000000000000000000 ) ) ;
#77 = MECHANICAL_CONTEXT ( 'NONE', #183, 'mechanical' ) ;
#78 = PERSON_AND_ORGANIZATION ( #223, #43 ) ;
#79 = APPROVAL_DATE_TIME ( #136, #32 ) ;
#80 = CARTESIAN_POINT ( 'NONE',  ( 0.0000000000000000000, 0.0000000000000000000, -6.999999999999987600 ) ) ;
#81 = EDGE_CURVE ( 'NONE', #102, #176, #171, .T. ) ;
#82 = ADVANCED_FACE ( 'NONE', ( #54 ), #212, .T. ) ;
#83 = CARTESIAN_POINT ( 'NONE',  ( 1.250000000000009500, 1.530808498934203400E-016, 7.250000000000000000 ) ) ;
#84 = ORIENTED_EDGE ( 'NONE', *, *, #81, .F. ) ;
#85 = EDGE_CURVE ( 'NONE', #260, #144, #163, .T. ) ;
#86 = SECURITY_CLASSIFICATION ( '', '', #177 ) ;
#87 = LOCAL_TIME ( 17, 28, 53.00000000000000000, #146 ) ;
#88 = FACE_OUTER_BOUND ( 'NONE', #42, .T. ) ;
#89 = VERTEX_POINT ( 'NONE', #11 ) ;
#90 = AXIS2_PLACEMENT_3D ( 'NONE', #266, #53, #97 ) ;
#91 = AXIS2_PLACEMENT_3D ( 'NONE', #31, #201, #242 ) ;
#92 = CARTESIAN_POINT ( 'NONE',  ( 0.0000000000000000000, 0.0000000000000000000, 7.250000000000000000 ) ) ;
#93 = ORIENTED_EDGE ( 'NONE', *, *, #248, .T. ) ;
#94 = PERSON_AND_ORGANIZATION ( #223, #43 ) ;
#95 = CARTESIAN_POINT ( 'NONE',  ( 1.249999999999987100, 0.0000000000000000000, -7.250000000000000000 ) ) ;
#96 = CARTESIAN_POINT ( 'NONE',  ( 0.0000000000000000000, 0.0000000000000000000, -6.999999999999987600 ) ) ;
#97 = DIRECTION ( 'NONE',  ( -1.000000000000000000, 0.0000000000000000000, 0.0000000000000000000 ) ) ;
#98 = FACE_OUTER_BOUND ( 'NONE', #246, .T. ) ;
#99 = ORIENTED_EDGE ( 'NONE', *, *, #254, .T. ) ;
#100 = CC_DESIGN_DATE_AND_TIME_ASSIGNMENT ( #261, #33, ( #86 ) ) ;
#101 = DIRECTION ( 'NONE',  ( -1.000000000000000000, 0.0000000000000000000, 0.0000000000000000000 ) ) ;
#102 = VERTEX_POINT ( 'NONE', #95 ) ;
#103 = CLOSED_SHELL ( 'NONE', ( #226, #182, #134, #112, #65, #131, #46, #82 ) ) ;
#104 = CARTESIAN_POINT ( 'NONE',  ( 0.0000000000000000000, 0.0000000000000000000, -7.250000000000000000 ) ) ;
#105 = DIRECTION ( 'NONE',  ( 1.000000000000000000, 0.0000000000000000000, 0.0000000000000000000 ) ) ;
#106 = CONICAL_SURFACE ( 'NONE', #91, 1.500000000000000200, 0.7853981633974501700 ) ;
#107 =( NAMED_UNIT ( * ) PLANE_ANGLE_UNIT ( ) SI_UNIT ( $, .RADIAN. ) );
#108 = ORIENTED_EDGE ( 'NONE', *, *, #193, .T. ) ;
#109 = MANIFOLD_SOLID_BREP ( 'Chanfrein1', #103 ) ;
#110 = CARTESIAN_POINT ( 'NONE',  ( 0.0000000000000000000, 0.0000000000000000000, -6.999999999999987600 ) ) ;
#111 = AXIS2_PLACEMENT_3D ( 'NONE', #80, #143, #105 ) ;
#112 = ADVANCED_FACE ( 'NONE', ( #98 ), #41, .T. ) ;
#113 = APPROVAL_PERSON_ORGANIZATION ( #7, #168, #269 ) ;
#114 = DIRECTION ( 'NONE',  ( -1.000000000000000000, 0.0000000000000000000, 0.0000000000000000000 ) ) ;
#115 = VECTOR ( 'NONE', #61, 999.9999999999998900 ) ;
#116 = PERSON_AND_ORGANIZATION ( #223, #43 ) ;
#117 = EDGE_CURVE ( 'NONE', #256, #36, #198, .T. ) ;
#118 = EDGE_LOOP ( 'NONE', ( #154, #35 ) ) ;
#119 = FACE_OUTER_BOUND ( 'NONE', #270, .T. ) ;
#120 = DIRECTION ( 'NONE',  ( 1.000000000000000000, 0.0000000000000000000, 0.0000000000000000000 ) ) ;
#121 = AXIS2_PLACEMENT_3D ( 'NONE', #110, #152, #255 ) ;
#122 = ORIENTED_EDGE ( 'NONE', *, *, #117, .F. ) ;
#123 = CARTESIAN_POINT ( 'NONE',  ( -1.250000000000009500, 0.0000000000000000000, 7.250000000000000000 ) ) ;
#124 = AXIS2_PLACEMENT_3D ( 'NONE', #140, #76, #215 ) ;
#125 = DIRECTION ( 'NONE',  ( -0.0000000000000000000, -0.0000000000000000000, -1.000000000000000000 ) ) ;
#126 = CARTESIAN_POINT ( 'NONE',  ( 0.0000000000000000000, 0.0000000000000000000, 7.250000000000000000 ) ) ;
#127 = PRODUCT_RELATED_PRODUCT_CATEGORY ( 'detail', '', ( #44 ) ) ;
#128 = CONICAL_SURFACE ( 'NONE', #187, 1.250000000000009500, 0.7853981633974466100 ) ;
#129 = PERSON_AND_ORGANIZATION_ROLE ( 'design_owner' ) ;
#130 = VECTOR ( 'NONE', #219, 1000.000000000000000 ) ;
#131 = ADVANCED_FACE ( 'NONE', ( #159 ), #210, .F. ) ;
#132 = ADVANCED_BREP_SHAPE_REPRESENTATION ( 'goupille', ( #109, #23 ), #263 ) ;
#133 = ORIENTED_EDGE ( 'NONE', *, *, #85, .T. ) ;
#134 = ADVANCED_FACE ( 'NONE', ( #259 ), #221, .T. ) ;
#135 = LINE ( 'NONE', #180, #73 ) ;
#136 = DATE_AND_TIME ( #57, #262 ) ;
#137 = DIRECTION ( 'NONE',  ( -0.7071067811865489100, 8.659560562354948900E-017, 0.7071067811865462400 ) ) ;
#138 = APPROVAL_DATE_TIME ( #234, #251 ) ;
#139 = CALENDAR_DATE ( 2016, 1, 12 ) ;
#140 = CARTESIAN_POINT ( 'NONE',  ( 0.0000000000000000000, 0.0000000000000000000, 7.000000000000008900 ) ) ;
#141 = ORIENTED_EDGE ( 'NONE', *, *, #265, .F. ) ;
#142 = PERSON_AND_ORGANIZATION_ROLE ( 'creator' ) ;
#143 = DIRECTION ( 'NONE',  ( -0.0000000000000000000, -0.0000000000000000000, 1.000000000000000000 ) ) ;
#144 = VERTEX_POINT ( 'NONE', #192 ) ;
#145 = APPLICATION_CONTEXT ( 'configuration controlled 3d designs of mechanical parts and assemblies' ) ;
#146 = COORDINATED_UNIVERSAL_TIME_OFFSET ( 1, 0, .AHEAD. ) ;
#147 = APPROVAL_ROLE ( '' ) ;
#148 = CIRCLE ( 'NONE', #16, 1.250000000000009500 ) ;
#149 = ORIENTED_EDGE ( 'NONE', *, *, #170, .F. ) ;
#150 = SHAPE_DEFINITION_REPRESENTATION ( #169, #132 ) ;
#151 = AXIS2_PLACEMENT_3D ( 'NONE', #189, #68, #47 ) ;
#152 = DIRECTION ( 'NONE',  ( -0.0000000000000000000, -0.0000000000000000000, 1.000000000000000000 ) ) ;
#153 = APPROVAL_ROLE ( '' ) ;
#154 = ORIENTED_EDGE ( 'NONE', *, *, #178, .T. ) ;
#155 = COORDINATED_UNIVERSAL_TIME_OFFSET ( 1, 0, .AHEAD. ) ;
#156 = FACE_OUTER_BOUND ( 'NONE', #118, .T. ) ;
#157 = LOCAL_TIME ( 17, 28, 53.00000000000000000, #51 ) ;
#158 = CC_DESIGN_PERSON_AND_ORGANIZATION_ASSIGNMENT ( #116, #164, ( #264 ) ) ;
#159 = FACE_OUTER_BOUND ( 'NONE', #240, .T. ) ;
#160 = ORIENTED_EDGE ( 'NONE', *, *, #193, .F. ) ;
#161 = CALENDAR_DATE ( 2016, 1, 12 ) ;
#162 = PERSON_AND_ORGANIZATION_ROLE ( 'classification_officer' ) ;
#163 = CIRCLE ( 'NONE', #124, 1.500000000000000200 ) ;
#164 = PERSON_AND_ORGANIZATION_ROLE ( 'creator' ) ;
#165 = DATE_AND_TIME ( #161, #12 ) ;
#166 = CARTESIAN_POINT ( 'NONE',  ( 0.0000000000000000000, 0.0000000000000000000, -7.250000000000000000 ) ) ;
#167 = ORIENTED_EDGE ( 'NONE', *, *, #34, .T. ) ;
#168 = APPROVAL ( #40, 'UNSPECIFIED' ) ;
#169 = PRODUCT_DEFINITION_SHAPE ( 'NONE', 'NONE',  #264 ) ;
#170 = EDGE_CURVE ( 'NONE', #195, #89, #148, .T. ) ;
#171 = LINE ( 'NONE', #64, #115 ) ;
#172 = ORIENTED_EDGE ( 'NONE', *, *, #248, .F. ) ;
#173 = APPROVAL_PERSON_ORGANIZATION ( #14, #32, #147 ) ;
#174 = DIRECTION ( 'NONE',  ( 0.0000000000000000000, 0.0000000000000000000, 1.000000000000000000 ) ) ;
#175 = CARTESIAN_POINT ( 'NONE',  ( 0.0000000000000000000, 0.0000000000000000000, 7.250000000000000000 ) ) ;
#176 = VERTEX_POINT ( 'NONE', #194 ) ;
#177 = SECURITY_CLASSIFICATION_LEVEL ( 'unclassified' ) ;
#178 = EDGE_CURVE ( 'NONE', #89, #195, #275, .T. ) ;
#179 = CC_DESIGN_APPROVAL ( #251, ( #86 ) ) ;
#180 = CARTESIAN_POINT ( 'NONE',  ( 1.500000000000000200, 1.836970198721029900E-016, 7.250000000000000000 ) ) ;
#181 = ORIENTED_EDGE ( 'NONE', *, *, #55, .T. ) ;
#182 = ADVANCED_FACE ( 'NONE', ( #29 ), #252, .T. ) ;
#183 = APPLICATION_CONTEXT ( 'configuration controlled 3d designs of mechanical parts and assemblies' ) ;
#184 = DIRECTION ( 'NONE',  ( 1.000000000000000000, 0.0000000000000000000, -0.0000000000000000000 ) ) ;
#185 = DIRECTION ( 'NONE',  ( 0.0000000000000000000, 0.0000000000000000000, 1.000000000000000000 ) ) ;
#186 = ORIENTED_EDGE ( 'NONE', *, *, #85, .F. ) ;
#187 = AXIS2_PLACEMENT_3D ( 'NONE', #126, #18, #101 ) ;
#188 = ORIENTED_EDGE ( 'NONE', *, *, #254, .F. ) ;
#189 = CARTESIAN_POINT ( 'NONE',  ( 0.0000000000000000000, 0.0000000000000000000, -7.250000000000000000 ) ) ;
#190 = CIRCLE ( 'NONE', #111, 1.500000000000000200 ) ;
#191 = LOCAL_TIME ( 17, 28, 53.00000000000000000, #155 ) ;
#192 = CARTESIAN_POINT ( 'NONE',  ( 1.500000000000000200, 1.836970198721029900E-016, 7.000000000000008900 ) ) ;
#193 = EDGE_CURVE ( 'NONE', #36, #176, #190, .T. ) ;
#194 = CARTESIAN_POINT ( 'NONE',  ( 1.500000000000000200, 1.836970198721029900E-016, -6.999999999999987600 ) ) ;
#195 = VERTEX_POINT ( 'NONE', #216 ) ;
#196 = DIRECTION ( 'NONE',  ( 1.000000000000000000, 0.0000000000000000000, 0.0000000000000000000 ) ) ;
#197 = DATE_AND_TIME ( #62, #157 ) ;
#198 = LINE ( 'NONE', #218, #67 ) ;
#199 = ORIENTED_EDGE ( 'NONE', *, *, #235, .F. ) ;
#200 = AXIS2_PLACEMENT_3D ( 'NONE', #104, #245, #243 ) ;
#201 = DIRECTION ( 'NONE',  ( -0.0000000000000000000, -0.0000000000000000000, 1.000000000000000000 ) ) ;
#202 = DIRECTION ( 'NONE',  ( -0.0000000000000000000, -0.0000000000000000000, 1.000000000000000000 ) ) ;
#203 =( NAMED_UNIT ( * ) SI_UNIT ( $, .STERADIAN. ) SOLID_ANGLE_UNIT ( ) );
#204 = COORDINATED_UNIVERSAL_TIME_OFFSET ( 1, 0, .AHEAD. ) ;
#205 = CARTESIAN_POINT ( 'NONE',  ( -1.500000000000000200, 0.0000000000000000000, 7.250000000000000000 ) ) ;
#206 = DIRECTION ( 'NONE',  ( 0.0000000000000000000, 0.0000000000000000000, -1.000000000000000000 ) ) ;
#207 = EDGE_LOOP ( 'NONE', ( #133, #4, #181, #188 ) ) ;
#208 = ORIENTED_EDGE ( 'NONE', *, *, #74, .T. ) ;
#209 = AXIS2_PLACEMENT_3D ( 'NONE', #96, #202, #247 ) ;
#210 = PLANE ( 'NONE',  #151 ) ;
#211 = AXIS2_PLACEMENT_3D ( 'NONE', #63, #206, #238 ) ;
#212 = CONICAL_SURFACE ( 'NONE', #211, 1.250000000000009500, 0.7853981633974466100 ) ;
#213 = AXIS2_PLACEMENT_3D ( 'NONE', #229, #69, #114 ) ;
#214 = CIRCLE ( 'NONE', #274, 1.249999999999987100 ) ;
#215 = DIRECTION ( 'NONE',  ( 1.000000000000000000, 0.0000000000000000000, 0.0000000000000000000 ) ) ;
#216 = CARTESIAN_POINT ( 'NONE',  ( 1.250000000000009500, 1.683889348827616700E-016, 7.250000000000000000 ) ) ;
#217 = APPROVAL_STATUS ( 'not_yet_approved' ) ;
#218 = CARTESIAN_POINT ( 'NONE',  ( -1.500000000000000200, 1.836970198721030200E-016, -6.999999999999987600 ) ) ;
#219 = DIRECTION ( 'NONE',  ( -0.7071067811865463500, 0.0000000000000000000, -0.7071067811865487900 ) ) ;
#220 = CC_DESIGN_DATE_AND_TIME_ASSIGNMENT ( #197, #224, ( #264 ) ) ;
#221 = CYLINDRICAL_SURFACE ( 'NONE', #213, 1.500000000000000200 ) ;
#222 = DIRECTION ( 'NONE',  ( 1.000000000000000000, 0.0000000000000000000, 0.0000000000000000000 ) ) ;
#223 = PERSON ( 'UNSPECIFIED', 'UNSPECIFIED', 'UNSPECIFIED', ('UNSPECIFIED'), ('UNSPECIFIED'), ('UNSPECIFIED') ) ;
#224 = DATE_TIME_ROLE ( 'creation_date' ) ;
#225 = DIRECTION ( 'NONE',  ( 0.0000000000000000000, 0.0000000000000000000, -1.000000000000000000 ) ) ;
#226 = ADVANCED_FACE ( 'NONE', ( #88 ), #128, .T. ) ;
#227 = ORIENTED_EDGE ( 'NONE', *, *, #117, .T. ) ;
#228 = DIRECTION ( 'NONE',  ( 1.000000000000000000, 0.0000000000000000000, 0.0000000000000000000 ) ) ;
#229 = CARTESIAN_POINT ( 'NONE',  ( 0.0000000000000000000, 0.0000000000000000000, 7.250000000000000000 ) ) ;
#230 = LINE ( 'NONE', #205, #60 ) ;
#231 = CALENDAR_DATE ( 2016, 1, 12 ) ;
#232 = CC_DESIGN_PERSON_AND_ORGANIZATION_ASSIGNMENT ( #78, #162, ( #86 ) ) ;
#233 = ORIENTED_EDGE ( 'NONE', *, *, #26, .F. ) ;
#234 = DATE_AND_TIME ( #139, #87 ) ;
#235 = EDGE_CURVE ( 'NONE', #144, #176, #135, .T. ) ;
#236 = ORIENTED_EDGE ( 'NONE', *, *, #74, .F. ) ;
#237 = PRODUCT_DEFINITION_FORMATION_WITH_SPECIFIED_SOURCE ( 'ANY', '', #44, .NOT_KNOWN. ) ;
#238 = DIRECTION ( 'NONE',  ( -1.000000000000000000, 0.0000000000000000000, 0.0000000000000000000 ) ) ;
#239 = DIRECTION ( 'NONE',  ( 0.0000000000000000000, 0.0000000000000000000, 1.000000000000000000 ) ) ;
#240 = EDGE_LOOP ( 'NONE', ( #93, #167 ) ) ;
#241 = CC_DESIGN_PERSON_AND_ORGANIZATION_ASSIGNMENT ( #257, #15, ( #237 ) ) ;
#242 = DIRECTION ( 'NONE',  ( 1.000000000000000000, 0.0000000000000000000, 0.0000000000000000000 ) ) ;
#243 = DIRECTION ( 'NONE',  ( 1.000000000000000000, 0.0000000000000000000, 0.0000000000000000000 ) ) ;
#244 = CC_DESIGN_PERSON_AND_ORGANIZATION_ASSIGNMENT ( #71, #129, ( #44 ) ) ;
#245 = DIRECTION ( 'NONE',  ( -0.0000000000000000000, -0.0000000000000000000, -1.000000000000000000 ) ) ;
#246 = EDGE_LOOP ( 'NONE', ( #199, #66, #99, #108 ) ) ;
#247 = DIRECTION ( 'NONE',  ( 1.000000000000000000, 0.0000000000000000000, 0.0000000000000000000 ) ) ;
#248 = EDGE_CURVE ( 'NONE', #102, #256, #17, .T. ) ;
#249 = APPLICATION_PROTOCOL_DEFINITION ( 'international standard', 'config_control_design', 1994, #183 ) ;
#250 = DIRECTION ( 'NONE',  ( 0.0000000000000000000, 0.0000000000000000000, 1.000000000000000000 ) ) ;
#251 = APPROVAL ( #56, 'UNSPECIFIED' ) ;
#252 = CONICAL_SURFACE ( 'NONE', #209, 1.500000000000000200, 0.7853981633974501700 ) ;
#253 = EDGE_LOOP ( 'NONE', ( #28, #227, #13, #84 ) ) ;
#254 = EDGE_CURVE ( 'NONE', #260, #36, #230, .T. ) ;
#255 = DIRECTION ( 'NONE',  ( 1.000000000000000000, 0.0000000000000000000, 0.0000000000000000000 ) ) ;
#256 = VERTEX_POINT ( 'NONE', #58 ) ;
#257 = PERSON_AND_ORGANIZATION ( #223, #43 ) ;
#258 = CC_DESIGN_SECURITY_CLASSIFICATION ( #86, ( #237 ) ) ;
#259 = FACE_OUTER_BOUND ( 'NONE', #207, .T. ) ;
#260 = VERTEX_POINT ( 'NONE', #59 ) ;
#261 = DATE_AND_TIME ( #231, #191 ) ;
#262 = LOCAL_TIME ( 17, 28, 53.00000000000000000, #9 ) ;
#263 =( GEOMETRIC_REPRESENTATION_CONTEXT ( 3 ) GLOBAL_UNCERTAINTY_ASSIGNED_CONTEXT ( ( #27 ) ) GLOBAL_UNIT_ASSIGNED_CONTEXT ( ( #38, #107, #203 ) ) REPRESENTATION_CONTEXT ( 'NONE', 'WORKASPACE' ) );
#264 = PRODUCT_DEFINITION ( 'UNKNOWN', '', #237, #22 ) ;
#265 = EDGE_CURVE ( 'NONE', #89, #260, #75, .T. ) ;
#266 = CARTESIAN_POINT ( 'NONE',  ( 0.0000000000000000000, 0.0000000000000000000, 7.250000000000000000 ) ) ;
#267 = VECTOR ( 'NONE', #1, 1000.000000000000000 ) ;
#268 = APPROVAL_DATE_TIME ( #165, #168 ) ;
#269 = APPROVAL_ROLE ( '' ) ;
#270 = EDGE_LOOP ( 'NONE', ( #122, #172, #50, #160 ) ) ;
#271 = DIRECTION ( 'NONE',  ( -0.0000000000000000000, -0.0000000000000000000, -1.000000000000000000 ) ) ;
#272 = CARTESIAN_POINT ( 'NONE',  ( 0.0000000000000000000, 0.0000000000000000000, 7.250000000000000000 ) ) ;
#273 = APPLICATION_PROTOCOL_DEFINITION ( 'international standard', 'config_control_design', 1994, #145 ) ;
#274 = AXIS2_PLACEMENT_3D ( 'NONE', #166, #24, #228 ) ;
#275 = CIRCLE ( 'NONE', #45, 1.250000000000009500 ) ;
ENDSEC;
END-ISO-10303-21;
