ISO-10303-21;
HEADER;
FILE_DESCRIPTION(('FreeCAD Model'),'2;1');
FILE_NAME(
'C:/Users/Tom/Documents/Projet prototype/Fichier STEP/Rondelle FAV.step'
  ,'2016-11-16T17:47:38',('Author'),(''),
  'Open CASCADE STEP processor 6.8','FreeCAD','Unknown');
FILE_SCHEMA(('AUTOMOTIVE_DESIGN_CC2 { 1 2 10303 214 -1 1 5 4 }'));
ENDSEC;
DATA;
#1 = APPLICATION_PROTOCOL_DEFINITION('committee draft',
  'automotive_design',1997,#2);
#2 = APPLICATION_CONTEXT(
  'core data for automotive mechanical design processes');
#3 = SHAPE_DEFINITION_REPRESENTATION(#4,#10);
#4 = PRODUCT_DEFINITION_SHAPE('','',#5);
#5 = PRODUCT_DEFINITION('design','',#6,#9);
#6 = PRODUCT_DEFINITION_FORMATION('','',#7);
#7 = PRODUCT('ASSEMBLY','ASSEMBLY','',(#8));
#8 = MECHANICAL_CONTEXT('',#2,'mechanical');
#9 = PRODUCT_DEFINITION_CONTEXT('part definition',#2,'design');
#10 = SHAPE_REPRESENTATION('',(#11,#15),#19);
#11 = AXIS2_PLACEMENT_3D('',#12,#13,#14);
#12 = CARTESIAN_POINT('',(0.E+000,0.E+000,0.E+000));
#13 = DIRECTION('',(0.E+000,0.E+000,1.));
#14 = DIRECTION('',(1.,0.E+000,-0.E+000));
#15 = AXIS2_PLACEMENT_3D('',#16,#17,#18);
#16 = CARTESIAN_POINT('',(0.E+000,0.E+000,0.E+000));
#17 = DIRECTION('',(0.E+000,0.E+000,1.));
#18 = DIRECTION('',(1.,0.E+000,0.E+000));
#19 = ( GEOMETRIC_REPRESENTATION_CONTEXT(3) 
GLOBAL_UNCERTAINTY_ASSIGNED_CONTEXT((#23)) GLOBAL_UNIT_ASSIGNED_CONTEXT(
(#20,#21,#22)) REPRESENTATION_CONTEXT('Context #1',
  '3D Context with UNIT and UNCERTAINTY') );
#20 = ( LENGTH_UNIT() NAMED_UNIT(*) SI_UNIT(.MILLI.,.METRE.) );
#21 = ( NAMED_UNIT(*) PLANE_ANGLE_UNIT() SI_UNIT($,.RADIAN.) );
#22 = ( NAMED_UNIT(*) SI_UNIT($,.STERADIAN.) SOLID_ANGLE_UNIT() );
#23 = UNCERTAINTY_MEASURE_WITH_UNIT(LENGTH_MEASURE(1.E-007),#20,
  'distance_accuracy_value','confusion accuracy');
#24 = PRODUCT_TYPE('part',$,(#7));
#25 = ADVANCED_BREP_SHAPE_REPRESENTATION('',(#11,#26),#307);
#26 = MANIFOLD_SOLID_BREP('',#27);
#27 = CLOSED_SHELL('',(#28,#116,#151,#190,#245,#300));
#28 = ADVANCED_FACE('',(#29),#42,.T.);
#29 = FACE_BOUND('',#30,.T.);
#30 = EDGE_LOOP('',(#31,#65,#88,#115));
#31 = ORIENTED_EDGE('',*,*,#32,.F.);
#32 = EDGE_CURVE('',#33,#33,#35,.T.);
#33 = VERTEX_POINT('',#34);
#34 = CARTESIAN_POINT('',(50.,-1.224646799147E-014,9.));
#35 = SURFACE_CURVE('',#36,(#41,#53),.PCURVE_S1.);
#36 = CIRCLE('',#37,50.);
#37 = AXIS2_PLACEMENT_3D('',#38,#39,#40);
#38 = CARTESIAN_POINT('',(0.E+000,0.E+000,9.));
#39 = DIRECTION('',(0.E+000,0.E+000,1.));
#40 = DIRECTION('',(1.,0.E+000,0.E+000));
#41 = PCURVE('',#42,#47);
#42 = CYLINDRICAL_SURFACE('',#43,50.);
#43 = AXIS2_PLACEMENT_3D('',#44,#45,#46);
#44 = CARTESIAN_POINT('',(0.E+000,0.E+000,0.E+000));
#45 = DIRECTION('',(0.E+000,0.E+000,1.));
#46 = DIRECTION('',(1.,0.E+000,0.E+000));
#47 = DEFINITIONAL_REPRESENTATION('',(#48),#52);
#48 = LINE('',#49,#50);
#49 = CARTESIAN_POINT('',(0.E+000,9.));
#50 = VECTOR('',#51,1.);
#51 = DIRECTION('',(1.,0.E+000));
#52 = ( GEOMETRIC_REPRESENTATION_CONTEXT(2) 
PARAMETRIC_REPRESENTATION_CONTEXT() REPRESENTATION_CONTEXT('2D SPACE',''
  ) );
#53 = PCURVE('',#54,#59);
#54 = PLANE('',#55);
#55 = AXIS2_PLACEMENT_3D('',#56,#57,#58);
#56 = CARTESIAN_POINT('',(0.E+000,0.E+000,9.));
#57 = DIRECTION('',(0.E+000,0.E+000,1.));
#58 = DIRECTION('',(1.,0.E+000,0.E+000));
#59 = DEFINITIONAL_REPRESENTATION('',(#60),#64);
#60 = CIRCLE('',#61,50.);
#61 = AXIS2_PLACEMENT_2D('',#62,#63);
#62 = CARTESIAN_POINT('',(0.E+000,0.E+000));
#63 = DIRECTION('',(1.,0.E+000));
#64 = ( GEOMETRIC_REPRESENTATION_CONTEXT(2) 
PARAMETRIC_REPRESENTATION_CONTEXT() REPRESENTATION_CONTEXT('2D SPACE',''
  ) );
#65 = ORIENTED_EDGE('',*,*,#66,.F.);
#66 = EDGE_CURVE('',#67,#33,#69,.T.);
#67 = VERTEX_POINT('',#68);
#68 = CARTESIAN_POINT('',(50.,-1.224646799147E-014,0.E+000));
#69 = SEAM_CURVE('',#70,(#74,#81),.PCURVE_S1.);
#70 = LINE('',#71,#72);
#71 = CARTESIAN_POINT('',(50.,-1.224646799147E-014,0.E+000));
#72 = VECTOR('',#73,1.);
#73 = DIRECTION('',(0.E+000,0.E+000,1.));
#74 = PCURVE('',#42,#75);
#75 = DEFINITIONAL_REPRESENTATION('',(#76),#80);
#76 = LINE('',#77,#78);
#77 = CARTESIAN_POINT('',(6.28318530718,-0.E+000));
#78 = VECTOR('',#79,1.);
#79 = DIRECTION('',(0.E+000,1.));
#80 = ( GEOMETRIC_REPRESENTATION_CONTEXT(2) 
PARAMETRIC_REPRESENTATION_CONTEXT() REPRESENTATION_CONTEXT('2D SPACE',''
  ) );
#81 = PCURVE('',#42,#82);
#82 = DEFINITIONAL_REPRESENTATION('',(#83),#87);
#83 = LINE('',#84,#85);
#84 = CARTESIAN_POINT('',(0.E+000,-0.E+000));
#85 = VECTOR('',#86,1.);
#86 = DIRECTION('',(0.E+000,1.));
#87 = ( GEOMETRIC_REPRESENTATION_CONTEXT(2) 
PARAMETRIC_REPRESENTATION_CONTEXT() REPRESENTATION_CONTEXT('2D SPACE',''
  ) );
#88 = ORIENTED_EDGE('',*,*,#89,.T.);
#89 = EDGE_CURVE('',#67,#67,#90,.T.);
#90 = SURFACE_CURVE('',#91,(#96,#103),.PCURVE_S1.);
#91 = CIRCLE('',#92,50.);
#92 = AXIS2_PLACEMENT_3D('',#93,#94,#95);
#93 = CARTESIAN_POINT('',(0.E+000,0.E+000,0.E+000));
#94 = DIRECTION('',(0.E+000,0.E+000,1.));
#95 = DIRECTION('',(1.,0.E+000,0.E+000));
#96 = PCURVE('',#42,#97);
#97 = DEFINITIONAL_REPRESENTATION('',(#98),#102);
#98 = LINE('',#99,#100);
#99 = CARTESIAN_POINT('',(0.E+000,0.E+000));
#100 = VECTOR('',#101,1.);
#101 = DIRECTION('',(1.,0.E+000));
#102 = ( GEOMETRIC_REPRESENTATION_CONTEXT(2) 
PARAMETRIC_REPRESENTATION_CONTEXT() REPRESENTATION_CONTEXT('2D SPACE',''
  ) );
#103 = PCURVE('',#104,#109);
#104 = PLANE('',#105);
#105 = AXIS2_PLACEMENT_3D('',#106,#107,#108);
#106 = CARTESIAN_POINT('',(0.E+000,0.E+000,0.E+000));
#107 = DIRECTION('',(0.E+000,0.E+000,1.));
#108 = DIRECTION('',(1.,0.E+000,0.E+000));
#109 = DEFINITIONAL_REPRESENTATION('',(#110),#114);
#110 = CIRCLE('',#111,50.);
#111 = AXIS2_PLACEMENT_2D('',#112,#113);
#112 = CARTESIAN_POINT('',(0.E+000,0.E+000));
#113 = DIRECTION('',(1.,0.E+000));
#114 = ( GEOMETRIC_REPRESENTATION_CONTEXT(2) 
PARAMETRIC_REPRESENTATION_CONTEXT() REPRESENTATION_CONTEXT('2D SPACE',''
  ) );
#115 = ORIENTED_EDGE('',*,*,#66,.T.);
#116 = ADVANCED_FACE('',(#117,#120),#54,.T.);
#117 = FACE_BOUND('',#118,.T.);
#118 = EDGE_LOOP('',(#119));
#119 = ORIENTED_EDGE('',*,*,#32,.T.);
#120 = FACE_BOUND('',#121,.T.);
#121 = EDGE_LOOP('',(#122));
#122 = ORIENTED_EDGE('',*,*,#123,.F.);
#123 = EDGE_CURVE('',#124,#124,#126,.T.);
#124 = VERTEX_POINT('',#125);
#125 = CARTESIAN_POINT('',(10.,-2.449293598295E-015,9.));
#126 = SURFACE_CURVE('',#127,(#132,#139),.PCURVE_S1.);
#127 = CIRCLE('',#128,10.);
#128 = AXIS2_PLACEMENT_3D('',#129,#130,#131);
#129 = CARTESIAN_POINT('',(0.E+000,0.E+000,9.));
#130 = DIRECTION('',(0.E+000,0.E+000,1.));
#131 = DIRECTION('',(1.,0.E+000,-0.E+000));
#132 = PCURVE('',#54,#133);
#133 = DEFINITIONAL_REPRESENTATION('',(#134),#138);
#134 = CIRCLE('',#135,10.);
#135 = AXIS2_PLACEMENT_2D('',#136,#137);
#136 = CARTESIAN_POINT('',(0.E+000,0.E+000));
#137 = DIRECTION('',(1.,0.E+000));
#138 = ( GEOMETRIC_REPRESENTATION_CONTEXT(2) 
PARAMETRIC_REPRESENTATION_CONTEXT() REPRESENTATION_CONTEXT('2D SPACE',''
  ) );
#139 = PCURVE('',#140,#145);
#140 = CYLINDRICAL_SURFACE('',#141,10.);
#141 = AXIS2_PLACEMENT_3D('',#142,#143,#144);
#142 = CARTESIAN_POINT('',(0.E+000,0.E+000,0.E+000));
#143 = DIRECTION('',(0.E+000,0.E+000,1.));
#144 = DIRECTION('',(1.,0.E+000,0.E+000));
#145 = DEFINITIONAL_REPRESENTATION('',(#146),#150);
#146 = LINE('',#147,#148);
#147 = CARTESIAN_POINT('',(0.E+000,9.));
#148 = VECTOR('',#149,1.);
#149 = DIRECTION('',(1.,0.E+000));
#150 = ( GEOMETRIC_REPRESENTATION_CONTEXT(2) 
PARAMETRIC_REPRESENTATION_CONTEXT() REPRESENTATION_CONTEXT('2D SPACE',''
  ) );
#151 = ADVANCED_FACE('',(#152,#155),#104,.F.);
#152 = FACE_BOUND('',#153,.F.);
#153 = EDGE_LOOP('',(#154));
#154 = ORIENTED_EDGE('',*,*,#89,.T.);
#155 = FACE_BOUND('',#156,.F.);
#156 = EDGE_LOOP('',(#157));
#157 = ORIENTED_EDGE('',*,*,#158,.T.);
#158 = EDGE_CURVE('',#159,#159,#161,.T.);
#159 = VERTEX_POINT('',#160);
#160 = CARTESIAN_POINT('',(42.449489742783,0.E+000,7.771561172376E-016)
  );
#161 = SURFACE_CURVE('',#162,(#167,#178),.PCURVE_S1.);
#162 = CIRCLE('',#163,42.449489742783);
#163 = AXIS2_PLACEMENT_3D('',#164,#165,#166);
#164 = CARTESIAN_POINT('',(0.E+000,0.E+000,0.E+000));
#165 = DIRECTION('',(0.E+000,0.E+000,-1.));
#166 = DIRECTION('',(1.,0.E+000,0.E+000));
#167 = PCURVE('',#104,#168);
#168 = DEFINITIONAL_REPRESENTATION('',(#169),#177);
#169 = ( BOUNDED_CURVE() B_SPLINE_CURVE(2,(#170,#171,#172,#173,#174,#175
,#176),.UNSPECIFIED.,.F.,.F.) B_SPLINE_CURVE_WITH_KNOTS((1,2,2,2,2,1),(
    -2.094395102393,0.E+000,2.094395102393,4.188790204786,6.28318530718,
8.377580409573),.UNSPECIFIED.) CURVE() GEOMETRIC_REPRESENTATION_ITEM() 
RATIONAL_B_SPLINE_CURVE((1.,0.5,1.,0.5,1.,0.5,1.)) REPRESENTATION_ITEM(
  '') );
#170 = CARTESIAN_POINT('',(42.449489742783,0.E+000));
#171 = CARTESIAN_POINT('',(42.449489742783,-73.52467298987));
#172 = CARTESIAN_POINT('',(-21.22474487139,-36.76233649493));
#173 = CARTESIAN_POINT('',(-84.89897948556,-1.039712634779E-014));
#174 = CARTESIAN_POINT('',(-21.22474487139,36.762336494937));
#175 = CARTESIAN_POINT('',(42.449489742783,73.524672989874));
#176 = CARTESIAN_POINT('',(42.449489742783,0.E+000));
#177 = ( GEOMETRIC_REPRESENTATION_CONTEXT(2) 
PARAMETRIC_REPRESENTATION_CONTEXT() REPRESENTATION_CONTEXT('2D SPACE',''
  ) );
#178 = PCURVE('',#179,#184);
#179 = TOROIDAL_SURFACE('',#180,40.,2.5);
#180 = AXIS2_PLACEMENT_3D('',#181,#182,#183);
#181 = CARTESIAN_POINT('',(0.E+000,0.E+000,-0.5));
#182 = DIRECTION('',(-0.E+000,-0.E+000,-1.));
#183 = DIRECTION('',(1.,0.E+000,0.E+000));
#184 = DEFINITIONAL_REPRESENTATION('',(#185),#189);
#185 = LINE('',#186,#187);
#186 = CARTESIAN_POINT('',(-6.28318530718,6.081827386389));
#187 = VECTOR('',#188,1.);
#188 = DIRECTION('',(1.,-0.E+000));
#189 = ( GEOMETRIC_REPRESENTATION_CONTEXT(2) 
PARAMETRIC_REPRESENTATION_CONTEXT() REPRESENTATION_CONTEXT('2D SPACE',''
  ) );
#190 = ADVANCED_FACE('',(#191),#140,.F.);
#191 = FACE_BOUND('',#192,.F.);
#192 = EDGE_LOOP('',(#193,#194,#217,#244));
#193 = ORIENTED_EDGE('',*,*,#123,.F.);
#194 = ORIENTED_EDGE('',*,*,#195,.F.);
#195 = EDGE_CURVE('',#196,#124,#198,.T.);
#196 = VERTEX_POINT('',#197);
#197 = CARTESIAN_POINT('',(10.,-2.449293598295E-015,0.E+000));
#198 = SEAM_CURVE('',#199,(#203,#210),.PCURVE_S1.);
#199 = LINE('',#200,#201);
#200 = CARTESIAN_POINT('',(10.,-2.449293598295E-015,0.E+000));
#201 = VECTOR('',#202,1.);
#202 = DIRECTION('',(0.E+000,0.E+000,1.));
#203 = PCURVE('',#140,#204);
#204 = DEFINITIONAL_REPRESENTATION('',(#205),#209);
#205 = LINE('',#206,#207);
#206 = CARTESIAN_POINT('',(6.28318530718,-0.E+000));
#207 = VECTOR('',#208,1.);
#208 = DIRECTION('',(0.E+000,1.));
#209 = ( GEOMETRIC_REPRESENTATION_CONTEXT(2) 
PARAMETRIC_REPRESENTATION_CONTEXT() REPRESENTATION_CONTEXT('2D SPACE',''
  ) );
#210 = PCURVE('',#140,#211);
#211 = DEFINITIONAL_REPRESENTATION('',(#212),#216);
#212 = LINE('',#213,#214);
#213 = CARTESIAN_POINT('',(0.E+000,-0.E+000));
#214 = VECTOR('',#215,1.);
#215 = DIRECTION('',(0.E+000,1.));
#216 = ( GEOMETRIC_REPRESENTATION_CONTEXT(2) 
PARAMETRIC_REPRESENTATION_CONTEXT() REPRESENTATION_CONTEXT('2D SPACE',''
  ) );
#217 = ORIENTED_EDGE('',*,*,#218,.T.);
#218 = EDGE_CURVE('',#196,#196,#219,.T.);
#219 = SURFACE_CURVE('',#220,(#225,#232),.PCURVE_S1.);
#220 = CIRCLE('',#221,10.);
#221 = AXIS2_PLACEMENT_3D('',#222,#223,#224);
#222 = CARTESIAN_POINT('',(0.E+000,0.E+000,0.E+000));
#223 = DIRECTION('',(0.E+000,0.E+000,1.));
#224 = DIRECTION('',(1.,0.E+000,0.E+000));
#225 = PCURVE('',#140,#226);
#226 = DEFINITIONAL_REPRESENTATION('',(#227),#231);
#227 = LINE('',#228,#229);
#228 = CARTESIAN_POINT('',(0.E+000,0.E+000));
#229 = VECTOR('',#230,1.);
#230 = DIRECTION('',(1.,0.E+000));
#231 = ( GEOMETRIC_REPRESENTATION_CONTEXT(2) 
PARAMETRIC_REPRESENTATION_CONTEXT() REPRESENTATION_CONTEXT('2D SPACE',''
  ) );
#232 = PCURVE('',#233,#238);
#233 = PLANE('',#234);
#234 = AXIS2_PLACEMENT_3D('',#235,#236,#237);
#235 = CARTESIAN_POINT('',(0.E+000,0.E+000,0.E+000));
#236 = DIRECTION('',(0.E+000,0.E+000,1.));
#237 = DIRECTION('',(1.,0.E+000,0.E+000));
#238 = DEFINITIONAL_REPRESENTATION('',(#239),#243);
#239 = CIRCLE('',#240,10.);
#240 = AXIS2_PLACEMENT_2D('',#241,#242);
#241 = CARTESIAN_POINT('',(0.E+000,0.E+000));
#242 = DIRECTION('',(1.,0.E+000));
#243 = ( GEOMETRIC_REPRESENTATION_CONTEXT(2) 
PARAMETRIC_REPRESENTATION_CONTEXT() REPRESENTATION_CONTEXT('2D SPACE',''
  ) );
#244 = ORIENTED_EDGE('',*,*,#195,.T.);
#245 = ADVANCED_FACE('',(#246),#179,.F.);
#246 = FACE_BOUND('',#247,.T.);
#247 = EDGE_LOOP('',(#248,#276,#298,#299));
#248 = ORIENTED_EDGE('',*,*,#249,.F.);
#249 = EDGE_CURVE('',#250,#250,#252,.T.);
#250 = VERTEX_POINT('',#251);
#251 = CARTESIAN_POINT('',(37.550510257217,0.E+000,-1.110223024625E-016)
  );
#252 = SURFACE_CURVE('',#253,(#258,#265),.PCURVE_S1.);
#253 = CIRCLE('',#254,37.550510257217);
#254 = AXIS2_PLACEMENT_3D('',#255,#256,#257);
#255 = CARTESIAN_POINT('',(0.E+000,0.E+000,0.E+000));
#256 = DIRECTION('',(0.E+000,0.E+000,-1.));
#257 = DIRECTION('',(1.,0.E+000,0.E+000));
#258 = PCURVE('',#179,#259);
#259 = DEFINITIONAL_REPRESENTATION('',(#260),#264);
#260 = LINE('',#261,#262);
#261 = CARTESIAN_POINT('',(-6.28318530718,3.34295057438));
#262 = VECTOR('',#263,1.);
#263 = DIRECTION('',(1.,-0.E+000));
#264 = ( GEOMETRIC_REPRESENTATION_CONTEXT(2) 
PARAMETRIC_REPRESENTATION_CONTEXT() REPRESENTATION_CONTEXT('2D SPACE',''
  ) );
#265 = PCURVE('',#233,#266);
#266 = DEFINITIONAL_REPRESENTATION('',(#267),#275);
#267 = ( BOUNDED_CURVE() B_SPLINE_CURVE(2,(#268,#269,#270,#271,#272,#273
,#274),.UNSPECIFIED.,.T.,.F.) B_SPLINE_CURVE_WITH_KNOTS((1,2,2,2,2,1),(
    -2.094395102393,0.E+000,2.094395102393,4.188790204786,6.28318530718,
8.377580409573),.UNSPECIFIED.) CURVE() GEOMETRIC_REPRESENTATION_ITEM() 
RATIONAL_B_SPLINE_CURVE((1.,0.5,1.,0.5,1.,0.5,1.)) REPRESENTATION_ITEM(
  '') );
#268 = CARTESIAN_POINT('',(37.550510257217,0.E+000));
#269 = CARTESIAN_POINT('',(37.550510257217,-65.03939161563));
#270 = CARTESIAN_POINT('',(-18.7752551286,-32.51969580781));
#271 = CARTESIAN_POINT('',(-75.10102051443,-9.19722243857E-015));
#272 = CARTESIAN_POINT('',(-18.7752551286,32.519695807818));
#273 = CARTESIAN_POINT('',(37.550510257217,65.039391615636));
#274 = CARTESIAN_POINT('',(37.550510257217,0.E+000));
#275 = ( GEOMETRIC_REPRESENTATION_CONTEXT(2) 
PARAMETRIC_REPRESENTATION_CONTEXT() REPRESENTATION_CONTEXT('2D SPACE',''
  ) );
#276 = ORIENTED_EDGE('',*,*,#277,.T.);
#277 = EDGE_CURVE('',#250,#159,#278,.T.);
#278 = SEAM_CURVE('',#279,(#284,#291),.PCURVE_S1.);
#279 = CIRCLE('',#280,2.5);
#280 = AXIS2_PLACEMENT_3D('',#281,#282,#283);
#281 = CARTESIAN_POINT('',(40.,0.E+000,-0.5));
#282 = DIRECTION('',(-0.E+000,1.,0.E+000));
#283 = DIRECTION('',(1.,0.E+000,0.E+000));
#284 = PCURVE('',#179,#285);
#285 = DEFINITIONAL_REPRESENTATION('',(#286),#290);
#286 = LINE('',#287,#288);
#287 = CARTESIAN_POINT('',(-0.E+000,0.E+000));
#288 = VECTOR('',#289,1.);
#289 = DIRECTION('',(-0.E+000,1.));
#290 = ( GEOMETRIC_REPRESENTATION_CONTEXT(2) 
PARAMETRIC_REPRESENTATION_CONTEXT() REPRESENTATION_CONTEXT('2D SPACE',''
  ) );
#291 = PCURVE('',#179,#292);
#292 = DEFINITIONAL_REPRESENTATION('',(#293),#297);
#293 = LINE('',#294,#295);
#294 = CARTESIAN_POINT('',(-6.28318530718,0.E+000));
#295 = VECTOR('',#296,1.);
#296 = DIRECTION('',(-0.E+000,1.));
#297 = ( GEOMETRIC_REPRESENTATION_CONTEXT(2) 
PARAMETRIC_REPRESENTATION_CONTEXT() REPRESENTATION_CONTEXT('2D SPACE',''
  ) );
#298 = ORIENTED_EDGE('',*,*,#158,.T.);
#299 = ORIENTED_EDGE('',*,*,#277,.F.);
#300 = ADVANCED_FACE('',(#301,#304),#233,.F.);
#301 = FACE_BOUND('',#302,.F.);
#302 = EDGE_LOOP('',(#303));
#303 = ORIENTED_EDGE('',*,*,#249,.F.);
#304 = FACE_BOUND('',#305,.F.);
#305 = EDGE_LOOP('',(#306));
#306 = ORIENTED_EDGE('',*,*,#218,.F.);
#307 = ( GEOMETRIC_REPRESENTATION_CONTEXT(3) 
GLOBAL_UNCERTAINTY_ASSIGNED_CONTEXT((#311)) GLOBAL_UNIT_ASSIGNED_CONTEXT
((#308,#309,#310)) REPRESENTATION_CONTEXT('Context #1',
  '3D Context with UNIT and UNCERTAINTY') );
#308 = ( LENGTH_UNIT() NAMED_UNIT(*) SI_UNIT(.MILLI.,.METRE.) );
#309 = ( NAMED_UNIT(*) PLANE_ANGLE_UNIT() SI_UNIT($,.RADIAN.) );
#310 = ( NAMED_UNIT(*) SI_UNIT($,.STERADIAN.) SOLID_ANGLE_UNIT() );
#311 = UNCERTAINTY_MEASURE_WITH_UNIT(LENGTH_MEASURE(1.E-007),#308,
  'distance_accuracy_value','confusion accuracy');
#312 = SHAPE_DEFINITION_REPRESENTATION(#313,#25);
#313 = PRODUCT_DEFINITION_SHAPE('','',#314);
#314 = PRODUCT_DEFINITION('design','',#315,#318);
#315 = PRODUCT_DEFINITION_FORMATION('','',#316);
#316 = PRODUCT('Cut001','Cut001','',(#317));
#317 = MECHANICAL_CONTEXT('',#2,'mechanical');
#318 = PRODUCT_DEFINITION_CONTEXT('part definition',#2,'design');
#319 = CONTEXT_DEPENDENT_SHAPE_REPRESENTATION(#320,#322);
#320 = ( REPRESENTATION_RELATIONSHIP('','',#25,#10) 
REPRESENTATION_RELATIONSHIP_WITH_TRANSFORMATION(#321) 
SHAPE_REPRESENTATION_RELATIONSHIP() );
#321 = ITEM_DEFINED_TRANSFORMATION('','',#11,#15);
#322 = PRODUCT_DEFINITION_SHAPE('Placement','Placement of an item',#323
  );
#323 = NEXT_ASSEMBLY_USAGE_OCCURRENCE('17','=>[0:1:1:2]','',#5,#314,$);
#324 = PRODUCT_TYPE('part',$,(#316));
#325 = MECHANICAL_DESIGN_GEOMETRIC_PRESENTATION_REPRESENTATION('',(#326,
    #334,#341,#348,#355,#362),#307);
#326 = STYLED_ITEM('color',(#327),#28);
#327 = PRESENTATION_STYLE_ASSIGNMENT((#328));
#328 = SURFACE_STYLE_USAGE(.BOTH.,#329);
#329 = SURFACE_SIDE_STYLE('',(#330));
#330 = SURFACE_STYLE_FILL_AREA(#331);
#331 = FILL_AREA_STYLE('',(#332));
#332 = FILL_AREA_STYLE_COLOUR('',#333);
#333 = COLOUR_RGB('',0.800000011921,0.800000011921,0.800000011921);
#334 = STYLED_ITEM('color',(#335),#116);
#335 = PRESENTATION_STYLE_ASSIGNMENT((#336));
#336 = SURFACE_STYLE_USAGE(.BOTH.,#337);
#337 = SURFACE_SIDE_STYLE('',(#338));
#338 = SURFACE_STYLE_FILL_AREA(#339);
#339 = FILL_AREA_STYLE('',(#340));
#340 = FILL_AREA_STYLE_COLOUR('',#333);
#341 = STYLED_ITEM('color',(#342),#151);
#342 = PRESENTATION_STYLE_ASSIGNMENT((#343));
#343 = SURFACE_STYLE_USAGE(.BOTH.,#344);
#344 = SURFACE_SIDE_STYLE('',(#345));
#345 = SURFACE_STYLE_FILL_AREA(#346);
#346 = FILL_AREA_STYLE('',(#347));
#347 = FILL_AREA_STYLE_COLOUR('',#333);
#348 = STYLED_ITEM('color',(#349),#190);
#349 = PRESENTATION_STYLE_ASSIGNMENT((#350));
#350 = SURFACE_STYLE_USAGE(.BOTH.,#351);
#351 = SURFACE_SIDE_STYLE('',(#352));
#352 = SURFACE_STYLE_FILL_AREA(#353);
#353 = FILL_AREA_STYLE('',(#354));
#354 = FILL_AREA_STYLE_COLOUR('',#333);
#355 = STYLED_ITEM('color',(#356),#245);
#356 = PRESENTATION_STYLE_ASSIGNMENT((#357));
#357 = SURFACE_STYLE_USAGE(.BOTH.,#358);
#358 = SURFACE_SIDE_STYLE('',(#359));
#359 = SURFACE_STYLE_FILL_AREA(#360);
#360 = FILL_AREA_STYLE('',(#361));
#361 = FILL_AREA_STYLE_COLOUR('',#333);
#362 = STYLED_ITEM('color',(#363),#300);
#363 = PRESENTATION_STYLE_ASSIGNMENT((#364));
#364 = SURFACE_STYLE_USAGE(.BOTH.,#365);
#365 = SURFACE_SIDE_STYLE('',(#366));
#366 = SURFACE_STYLE_FILL_AREA(#367);
#367 = FILL_AREA_STYLE('',(#368));
#368 = FILL_AREA_STYLE_COLOUR('',#333);
ENDSEC;
END-ISO-10303-21;
