ISO-10303-21;
HEADER;
FILE_DESCRIPTION(('CATIA V5 STEP Exchange'),'2;1');

FILE_NAME('E:\\Bureau\\Entretoise_remorque.stp','2016-11-11T17:25:56+00:00',('none'),('none'),'CATIA Version 5 Release 19 GA (IN-10)','CATIA V5 STEP AP203','none');

FILE_SCHEMA(('CONFIG_CONTROL_DESIGN'));

ENDSEC;
/* file written by CATIA V5R19 */
DATA;
#5=PRODUCT('Part1','','',(#2)) ;
#1=APPLICATION_CONTEXT('configuration controlled 3D design of mechanical parts and assemblies') ;
#14=PRODUCT_DEFINITION('',' ',#6,#3) ;
#16=SECURITY_CLASSIFICATION(' ',' ',#15) ;
#15=SECURITY_CLASSIFICATION_LEVEL('unclassified') ;
#47=CARTESIAN_POINT(' ',(0.,0.,0.)) ;
#52=CARTESIAN_POINT('Axis2P3D Location',(5.66000000006,0.,0.)) ;
#57=CARTESIAN_POINT('Axis2P3D Location',(10.,0.,0.)) ;
#61=CARTESIAN_POINT('Vertex',(10.,-2.5,3.06161699787E-016)) ;
#63=CARTESIAN_POINT('Vertex',(10.,2.5,0.)) ;
#66=CARTESIAN_POINT('Line Origine',(5.66000000006,2.5,-6.12323399574E-016)) ;
#70=CARTESIAN_POINT('Vertex',(0.,2.5,-6.12323399574E-016)) ;
#73=CARTESIAN_POINT('Axis2P3D Location',(0.,0.,0.)) ;
#77=CARTESIAN_POINT('Vertex',(0.,-2.5,3.06161699787E-016)) ;
#80=CARTESIAN_POINT('Line Origine',(5.66000000006,-2.5,3.06161699787E-016)) ;
#92=CARTESIAN_POINT('Axis2P3D Location',(10.,0.,0.)) ;
#97=CARTESIAN_POINT('Axis2P3D Location',(0.,0.,0.)) ;
#109=CARTESIAN_POINT('Axis2P3D Location',(10.,0.,0.)) ;
#114=CARTESIAN_POINT('Axis2P3D Location',(10.,0.,0.)) ;
#118=CARTESIAN_POINT('Vertex',(10.,5.25,0.)) ;
#120=CARTESIAN_POINT('Vertex',(10.,-5.25,6.42939569552E-016)) ;
#123=CARTESIAN_POINT('Axis2P3D Location',(10.,0.,0.)) ;
#137=CARTESIAN_POINT('Axis2P3D Location',(9.,0.,0.)) ;
#142=CARTESIAN_POINT('Axis2P3D Location',(8.,0.,0.)) ;
#146=CARTESIAN_POINT('Vertex',(8.,5.25,0.)) ;
#148=CARTESIAN_POINT('Vertex',(8.,-5.25,6.42939569552E-016)) ;
#151=CARTESIAN_POINT('Line Origine',(9.,-5.25,6.42939569552E-016)) ;
#156=CARTESIAN_POINT('Line Origine',(9.,5.25,0.)) ;
#168=CARTESIAN_POINT('Axis2P3D Location',(8.,0.,0.)) ;
#180=CARTESIAN_POINT('Axis2P3D Location',(8.,0.,0.)) ;
#185=CARTESIAN_POINT('Axis2P3D Location',(8.,8.881784197E-016,-8.881784197E-016)) ;
#189=CARTESIAN_POINT('Vertex',(8.,-9.,1.10218211923E-015)) ;
#191=CARTESIAN_POINT('Vertex',(8.,9.,0.)) ;
#194=CARTESIAN_POINT('Axis2P3D Location',(8.,-8.881784197E-016,-8.881784197E-016)) ;
#208=CARTESIAN_POINT('Axis2P3D Location',(5.,0.,0.)) ;
#213=CARTESIAN_POINT('Line Origine',(5.,-9.,1.10218211923E-015)) ;
#217=CARTESIAN_POINT('Vertex',(0.,-9.,1.10218211923E-015)) ;
#220=CARTESIAN_POINT('Axis2P3D Location',(0.,0.,0.)) ;
#224=CARTESIAN_POINT('Vertex',(0.,9.,0.)) ;
#227=CARTESIAN_POINT('Line Origine',(5.,9.,-2.20436423847E-015)) ;
#239=CARTESIAN_POINT('Axis2P3D Location',(0.,0.,0.)) ;
#251=CARTESIAN_POINT('Axis2P3D Location',(0.,0.,0.)) ;
#53=DIRECTION('Axis2P3D Direction',(1.,0.,0.)) ;
#54=DIRECTION('Axis2P3D XDirection',(0.,1.,0.)) ;
#58=DIRECTION('Axis2P3D Direction',(1.,0.,0.)) ;
#67=DIRECTION('Vector Direction',(1.,0.,0.)) ;
#74=DIRECTION('Axis2P3D Direction',(1.,0.,0.)) ;
#81=DIRECTION('Vector Direction',(1.,0.,0.)) ;
#93=DIRECTION('Axis2P3D Direction',(1.,0.,0.)) ;
#98=DIRECTION('Axis2P3D Direction',(1.,0.,0.)) ;
#110=DIRECTION('Axis2P3D Direction',(1.,0.,0.)) ;
#111=DIRECTION('Axis2P3D XDirection',(0.,1.,0.)) ;
#115=DIRECTION('Axis2P3D Direction',(1.,0.,0.)) ;
#124=DIRECTION('Axis2P3D Direction',(1.,0.,0.)) ;
#138=DIRECTION('Axis2P3D Direction',(1.,0.,0.)) ;
#139=DIRECTION('Axis2P3D XDirection',(0.,1.,0.)) ;
#143=DIRECTION('Axis2P3D Direction',(1.,0.,0.)) ;
#152=DIRECTION('Vector Direction',(1.,0.,0.)) ;
#157=DIRECTION('Vector Direction',(1.,0.,0.)) ;
#169=DIRECTION('Axis2P3D Direction',(1.,0.,0.)) ;
#181=DIRECTION('Axis2P3D Direction',(1.,0.,0.)) ;
#182=DIRECTION('Axis2P3D XDirection',(0.,1.,0.)) ;
#186=DIRECTION('Axis2P3D Direction',(1.,0.,0.)) ;
#195=DIRECTION('Axis2P3D Direction',(1.,0.,0.)) ;
#209=DIRECTION('Axis2P3D Direction',(1.,0.,0.)) ;
#210=DIRECTION('Axis2P3D XDirection',(0.,1.,0.)) ;
#214=DIRECTION('Vector Direction',(1.,0.,0.)) ;
#221=DIRECTION('Axis2P3D Direction',(1.,0.,0.)) ;
#228=DIRECTION('Vector Direction',(1.,0.,0.)) ;
#240=DIRECTION('Axis2P3D Direction',(1.,0.,0.)) ;
#252=DIRECTION('Axis2P3D Direction',(1.,0.,0.)) ;
#253=DIRECTION('Axis2P3D XDirection',(0.,1.,0.)) ;
#48=AXIS2_PLACEMENT_3D(' ',#47,$,$) ;
#55=AXIS2_PLACEMENT_3D('Cylinder Axis2P3D',#52,#53,#54) ;
#59=AXIS2_PLACEMENT_3D('Circle Axis2P3D',#57,#58,$) ;
#75=AXIS2_PLACEMENT_3D('Circle Axis2P3D',#73,#74,$) ;
#94=AXIS2_PLACEMENT_3D('Circle Axis2P3D',#92,#93,$) ;
#99=AXIS2_PLACEMENT_3D('Circle Axis2P3D',#97,#98,$) ;
#112=AXIS2_PLACEMENT_3D('Plane Axis2P3D',#109,#110,#111) ;
#116=AXIS2_PLACEMENT_3D('Circle Axis2P3D',#114,#115,$) ;
#125=AXIS2_PLACEMENT_3D('Circle Axis2P3D',#123,#124,$) ;
#140=AXIS2_PLACEMENT_3D('Cylinder Axis2P3D',#137,#138,#139) ;
#144=AXIS2_PLACEMENT_3D('Circle Axis2P3D',#142,#143,$) ;
#170=AXIS2_PLACEMENT_3D('Circle Axis2P3D',#168,#169,$) ;
#183=AXIS2_PLACEMENT_3D('Plane Axis2P3D',#180,#181,#182) ;
#187=AXIS2_PLACEMENT_3D('Circle Axis2P3D',#185,#186,$) ;
#196=AXIS2_PLACEMENT_3D('Circle Axis2P3D',#194,#195,$) ;
#211=AXIS2_PLACEMENT_3D('Cylinder Axis2P3D',#208,#209,#210) ;
#222=AXIS2_PLACEMENT_3D('Circle Axis2P3D',#220,#221,$) ;
#241=AXIS2_PLACEMENT_3D('Circle Axis2P3D',#239,#240,$) ;
#254=AXIS2_PLACEMENT_3D('Plane Axis2P3D',#251,#252,#253) ;
#40=PRODUCT_DEFINITION_SHAPE(' ',' ',#14) ;
#31=APPROVAL_PERSON_ORGANIZATION(#25,#21,#19) ;
#25=PERSON_AND_ORGANIZATION(#22,#23) ;
#22=PERSON(' ',' ',' ',$,$,$) ;
#23=ORGANIZATION(' ',' ',' ') ;
#21=APPROVAL(#20,' ') ;
#20=APPROVAL_STATUS('not_yet_approved') ;
#19=APPROVAL_ROLE('APPROVER') ;
#13=DATE_AND_TIME(#11,#12) ;
#12=LOCAL_TIME(18,25,56.,#10) ;
#10=COORDINATED_UNIVERSAL_TIME_OFFSET(0,0,.AHEAD.) ;
#86=ORIENTED_EDGE('',*,*,#65,.T.) ;
#87=ORIENTED_EDGE('',*,*,#72,.F.) ;
#88=ORIENTED_EDGE('',*,*,#79,.F.) ;
#89=ORIENTED_EDGE('',*,*,#84,.T.) ;
#103=ORIENTED_EDGE('',*,*,#96,.T.) ;
#104=ORIENTED_EDGE('',*,*,#84,.F.) ;
#105=ORIENTED_EDGE('',*,*,#101,.F.) ;
#106=ORIENTED_EDGE('',*,*,#72,.T.) ;
#129=ORIENTED_EDGE('',*,*,#122,.T.) ;
#130=ORIENTED_EDGE('',*,*,#127,.T.) ;
#133=ORIENTED_EDGE('',*,*,#96,.F.) ;
#134=ORIENTED_EDGE('',*,*,#65,.F.) ;
#162=ORIENTED_EDGE('',*,*,#150,.T.) ;
#163=ORIENTED_EDGE('',*,*,#155,.F.) ;
#164=ORIENTED_EDGE('',*,*,#122,.F.) ;
#165=ORIENTED_EDGE('',*,*,#160,.T.) ;
#174=ORIENTED_EDGE('',*,*,#172,.T.) ;
#175=ORIENTED_EDGE('',*,*,#160,.F.) ;
#176=ORIENTED_EDGE('',*,*,#127,.F.) ;
#177=ORIENTED_EDGE('',*,*,#155,.T.) ;
#200=ORIENTED_EDGE('',*,*,#193,.T.) ;
#201=ORIENTED_EDGE('',*,*,#198,.T.) ;
#204=ORIENTED_EDGE('',*,*,#172,.F.) ;
#205=ORIENTED_EDGE('',*,*,#150,.F.) ;
#233=ORIENTED_EDGE('',*,*,#219,.F.) ;
#234=ORIENTED_EDGE('',*,*,#226,.T.) ;
#235=ORIENTED_EDGE('',*,*,#231,.T.) ;
#236=ORIENTED_EDGE('',*,*,#193,.F.) ;
#245=ORIENTED_EDGE('',*,*,#231,.F.) ;
#246=ORIENTED_EDGE('',*,*,#243,.T.) ;
#247=ORIENTED_EDGE('',*,*,#219,.T.) ;
#248=ORIENTED_EDGE('',*,*,#198,.F.) ;
#257=ORIENTED_EDGE('',*,*,#226,.F.) ;
#258=ORIENTED_EDGE('',*,*,#243,.F.) ;
#261=ORIENTED_EDGE('',*,*,#79,.T.) ;
#262=ORIENTED_EDGE('',*,*,#101,.T.) ;
#135=FACE_BOUND('',#132,.T.) ;
#206=FACE_BOUND('',#203,.T.) ;
#263=FACE_BOUND('',#260,.T.) ;
#51=CLOSED_SHELL('Closed Shell',(#91,#108,#136,#167,#179,#207,#238,#250,#264)) ;
#68=VECTOR('Line Direction',#67,1.) ;
#82=VECTOR('Line Direction',#81,1.) ;
#153=VECTOR('Line Direction',#152,1.) ;
#158=VECTOR('Line Direction',#157,1.) ;
#215=VECTOR('Line Direction',#214,1.) ;
#229=VECTOR('Line Direction',#228,1.) ;
#266=ADVANCED_BREP_SHAPE_REPRESENTATION('NONE',(#265),#46) ;
#49=SHAPE_REPRESENTATION(' ',(#48),#46) ;
#91=ADVANCED_FACE('Corps principal',(#90),#56,.F.) ;
#108=ADVANCED_FACE('Corps principal',(#107),#56,.F.) ;
#136=ADVANCED_FACE('Corps principal',(#131,#135),#113,.T.) ;
#167=ADVANCED_FACE('Corps principal',(#166),#141,.T.) ;
#179=ADVANCED_FACE('Corps principal',(#178),#141,.T.) ;
#207=ADVANCED_FACE('Corps principal',(#202,#206),#184,.T.) ;
#238=ADVANCED_FACE('Corps principal',(#237),#212,.T.) ;
#250=ADVANCED_FACE('Corps principal',(#249),#212,.T.) ;
#264=ADVANCED_FACE('Corps principal',(#259,#263),#255,.F.) ;
#4=APPLICATION_PROTOCOL_DEFINITION('international standard','config_control_design',1994,#1) ;
#32=APPROVAL_DATE_TIME(#13,#21) ;
#265=MANIFOLD_SOLID_BREP('Corps principal',#51) ;
#11=CALENDAR_DATE(2016,11,11) ;
#30=CC_DESIGN_APPROVAL(#21,(#16,#6,#14)) ;
#18=CC_DESIGN_DATE_AND_TIME_ASSIGNMENT(#13,#17,(#16)) ;
#29=CC_DESIGN_DATE_AND_TIME_ASSIGNMENT(#13,#28,(#14)) ;
#17=DATE_TIME_ROLE('classification_date') ;
#28=DATE_TIME_ROLE('creation_date') ;
#27=CC_DESIGN_PERSON_AND_ORGANIZATION_ASSIGNMENT(#25,#26,(#16)) ;
#33=CC_DESIGN_PERSON_AND_ORGANIZATION_ASSIGNMENT(#25,#34,(#6)) ;
#35=CC_DESIGN_PERSON_AND_ORGANIZATION_ASSIGNMENT(#25,#36,(#6,#14)) ;
#37=CC_DESIGN_PERSON_AND_ORGANIZATION_ASSIGNMENT(#25,#38,(#5)) ;
#26=PERSON_AND_ORGANIZATION_ROLE('classification_officer') ;
#34=PERSON_AND_ORGANIZATION_ROLE('design_supplier') ;
#36=PERSON_AND_ORGANIZATION_ROLE('creator') ;
#38=PERSON_AND_ORGANIZATION_ROLE('design_owner') ;
#39=CC_DESIGN_SECURITY_CLASSIFICATION(#16,(#6)) ;
#60=CIRCLE('generated circle',#59,2.5) ;
#76=CIRCLE('generated circle',#75,2.5) ;
#95=CIRCLE('generated circle',#94,2.5) ;
#100=CIRCLE('generated circle',#99,2.5) ;
#117=CIRCLE('generated circle',#116,5.25) ;
#126=CIRCLE('generated circle',#125,5.25) ;
#145=CIRCLE('generated circle',#144,5.25) ;
#171=CIRCLE('generated circle',#170,5.25) ;
#188=CIRCLE('generated circle',#187,9.) ;
#197=CIRCLE('generated circle',#196,9.) ;
#223=CIRCLE('generated circle',#222,9.) ;
#242=CIRCLE('generated circle',#241,9.) ;
#267=SHAPE_REPRESENTATION_RELATIONSHIP(' ',' ',#49,#266) ;
#56=CYLINDRICAL_SURFACE('generated cylinder',#55,2.5) ;
#141=CYLINDRICAL_SURFACE('generated cylinder',#140,5.25) ;
#212=CYLINDRICAL_SURFACE('generated cylinder',#211,9.) ;
#3=DESIGN_CONTEXT(' ',#1,'design') ;
#65=EDGE_CURVE('',#62,#64,#60,.T.) ;
#72=EDGE_CURVE('',#71,#64,#69,.T.) ;
#79=EDGE_CURVE('',#78,#71,#76,.T.) ;
#84=EDGE_CURVE('',#78,#62,#83,.T.) ;
#96=EDGE_CURVE('',#64,#62,#95,.T.) ;
#101=EDGE_CURVE('',#71,#78,#100,.T.) ;
#122=EDGE_CURVE('',#119,#121,#117,.T.) ;
#127=EDGE_CURVE('',#121,#119,#126,.T.) ;
#150=EDGE_CURVE('',#147,#149,#145,.T.) ;
#155=EDGE_CURVE('',#121,#149,#154,.F.) ;
#160=EDGE_CURVE('',#119,#147,#159,.F.) ;
#172=EDGE_CURVE('',#149,#147,#171,.T.) ;
#193=EDGE_CURVE('',#190,#192,#188,.T.) ;
#198=EDGE_CURVE('',#192,#190,#197,.T.) ;
#219=EDGE_CURVE('',#218,#190,#216,.T.) ;
#226=EDGE_CURVE('',#218,#225,#223,.T.) ;
#231=EDGE_CURVE('',#225,#192,#230,.T.) ;
#243=EDGE_CURVE('',#225,#218,#242,.T.) ;
#85=EDGE_LOOP('',(#86,#87,#88,#89)) ;
#102=EDGE_LOOP('',(#103,#104,#105,#106)) ;
#128=EDGE_LOOP('',(#129,#130)) ;
#132=EDGE_LOOP('',(#133,#134)) ;
#161=EDGE_LOOP('',(#162,#163,#164,#165)) ;
#173=EDGE_LOOP('',(#174,#175,#176,#177)) ;
#199=EDGE_LOOP('',(#200,#201)) ;
#203=EDGE_LOOP('',(#204,#205)) ;
#232=EDGE_LOOP('',(#233,#234,#235,#236)) ;
#244=EDGE_LOOP('',(#245,#246,#247,#248)) ;
#256=EDGE_LOOP('',(#257,#258)) ;
#260=EDGE_LOOP('',(#261,#262)) ;
#90=FACE_OUTER_BOUND('',#85,.T.) ;
#107=FACE_OUTER_BOUND('',#102,.T.) ;
#131=FACE_OUTER_BOUND('',#128,.T.) ;
#166=FACE_OUTER_BOUND('',#161,.T.) ;
#178=FACE_OUTER_BOUND('',#173,.T.) ;
#202=FACE_OUTER_BOUND('',#199,.T.) ;
#237=FACE_OUTER_BOUND('',#232,.T.) ;
#249=FACE_OUTER_BOUND('',#244,.T.) ;
#259=FACE_OUTER_BOUND('',#256,.T.) ;
#45=UNCERTAINTY_MEASURE_WITH_UNIT(LENGTH_MEASURE(0.005),#41,'distance_accuracy_value','CONFUSED CURVE UNCERTAINTY') ;
#69=LINE('Line',#66,#68) ;
#83=LINE('Line',#80,#82) ;
#154=LINE('Line',#151,#153) ;
#159=LINE('Line',#156,#158) ;
#216=LINE('Line',#213,#215) ;
#230=LINE('Line',#227,#229) ;
#2=MECHANICAL_CONTEXT(' ',#1,'mechanical') ;
#24=PERSONAL_ADDRESS(' ',' ',' ',' ',' ',' ',' ',' ',' ',' ',' ',' ',(#22),' ') ;
#113=PLANE('Plane',#112) ;
#184=PLANE('Plane',#183) ;
#255=PLANE('Plane',#254) ;
#43=PLANE_ANGLE_MEASURE_WITH_UNIT(PLANE_ANGLE_MEASURE(0.0174532925199),#42) ;
#7=PRODUCT_CATEGORY('part',$) ;
#9=PRODUCT_CATEGORY_RELATIONSHIP(' ',' ',#7,#8) ;
#6=PRODUCT_DEFINITION_FORMATION_WITH_SPECIFIED_SOURCE('',' ',#5,.NOT_KNOWN.) ;
#8=PRODUCT_RELATED_PRODUCT_CATEGORY('detail',$,(#5)) ;
#50=SHAPE_DEFINITION_REPRESENTATION(#40,#49) ;
#62=VERTEX_POINT('',#61) ;
#64=VERTEX_POINT('',#63) ;
#71=VERTEX_POINT('',#70) ;
#78=VERTEX_POINT('',#77) ;
#119=VERTEX_POINT('',#118) ;
#121=VERTEX_POINT('',#120) ;
#147=VERTEX_POINT('',#146) ;
#149=VERTEX_POINT('',#148) ;
#190=VERTEX_POINT('',#189) ;
#192=VERTEX_POINT('',#191) ;
#218=VERTEX_POINT('',#217) ;
#225=VERTEX_POINT('',#224) ;
#41=(LENGTH_UNIT()NAMED_UNIT(*)SI_UNIT(.MILLI.,.METRE.)) ;
#42=(NAMED_UNIT(*)PLANE_ANGLE_UNIT()SI_UNIT($,.RADIAN.)) ;
#44=(NAMED_UNIT(*)SI_UNIT($,.STERADIAN.)SOLID_ANGLE_UNIT()) ;
#46=(GEOMETRIC_REPRESENTATION_CONTEXT(3)GLOBAL_UNCERTAINTY_ASSIGNED_CONTEXT((#45))GLOBAL_UNIT_ASSIGNED_CONTEXT((#41,#42,#44))REPRESENTATION_CONTEXT(' ',' ')) ;
ENDSEC;
END-ISO-10303-21;
