ISO-10303-21;
HEADER;
FILE_DESCRIPTION(('CATIA V5 STEP Exchange'),'2;1');

FILE_NAME('C:\\TCIC_V5_tmp\\catuii\\ENTRETOISE.stp','2016-11-09T08:10:26+00:00',('none'),('none'),'CATIA Version 5 Release 19 SP 9 (IN-10)','CATIA V5 STEP AP203','none');

FILE_SCHEMA(('CONFIG_CONTROL_DESIGN'));

ENDSEC;
/* file written by CATIA V5R19 */
DATA;
#5=PRODUCT('Entretoise','','',(#2)) ;
#1=APPLICATION_CONTEXT('configuration controlled 3D design of mechanical parts and assemblies') ;
#14=PRODUCT_DEFINITION('',' ',#6,#3) ;
#16=SECURITY_CLASSIFICATION(' ',' ',#15) ;
#15=SECURITY_CLASSIFICATION_LEVEL('unclassified') ;
#47=CARTESIAN_POINT(' ',(0.,0.,0.)) ;
#52=CARTESIAN_POINT('Axis2P3D Location',(6.66577903985E-014,2.01749728035E-013,-2.705)) ;
#57=CARTESIAN_POINT('Line Origine',(-7.605,2.63616220886E-007,4.9)) ;
#61=CARTESIAN_POINT('Vertex',(-7.505,4.25198694268E-015,4.8)) ;
#63=CARTESIAN_POINT('Vertex',(-7.705,3.40882614977E-007,5.)) ;
#66=CARTESIAN_POINT('Axis2P3D Location',(-1.7763568394E-015,-3.5527136788E-015,5.)) ;
#70=CARTESIAN_POINT('Vertex',(7.705,-7.89792817281E-015,5.)) ;
#73=CARTESIAN_POINT('Line Origine',(7.605,3.33066907368E-017,4.9)) ;
#77=CARTESIAN_POINT('Vertex',(7.505,-1.83819484552E-015,4.8)) ;
#80=CARTESIAN_POINT('Axis2P3D Location',(-4.03896783473E-028,1.7763568394E-015,4.8)) ;
#92=CARTESIAN_POINT('Axis2P3D Location',(3.42170736189E-014,-1.44440015504E-014,-2.705)) ;
#97=CARTESIAN_POINT('Axis2P3D Location',(1.57772181044E-028,2.6645352591E-015,5.)) ;
#102=CARTESIAN_POINT('Axis2P3D Location',(8.881784197E-016,2.22044604925E-015,4.8)) ;
#114=CARTESIAN_POINT('Axis2P3D Location',(0.,0.,2.5)) ;
#119=CARTESIAN_POINT('Axis2P3D Location',(0.,0.,0.2)) ;
#123=CARTESIAN_POINT('Vertex',(-7.505,4.25198694268E-015,0.2)) ;
#125=CARTESIAN_POINT('Vertex',(7.505,-1.83819484552E-015,0.2)) ;
#128=CARTESIAN_POINT('Line Origine',(-7.505,4.25198694268E-015,2.5)) ;
#133=CARTESIAN_POINT('Line Origine',(7.505,-8.50397388537E-015,2.5)) ;
#145=CARTESIAN_POINT('Axis2P3D Location',(0.,0.,0.2)) ;
#157=CARTESIAN_POINT('Axis2P3D Location',(-8.881784197E-016,-1.8440804439E-014,7.705)) ;
#162=CARTESIAN_POINT('Line Origine',(-7.605,7.5606187977E-015,0.1)) ;
#166=CARTESIAN_POINT('Vertex',(-7.705,3.40882046363E-007,0.)) ;
#169=CARTESIAN_POINT('Line Origine',(7.605,1.12132525487E-015,0.1)) ;
#173=CARTESIAN_POINT('Vertex',(7.705,-9.45224040728E-015,0.)) ;
#176=CARTESIAN_POINT('Axis2P3D Location',(-8.881784197E-016,-1.33226762955E-015,-7.9936057773E-015)) ;
#188=CARTESIAN_POINT('Axis2P3D Location',(8.881784197E-016,1.18871579247E-013,7.705)) ;
#193=CARTESIAN_POINT('Axis2P3D Location',(8.881784197E-016,-8.881784197E-016,2.6645352591E-015)) ;
#205=CARTESIAN_POINT('Axis2P3D Location',(0.,0.,5.)) ;
#210=CARTESIAN_POINT('Axis2P3D Location',(3.05311331772E-016,2.63677968348E-016,5.)) ;
#214=CARTESIAN_POINT('Vertex',(-10.3,7.22237185809E-007,5.)) ;
#216=CARTESIAN_POINT('Vertex',(10.3,6.88914328502E-015,5.)) ;
#219=CARTESIAN_POINT('Axis2P3D Location',(-5.55111512313E-016,-4.4408920985E-016,5.)) ;
#233=CARTESIAN_POINT('Axis2P3D Location',(-4.57411886146E-014,-9.05941988094E-014,15.3)) ;
#238=CARTESIAN_POINT('Line Origine',(-10.4,-5.27355936697E-016,4.9)) ;
#242=CARTESIAN_POINT('Vertex',(-10.5,1.2858791391E-015,4.8)) ;
#245=CARTESIAN_POINT('Axis2P3D Location',(8.881784197E-016,2.6645352591E-015,4.8)) ;
#249=CARTESIAN_POINT('Vertex',(10.5,-2.57175827821E-015,4.8)) ;
#252=CARTESIAN_POINT('Line Origine',(10.4,-6.67521593556E-015,4.9)) ;
#264=CARTESIAN_POINT('Axis2P3D Location',(-8.97060203897E-014,3.70370401015E-013,15.3)) ;
#269=CARTESIAN_POINT('Axis2P3D Location',(3.5527136788E-015,-2.6645352591E-015,4.8)) ;
#281=CARTESIAN_POINT('Axis2P3D Location',(0.,0.,0.)) ;
#286=CARTESIAN_POINT('Axis2P3D Location',(4.91069903539E-034,2.28558675152E-016,0.)) ;
#290=CARTESIAN_POINT('Vertex',(-10.3,6.13724778283E-011,0.)) ;
#292=CARTESIAN_POINT('Vertex',(10.3,6.85402399182E-015,0.)) ;
#295=CARTESIAN_POINT('Axis2P3D Location',(6.02382727033E-016,2.63677968348E-016,0.)) ;
#309=CARTESIAN_POINT('Axis2P3D Location',(0.,0.,2.5)) ;
#314=CARTESIAN_POINT('Line Origine',(-10.5,1.2858791391E-015,2.5)) ;
#318=CARTESIAN_POINT('Vertex',(-10.5,1.2858791391E-015,0.2)) ;
#321=CARTESIAN_POINT('Line Origine',(10.5,0.,2.5)) ;
#325=CARTESIAN_POINT('Vertex',(10.5,-2.57175827821E-015,0.2)) ;
#328=CARTESIAN_POINT('Axis2P3D Location',(0.,0.,0.2)) ;
#340=CARTESIAN_POINT('Axis2P3D Location',(0.,0.,0.2)) ;
#352=CARTESIAN_POINT('Axis2P3D Location',(4.66293670343E-014,-1.84741111298E-013,-10.3)) ;
#357=CARTESIAN_POINT('Line Origine',(10.4,2.44518537025E-015,0.1)) ;
#362=CARTESIAN_POINT('Line Origine',(-10.4,6.19645649847E-011,0.1)) ;
#374=CARTESIAN_POINT('Axis2P3D Location',(1.84741111298E-013,2.30482299912E-013,-10.3)) ;
#53=DIRECTION('Axis2P3D Direction',(-8.881784197E-015,-2.6645352591E-014,1.)) ;
#54=DIRECTION('Axis2P3D XDirection',(-1.,3.46635400293E-008,-8.82449640697E-015)) ;
#58=DIRECTION('Vector Direction',(-0.707106781187,2.45108056154E-008,0.707106781187)) ;
#67=DIRECTION('Axis2P3D Direction',(-2.86163915771E-015,-2.72769296419E-014,1.)) ;
#74=DIRECTION('Vector Direction',(0.707106781187,-1.84485863895E-014,0.707106781187)) ;
#81=DIRECTION('Axis2P3D Direction',(-2.86163915771E-015,-2.72769296419E-014,1.)) ;
#93=DIRECTION('Axis2P3D Direction',(-4.4408920985E-015,2.22044604925E-015,1.)) ;
#94=DIRECTION('Axis2P3D XDirection',(1.,-2.86176060703E-016,4.47810265428E-015)) ;
#98=DIRECTION('Axis2P3D Direction',(6.35438503379E-031,2.22044604925E-015,1.)) ;
#103=DIRECTION('Axis2P3D Direction',(6.35438503379E-031,2.22044604925E-015,1.)) ;
#115=DIRECTION('Axis2P3D Direction',(0.,0.,1.)) ;
#116=DIRECTION('Axis2P3D XDirection',(1.,0.,0.)) ;
#120=DIRECTION('Axis2P3D Direction',(0.,0.,1.)) ;
#129=DIRECTION('Vector Direction',(0.,0.,1.)) ;
#134=DIRECTION('Vector Direction',(0.,0.,1.)) ;
#146=DIRECTION('Axis2P3D Direction',(0.,0.,1.)) ;
#158=DIRECTION('Axis2P3D Direction',(0.,2.22044604925E-015,-1.)) ;
#159=DIRECTION('Axis2P3D XDirection',(-1.,1.31709162389E-015,0.)) ;
#163=DIRECTION('Vector Direction',(-0.707106781187,1.57009245868E-015,-0.707106781187)) ;
#170=DIRECTION('Vector Direction',(0.707106781187,0.,-0.707106781187)) ;
#177=DIRECTION('Axis2P3D Direction',(-8.55244347556E-016,-1.81814411513E-015,1.)) ;
#189=DIRECTION('Axis2P3D Direction',(0.,-1.55431223448E-014,-1.)) ;
#190=DIRECTION('Axis2P3D XDirection',(1.,-2.95862231746E-016,0.)) ;
#194=DIRECTION('Axis2P3D Direction',(-2.718739479E-030,1.55431223448E-014,1.)) ;
#206=DIRECTION('Axis2P3D Direction',(0.,0.,1.)) ;
#207=DIRECTION('Axis2P3D XDirection',(1.,0.,0.)) ;
#211=DIRECTION('Axis2P3D Direction',(0.,0.,1.)) ;
#220=DIRECTION('Axis2P3D Direction',(0.,0.,1.)) ;
#234=DIRECTION('Axis2P3D Direction',(4.4408920985E-015,8.881784197E-015,-1.)) ;
#235=DIRECTION('Axis2P3D XDirection',(-1.,-2.18130056315E-016,-4.47810265428E-015)) ;
#239=DIRECTION('Vector Direction',(-0.707106781187,5.88784672006E-015,-0.707106781187)) ;
#246=DIRECTION('Axis2P3D Direction',(-2.64336841329E-016,-8.96551151431E-015,1.)) ;
#253=DIRECTION('Vector Direction',(0.707106781187,5.98597749873E-015,-0.707106781187)) ;
#265=DIRECTION('Axis2P3D Direction',(8.881784197E-015,-3.5527136788E-014,-1.)) ;
#266=DIRECTION('Axis2P3D XDirection',(1.,2.53765262772E-016,8.82449640697E-015)) ;
#270=DIRECTION('Axis2P3D Direction',(-1.119096292E-029,3.5527136788E-014,1.)) ;
#282=DIRECTION('Axis2P3D Direction',(0.,0.,1.)) ;
#283=DIRECTION('Axis2P3D XDirection',(1.,0.,0.)) ;
#287=DIRECTION('Axis2P3D Direction',(0.,0.,1.)) ;
#296=DIRECTION('Axis2P3D Direction',(0.,0.,1.)) ;
#310=DIRECTION('Axis2P3D Direction',(0.,0.,1.)) ;
#311=DIRECTION('Axis2P3D XDirection',(-1.,1.22464679915E-016,0.)) ;
#315=DIRECTION('Vector Direction',(0.,0.,1.)) ;
#322=DIRECTION('Vector Direction',(0.,0.,1.)) ;
#329=DIRECTION('Axis2P3D Direction',(0.,0.,1.)) ;
#341=DIRECTION('Axis2P3D Direction',(0.,0.,1.)) ;
#353=DIRECTION('Axis2P3D Direction',(-4.4408920985E-015,1.7763568394E-014,1.)) ;
#354=DIRECTION('Axis2P3D XDirection',(1.,2.35113977909E-016,4.47810265428E-015)) ;
#358=DIRECTION('Vector Direction',(0.707106781187,1.27269903576E-014,0.707106781187)) ;
#363=DIRECTION('Vector Direction',(-0.707106781187,4.2255957487E-012,0.707106781187)) ;
#375=DIRECTION('Axis2P3D Direction',(-1.7763568394E-014,-2.22044604925E-014,1.)) ;
#376=DIRECTION('Axis2P3D XDirection',(-1.,2.56829098601E-015,-1.77807017155E-014)) ;
#48=AXIS2_PLACEMENT_3D(' ',#47,$,$) ;
#55=AXIS2_PLACEMENT_3D('Cone Axis2P3D',#52,#53,#54) ;
#68=AXIS2_PLACEMENT_3D('Circle Axis2P3D',#66,#67,$) ;
#82=AXIS2_PLACEMENT_3D('Circle Axis2P3D',#80,#81,$) ;
#95=AXIS2_PLACEMENT_3D('Cone Axis2P3D',#92,#93,#94) ;
#99=AXIS2_PLACEMENT_3D('Circle Axis2P3D',#97,#98,$) ;
#104=AXIS2_PLACEMENT_3D('Circle Axis2P3D',#102,#103,$) ;
#117=AXIS2_PLACEMENT_3D('Cylinder Axis2P3D',#114,#115,#116) ;
#121=AXIS2_PLACEMENT_3D('Circle Axis2P3D',#119,#120,$) ;
#147=AXIS2_PLACEMENT_3D('Circle Axis2P3D',#145,#146,$) ;
#160=AXIS2_PLACEMENT_3D('Cone Axis2P3D',#157,#158,#159) ;
#178=AXIS2_PLACEMENT_3D('Circle Axis2P3D',#176,#177,$) ;
#191=AXIS2_PLACEMENT_3D('Cone Axis2P3D',#188,#189,#190) ;
#195=AXIS2_PLACEMENT_3D('Circle Axis2P3D',#193,#194,$) ;
#208=AXIS2_PLACEMENT_3D('Plane Axis2P3D',#205,#206,#207) ;
#212=AXIS2_PLACEMENT_3D('Circle Axis2P3D',#210,#211,$) ;
#221=AXIS2_PLACEMENT_3D('Circle Axis2P3D',#219,#220,$) ;
#236=AXIS2_PLACEMENT_3D('Cone Axis2P3D',#233,#234,#235) ;
#247=AXIS2_PLACEMENT_3D('Circle Axis2P3D',#245,#246,$) ;
#267=AXIS2_PLACEMENT_3D('Cone Axis2P3D',#264,#265,#266) ;
#271=AXIS2_PLACEMENT_3D('Circle Axis2P3D',#269,#270,$) ;
#284=AXIS2_PLACEMENT_3D('Plane Axis2P3D',#281,#282,#283) ;
#288=AXIS2_PLACEMENT_3D('Circle Axis2P3D',#286,#287,$) ;
#297=AXIS2_PLACEMENT_3D('Circle Axis2P3D',#295,#296,$) ;
#312=AXIS2_PLACEMENT_3D('Cylinder Axis2P3D',#309,#310,#311) ;
#330=AXIS2_PLACEMENT_3D('Circle Axis2P3D',#328,#329,$) ;
#342=AXIS2_PLACEMENT_3D('Circle Axis2P3D',#340,#341,$) ;
#355=AXIS2_PLACEMENT_3D('Cone Axis2P3D',#352,#353,#354) ;
#377=AXIS2_PLACEMENT_3D('Cone Axis2P3D',#374,#375,#376) ;
#40=PRODUCT_DEFINITION_SHAPE(' ',' ',#14) ;
#31=APPROVAL_PERSON_ORGANIZATION(#25,#21,#19) ;
#25=PERSON_AND_ORGANIZATION(#22,#23) ;
#22=PERSON(' ',' ',' ',$,$,$) ;
#23=ORGANIZATION(' ',' ',' ') ;
#21=APPROVAL(#20,' ') ;
#20=APPROVAL_STATUS('not_yet_approved') ;
#19=APPROVAL_ROLE('APPROVER') ;
#13=DATE_AND_TIME(#11,#12) ;
#12=LOCAL_TIME(9,10,26.,#10) ;
#10=COORDINATED_UNIVERSAL_TIME_OFFSET(0,0,.AHEAD.) ;
#86=ORIENTED_EDGE('',*,*,#65,.T.) ;
#87=ORIENTED_EDGE('',*,*,#72,.T.) ;
#88=ORIENTED_EDGE('',*,*,#79,.F.) ;
#89=ORIENTED_EDGE('',*,*,#84,.F.) ;
#108=ORIENTED_EDGE('',*,*,#79,.T.) ;
#109=ORIENTED_EDGE('',*,*,#101,.T.) ;
#110=ORIENTED_EDGE('',*,*,#65,.F.) ;
#111=ORIENTED_EDGE('',*,*,#106,.F.) ;
#139=ORIENTED_EDGE('',*,*,#127,.F.) ;
#140=ORIENTED_EDGE('',*,*,#132,.T.) ;
#141=ORIENTED_EDGE('',*,*,#84,.T.) ;
#142=ORIENTED_EDGE('',*,*,#137,.F.) ;
#151=ORIENTED_EDGE('',*,*,#149,.F.) ;
#152=ORIENTED_EDGE('',*,*,#137,.T.) ;
#153=ORIENTED_EDGE('',*,*,#106,.T.) ;
#154=ORIENTED_EDGE('',*,*,#132,.F.) ;
#182=ORIENTED_EDGE('',*,*,#168,.T.) ;
#183=ORIENTED_EDGE('',*,*,#127,.T.) ;
#184=ORIENTED_EDGE('',*,*,#175,.F.) ;
#185=ORIENTED_EDGE('',*,*,#180,.F.) ;
#199=ORIENTED_EDGE('',*,*,#175,.T.) ;
#200=ORIENTED_EDGE('',*,*,#149,.T.) ;
#201=ORIENTED_EDGE('',*,*,#168,.F.) ;
#202=ORIENTED_EDGE('',*,*,#197,.F.) ;
#225=ORIENTED_EDGE('',*,*,#218,.T.) ;
#226=ORIENTED_EDGE('',*,*,#223,.T.) ;
#229=ORIENTED_EDGE('',*,*,#101,.F.) ;
#230=ORIENTED_EDGE('',*,*,#72,.F.) ;
#258=ORIENTED_EDGE('',*,*,#244,.T.) ;
#259=ORIENTED_EDGE('',*,*,#251,.T.) ;
#260=ORIENTED_EDGE('',*,*,#256,.F.) ;
#261=ORIENTED_EDGE('',*,*,#218,.F.) ;
#275=ORIENTED_EDGE('',*,*,#256,.T.) ;
#276=ORIENTED_EDGE('',*,*,#273,.T.) ;
#277=ORIENTED_EDGE('',*,*,#244,.F.) ;
#278=ORIENTED_EDGE('',*,*,#223,.F.) ;
#301=ORIENTED_EDGE('',*,*,#294,.F.) ;
#302=ORIENTED_EDGE('',*,*,#299,.F.) ;
#305=ORIENTED_EDGE('',*,*,#180,.T.) ;
#306=ORIENTED_EDGE('',*,*,#197,.T.) ;
#334=ORIENTED_EDGE('',*,*,#320,.T.) ;
#335=ORIENTED_EDGE('',*,*,#273,.F.) ;
#336=ORIENTED_EDGE('',*,*,#327,.F.) ;
#337=ORIENTED_EDGE('',*,*,#332,.T.) ;
#346=ORIENTED_EDGE('',*,*,#327,.T.) ;
#347=ORIENTED_EDGE('',*,*,#251,.F.) ;
#348=ORIENTED_EDGE('',*,*,#320,.F.) ;
#349=ORIENTED_EDGE('',*,*,#344,.T.) ;
#368=ORIENTED_EDGE('',*,*,#361,.T.) ;
#369=ORIENTED_EDGE('',*,*,#299,.T.) ;
#370=ORIENTED_EDGE('',*,*,#366,.F.) ;
#371=ORIENTED_EDGE('',*,*,#332,.F.) ;
#380=ORIENTED_EDGE('',*,*,#366,.T.) ;
#381=ORIENTED_EDGE('',*,*,#294,.T.) ;
#382=ORIENTED_EDGE('',*,*,#361,.F.) ;
#383=ORIENTED_EDGE('',*,*,#344,.F.) ;
#231=FACE_BOUND('',#228,.T.) ;
#307=FACE_BOUND('',#304,.T.) ;
#51=CLOSED_SHELL('Closed Shell',(#91,#113,#144,#156,#187,#204,#232,#263,#280,#308,#339,#351,#373,#385)) ;
#59=VECTOR('Line Direction',#58,1.) ;
#75=VECTOR('Line Direction',#74,1.) ;
#130=VECTOR('Line Direction',#129,1.) ;
#135=VECTOR('Line Direction',#134,1.) ;
#164=VECTOR('Line Direction',#163,1.) ;
#171=VECTOR('Line Direction',#170,1.) ;
#240=VECTOR('Line Direction',#239,1.) ;
#254=VECTOR('Line Direction',#253,1.) ;
#316=VECTOR('Line Direction',#315,1.) ;
#323=VECTOR('Line Direction',#322,1.) ;
#359=VECTOR('Line Direction',#358,1.) ;
#364=VECTOR('Line Direction',#363,1.) ;
#387=ADVANCED_BREP_SHAPE_REPRESENTATION('NONE',(#386),#46) ;
#49=SHAPE_REPRESENTATION(' ',(#48),#46) ;
#91=ADVANCED_FACE('Corps principal',(#90),#56,.F.) ;
#113=ADVANCED_FACE('Corps principal',(#112),#96,.F.) ;
#144=ADVANCED_FACE('Corps principal',(#143),#118,.F.) ;
#156=ADVANCED_FACE('Corps principal',(#155),#118,.F.) ;
#187=ADVANCED_FACE('Corps principal',(#186),#161,.F.) ;
#204=ADVANCED_FACE('Corps principal',(#203),#192,.F.) ;
#232=ADVANCED_FACE('Corps principal',(#227,#231),#209,.T.) ;
#263=ADVANCED_FACE('Corps principal',(#262),#237,.T.) ;
#280=ADVANCED_FACE('Corps principal',(#279),#268,.T.) ;
#308=ADVANCED_FACE('Corps principal',(#303,#307),#285,.F.) ;
#339=ADVANCED_FACE('Corps principal',(#338),#313,.T.) ;
#351=ADVANCED_FACE('Corps principal',(#350),#313,.T.) ;
#373=ADVANCED_FACE('Corps principal',(#372),#356,.T.) ;
#385=ADVANCED_FACE('Corps principal',(#384),#378,.T.) ;
#4=APPLICATION_PROTOCOL_DEFINITION('international standard','config_control_design',1994,#1) ;
#32=APPROVAL_DATE_TIME(#13,#21) ;
#386=MANIFOLD_SOLID_BREP('Corps principal',#51) ;
#11=CALENDAR_DATE(2016,9,11) ;
#30=CC_DESIGN_APPROVAL(#21,(#16,#6,#14)) ;
#18=CC_DESIGN_DATE_AND_TIME_ASSIGNMENT(#13,#17,(#16)) ;
#29=CC_DESIGN_DATE_AND_TIME_ASSIGNMENT(#13,#28,(#14)) ;
#17=DATE_TIME_ROLE('classification_date') ;
#28=DATE_TIME_ROLE('creation_date') ;
#27=CC_DESIGN_PERSON_AND_ORGANIZATION_ASSIGNMENT(#25,#26,(#16)) ;
#33=CC_DESIGN_PERSON_AND_ORGANIZATION_ASSIGNMENT(#25,#34,(#6)) ;
#35=CC_DESIGN_PERSON_AND_ORGANIZATION_ASSIGNMENT(#25,#36,(#6,#14)) ;
#37=CC_DESIGN_PERSON_AND_ORGANIZATION_ASSIGNMENT(#25,#38,(#5)) ;
#26=PERSON_AND_ORGANIZATION_ROLE('classification_officer') ;
#34=PERSON_AND_ORGANIZATION_ROLE('design_supplier') ;
#36=PERSON_AND_ORGANIZATION_ROLE('creator') ;
#38=PERSON_AND_ORGANIZATION_ROLE('design_owner') ;
#39=CC_DESIGN_SECURITY_CLASSIFICATION(#16,(#6)) ;
#69=CIRCLE('generated circle',#68,7.705) ;
#83=CIRCLE('generated circle',#82,7.505) ;
#100=CIRCLE('generated circle',#99,7.705) ;
#105=CIRCLE('generated circle',#104,7.505) ;
#122=CIRCLE('generated circle',#121,7.505) ;
#148=CIRCLE('generated circle',#147,7.505) ;
#179=CIRCLE('generated circle',#178,7.705) ;
#196=CIRCLE('generated circle',#195,7.705) ;
#213=CIRCLE('generated circle',#212,10.3) ;
#222=CIRCLE('generated circle',#221,10.3) ;
#248=CIRCLE('generated circle',#247,10.5) ;
#272=CIRCLE('generated circle',#271,10.5) ;
#289=CIRCLE('generated circle',#288,10.3) ;
#298=CIRCLE('generated circle',#297,10.3) ;
#331=CIRCLE('generated circle',#330,10.5) ;
#343=CIRCLE('generated circle',#342,10.5) ;
#56=CONICAL_SURFACE('Cone',#55,0.,0.785398163397) ;
#96=CONICAL_SURFACE('Cone',#95,0.,0.785398163397) ;
#161=CONICAL_SURFACE('Cone',#160,0.,0.785398163397) ;
#192=CONICAL_SURFACE('Cone',#191,0.,0.785398163397) ;
#237=CONICAL_SURFACE('Cone',#236,0.,0.785398163397) ;
#268=CONICAL_SURFACE('Cone',#267,0.,0.785398163397) ;
#356=CONICAL_SURFACE('Cone',#355,0.,0.785398163397) ;
#378=CONICAL_SURFACE('Cone',#377,0.,0.785398163397) ;
#388=SHAPE_REPRESENTATION_RELATIONSHIP(' ',' ',#49,#387) ;
#118=CYLINDRICAL_SURFACE('generated cylinder',#117,7.505) ;
#313=CYLINDRICAL_SURFACE('generated cylinder',#312,10.5) ;
#3=DESIGN_CONTEXT(' ',#1,'design') ;
#65=EDGE_CURVE('',#62,#64,#60,.T.) ;
#72=EDGE_CURVE('',#64,#71,#69,.T.) ;
#79=EDGE_CURVE('',#78,#71,#76,.T.) ;
#84=EDGE_CURVE('',#62,#78,#83,.T.) ;
#101=EDGE_CURVE('',#71,#64,#100,.T.) ;
#106=EDGE_CURVE('',#78,#62,#105,.T.) ;
#127=EDGE_CURVE('',#124,#126,#122,.T.) ;
#132=EDGE_CURVE('',#124,#62,#131,.T.) ;
#137=EDGE_CURVE('',#126,#78,#136,.T.) ;
#149=EDGE_CURVE('',#126,#124,#148,.T.) ;
#168=EDGE_CURVE('',#167,#124,#165,.F.) ;
#175=EDGE_CURVE('',#174,#126,#172,.F.) ;
#180=EDGE_CURVE('',#167,#174,#179,.T.) ;
#197=EDGE_CURVE('',#174,#167,#196,.T.) ;
#218=EDGE_CURVE('',#215,#217,#213,.T.) ;
#223=EDGE_CURVE('',#217,#215,#222,.T.) ;
#244=EDGE_CURVE('',#215,#243,#241,.T.) ;
#251=EDGE_CURVE('',#243,#250,#248,.T.) ;
#256=EDGE_CURVE('',#217,#250,#255,.T.) ;
#273=EDGE_CURVE('',#250,#243,#272,.T.) ;
#294=EDGE_CURVE('',#291,#293,#289,.T.) ;
#299=EDGE_CURVE('',#293,#291,#298,.T.) ;
#320=EDGE_CURVE('',#319,#243,#317,.T.) ;
#327=EDGE_CURVE('',#326,#250,#324,.T.) ;
#332=EDGE_CURVE('',#326,#319,#331,.T.) ;
#344=EDGE_CURVE('',#319,#326,#343,.T.) ;
#361=EDGE_CURVE('',#326,#293,#360,.F.) ;
#366=EDGE_CURVE('',#319,#291,#365,.F.) ;
#85=EDGE_LOOP('',(#86,#87,#88,#89)) ;
#107=EDGE_LOOP('',(#108,#109,#110,#111)) ;
#138=EDGE_LOOP('',(#139,#140,#141,#142)) ;
#150=EDGE_LOOP('',(#151,#152,#153,#154)) ;
#181=EDGE_LOOP('',(#182,#183,#184,#185)) ;
#198=EDGE_LOOP('',(#199,#200,#201,#202)) ;
#224=EDGE_LOOP('',(#225,#226)) ;
#228=EDGE_LOOP('',(#229,#230)) ;
#257=EDGE_LOOP('',(#258,#259,#260,#261)) ;
#274=EDGE_LOOP('',(#275,#276,#277,#278)) ;
#300=EDGE_LOOP('',(#301,#302)) ;
#304=EDGE_LOOP('',(#305,#306)) ;
#333=EDGE_LOOP('',(#334,#335,#336,#337)) ;
#345=EDGE_LOOP('',(#346,#347,#348,#349)) ;
#367=EDGE_LOOP('',(#368,#369,#370,#371)) ;
#379=EDGE_LOOP('',(#380,#381,#382,#383)) ;
#90=FACE_OUTER_BOUND('',#85,.T.) ;
#112=FACE_OUTER_BOUND('',#107,.T.) ;
#143=FACE_OUTER_BOUND('',#138,.T.) ;
#155=FACE_OUTER_BOUND('',#150,.T.) ;
#186=FACE_OUTER_BOUND('',#181,.T.) ;
#203=FACE_OUTER_BOUND('',#198,.T.) ;
#227=FACE_OUTER_BOUND('',#224,.T.) ;
#262=FACE_OUTER_BOUND('',#257,.T.) ;
#279=FACE_OUTER_BOUND('',#274,.T.) ;
#303=FACE_OUTER_BOUND('',#300,.T.) ;
#338=FACE_OUTER_BOUND('',#333,.T.) ;
#350=FACE_OUTER_BOUND('',#345,.T.) ;
#372=FACE_OUTER_BOUND('',#367,.T.) ;
#384=FACE_OUTER_BOUND('',#379,.T.) ;
#45=UNCERTAINTY_MEASURE_WITH_UNIT(LENGTH_MEASURE(0.005),#41,'distance_accuracy_value','CONFUSED CURVE UNCERTAINTY') ;
#60=LINE('Line',#57,#59) ;
#76=LINE('Line',#73,#75) ;
#131=LINE('Line',#128,#130) ;
#136=LINE('Line',#133,#135) ;
#165=LINE('Line',#162,#164) ;
#172=LINE('Line',#169,#171) ;
#241=LINE('Line',#238,#240) ;
#255=LINE('Line',#252,#254) ;
#317=LINE('Line',#314,#316) ;
#324=LINE('Line',#321,#323) ;
#360=LINE('Line',#357,#359) ;
#365=LINE('Line',#362,#364) ;
#2=MECHANICAL_CONTEXT(' ',#1,'mechanical') ;
#24=PERSONAL_ADDRESS(' ',' ',' ',' ',' ',' ',' ',' ',' ',' ',' ',' ',(#22),' ') ;
#209=PLANE('Plane',#208) ;
#285=PLANE('Plane',#284) ;
#43=PLANE_ANGLE_MEASURE_WITH_UNIT(PLANE_ANGLE_MEASURE(0.0174532925199),#42) ;
#7=PRODUCT_CATEGORY('part',$) ;
#9=PRODUCT_CATEGORY_RELATIONSHIP(' ',' ',#7,#8) ;
#6=PRODUCT_DEFINITION_FORMATION_WITH_SPECIFIED_SOURCE('',' ',#5,.NOT_KNOWN.) ;
#8=PRODUCT_RELATED_PRODUCT_CATEGORY('detail',$,(#5)) ;
#50=SHAPE_DEFINITION_REPRESENTATION(#40,#49) ;
#62=VERTEX_POINT('',#61) ;
#64=VERTEX_POINT('',#63) ;
#71=VERTEX_POINT('',#70) ;
#78=VERTEX_POINT('',#77) ;
#124=VERTEX_POINT('',#123) ;
#126=VERTEX_POINT('',#125) ;
#167=VERTEX_POINT('',#166) ;
#174=VERTEX_POINT('',#173) ;
#215=VERTEX_POINT('',#214) ;
#217=VERTEX_POINT('',#216) ;
#243=VERTEX_POINT('',#242) ;
#250=VERTEX_POINT('',#249) ;
#291=VERTEX_POINT('',#290) ;
#293=VERTEX_POINT('',#292) ;
#319=VERTEX_POINT('',#318) ;
#326=VERTEX_POINT('',#325) ;
#41=(LENGTH_UNIT()NAMED_UNIT(*)SI_UNIT(.MILLI.,.METRE.)) ;
#42=(NAMED_UNIT(*)PLANE_ANGLE_UNIT()SI_UNIT($,.RADIAN.)) ;
#44=(NAMED_UNIT(*)SI_UNIT($,.STERADIAN.)SOLID_ANGLE_UNIT()) ;
#46=(GEOMETRIC_REPRESENTATION_CONTEXT(3)GLOBAL_UNCERTAINTY_ASSIGNED_CONTEXT((#45))GLOBAL_UNIT_ASSIGNED_CONTEXT((#41,#42,#44))REPRESENTATION_CONTEXT(' ',' ')) ;
ENDSEC;
END-ISO-10303-21;
