ISO-10303-21;
HEADER;
FILE_DESCRIPTION(('CATIA V5 STEP Exchange'),'2;1');

FILE_NAME('C:\\Users\\Bastien\\Documents\\Lampe\\CAO\\Contact negatif.stp','2016-10-13T18:22:52+00:00',('none'),('none'),'CATIA Version 5 Release 20 GA (IN-10)','CATIA V5 STEP AP203','none');

FILE_SCHEMA(('CONFIG_CONTROL_DESIGN'));

ENDSEC;
/* file written by CATIA V5R20 */
DATA;
#5=PRODUCT('Contact negatif','','',(#2)) ;
#1=APPLICATION_CONTEXT('configuration controlled 3D design of mechanical parts and assemblies') ;
#14=PRODUCT_DEFINITION('',' ',#6,#3) ;
#16=SECURITY_CLASSIFICATION(' ',' ',#15) ;
#15=SECURITY_CLASSIFICATION_LEVEL('unclassified') ;
#47=CARTESIAN_POINT(' ',(0.,0.,0.)) ;
#52=CARTESIAN_POINT('Axis2P3D Location',(3.5,0.,0.)) ;
#57=CARTESIAN_POINT('Line Origine',(8.5,4.79425538604,-8.7758256189)) ;
#61=CARTESIAN_POINT('Vertex',(6.,4.79425538604,-8.7758256189)) ;
#63=CARTESIAN_POINT('Vertex',(11.,4.79425538604,-8.7758256189)) ;
#66=CARTESIAN_POINT('Axis2P3D Location',(11.,0.,0.)) ;
#70=CARTESIAN_POINT('Vertex',(11.,-4.79425538604,8.7758256189)) ;
#73=CARTESIAN_POINT('Line Origine',(8.5,-4.79425538604,8.7758256189)) ;
#77=CARTESIAN_POINT('Vertex',(6.,-4.79425538604,8.7758256189)) ;
#80=CARTESIAN_POINT('Axis2P3D Location',(6.,0.,0.)) ;
#92=CARTESIAN_POINT('Axis2P3D Location',(11.,0.,0.)) ;
#97=CARTESIAN_POINT('Axis2P3D Location',(6.,0.,0.)) ;
#109=CARTESIAN_POINT('Axis2P3D Location',(3.5,0.,0.)) ;
#114=CARTESIAN_POINT('Line Origine',(7.,3.83540430883,-7.02066049512)) ;
#118=CARTESIAN_POINT('Vertex',(11.,3.83540430883,-7.02066049512)) ;
#120=CARTESIAN_POINT('Vertex',(3.,3.83540430883,-7.02066049512)) ;
#123=CARTESIAN_POINT('Axis2P3D Location',(3.,0.,0.)) ;
#127=CARTESIAN_POINT('Vertex',(3.,-3.83540430883,7.02066049512)) ;
#130=CARTESIAN_POINT('Line Origine',(7.,-3.83540430883,7.02066049512)) ;
#134=CARTESIAN_POINT('Vertex',(11.,-3.83540430883,7.02066049512)) ;
#137=CARTESIAN_POINT('Axis2P3D Location',(11.,0.,0.)) ;
#149=CARTESIAN_POINT('Axis2P3D Location',(3.,0.,0.)) ;
#154=CARTESIAN_POINT('Axis2P3D Location',(11.,0.,0.)) ;
#166=CARTESIAN_POINT('Axis2P3D Location',(3.5,0.,0.)) ;
#171=CARTESIAN_POINT('Line Origine',(-0.5,7.19138307906,-13.1637384284)) ;
#175=CARTESIAN_POINT('Vertex',(3.,7.19138307906,-13.1637384284)) ;
#177=CARTESIAN_POINT('Vertex',(-4.,7.19138307906,-13.1637384284)) ;
#180=CARTESIAN_POINT('Axis2P3D Location',(-4.,0.,0.)) ;
#184=CARTESIAN_POINT('Vertex',(-4.,-7.19138307906,13.1637384284)) ;
#187=CARTESIAN_POINT('Line Origine',(-0.5,-7.19138307906,13.1637384284)) ;
#191=CARTESIAN_POINT('Vertex',(3.,-7.19138307906,13.1637384284)) ;
#194=CARTESIAN_POINT('Axis2P3D Location',(3.,0.,0.)) ;
#206=CARTESIAN_POINT('Axis2P3D Location',(-4.,0.,0.)) ;
#211=CARTESIAN_POINT('Axis2P3D Location',(3.,0.,0.)) ;
#223=CARTESIAN_POINT('Axis2P3D Location',(6.,0.,22.)) ;
#228=CARTESIAN_POINT('Axis2P3D Location',(6.,0.,0.)) ;
#232=CARTESIAN_POINT('Vertex',(6.,10.5473618493,-19.3068163616)) ;
#234=CARTESIAN_POINT('Vertex',(6.,-10.5473618493,19.3068163616)) ;
#237=CARTESIAN_POINT('Axis2P3D Location',(6.,0.,0.)) ;
#251=CARTESIAN_POINT('Axis2P3D Location',(11.,0.,10.)) ;
#265=CARTESIAN_POINT('Axis2P3D Location',(3.,0.,8.)) ;
#279=CARTESIAN_POINT('Axis2P3D Location',(3.5,0.,0.)) ;
#284=CARTESIAN_POINT('Line Origine',(1.,10.5473618493,-19.3068163616)) ;
#288=CARTESIAN_POINT('Vertex',(-2.,10.5473618493,-19.3068163616)) ;
#291=CARTESIAN_POINT('Line Origine',(1.,-10.5473618493,19.3068163616)) ;
#295=CARTESIAN_POINT('Vertex',(-2.,-10.5473618493,19.3068163616)) ;
#298=CARTESIAN_POINT('Axis2P3D Location',(-2.,0.,0.)) ;
#310=CARTESIAN_POINT('Axis2P3D Location',(-2.,0.,0.)) ;
#322=CARTESIAN_POINT('Axis2P3D Location',(-4.,0.,15.)) ;
#327=CARTESIAN_POINT('Axis2P3D Location',(-4.,5.55111512313E-016,1.7763568394E-015)) ;
#331=CARTESIAN_POINT('Vertex',(-4.,-9.58851077208,17.5516512378)) ;
#333=CARTESIAN_POINT('Vertex',(-4.,9.58851072564,-17.5516512632)) ;
#336=CARTESIAN_POINT('Axis2P3D Location',(-4.,-6.41153796721E-015,3.5527136788E-015)) ;
#350=CARTESIAN_POINT('Axis2P3D Location',(-24.,9.41469124882E-014,-3.90798504668E-014)) ;
#355=CARTESIAN_POINT('Line Origine',(-3.,10.0679363109,-18.4292337996)) ;
#360=CARTESIAN_POINT('Line Origine',(-3.,-10.0679363107,18.4292337997)) ;
#372=CARTESIAN_POINT('Axis2P3D Location',(-24.,1.95399252334E-014,-2.75335310107E-014)) ;
#387=CARTESIAN_POINT('Axis2P3D Location',(0.,0.,0.)) ;
#53=DIRECTION('Axis2P3D Direction',(1.,0.,0.)) ;
#54=DIRECTION('Axis2P3D XDirection',(0.,-0.479425538604,0.87758256189)) ;
#58=DIRECTION('Vector Direction',(1.,0.,0.)) ;
#67=DIRECTION('Axis2P3D Direction',(1.,0.,0.)) ;
#74=DIRECTION('Vector Direction',(1.,0.,0.)) ;
#81=DIRECTION('Axis2P3D Direction',(1.,0.,0.)) ;
#93=DIRECTION('Axis2P3D Direction',(1.,0.,0.)) ;
#98=DIRECTION('Axis2P3D Direction',(1.,0.,0.)) ;
#110=DIRECTION('Axis2P3D Direction',(1.,0.,0.)) ;
#111=DIRECTION('Axis2P3D XDirection',(0.,-0.479425538604,0.87758256189)) ;
#115=DIRECTION('Vector Direction',(1.,0.,0.)) ;
#124=DIRECTION('Axis2P3D Direction',(1.,0.,0.)) ;
#131=DIRECTION('Vector Direction',(1.,0.,0.)) ;
#138=DIRECTION('Axis2P3D Direction',(1.,0.,0.)) ;
#150=DIRECTION('Axis2P3D Direction',(1.,0.,0.)) ;
#155=DIRECTION('Axis2P3D Direction',(1.,0.,0.)) ;
#167=DIRECTION('Axis2P3D Direction',(1.,0.,0.)) ;
#168=DIRECTION('Axis2P3D XDirection',(0.,-0.479425538604,0.87758256189)) ;
#172=DIRECTION('Vector Direction',(1.,0.,0.)) ;
#181=DIRECTION('Axis2P3D Direction',(1.,0.,0.)) ;
#188=DIRECTION('Vector Direction',(1.,0.,0.)) ;
#195=DIRECTION('Axis2P3D Direction',(1.,0.,0.)) ;
#207=DIRECTION('Axis2P3D Direction',(1.,0.,0.)) ;
#212=DIRECTION('Axis2P3D Direction',(1.,0.,0.)) ;
#224=DIRECTION('Axis2P3D Direction',(1.,0.,0.)) ;
#225=DIRECTION('Axis2P3D XDirection',(0.,1.,0.)) ;
#229=DIRECTION('Axis2P3D Direction',(1.,0.,0.)) ;
#238=DIRECTION('Axis2P3D Direction',(1.,0.,0.)) ;
#252=DIRECTION('Axis2P3D Direction',(1.,0.,0.)) ;
#253=DIRECTION('Axis2P3D XDirection',(0.,1.,0.)) ;
#266=DIRECTION('Axis2P3D Direction',(1.,0.,0.)) ;
#267=DIRECTION('Axis2P3D XDirection',(0.,1.,0.)) ;
#280=DIRECTION('Axis2P3D Direction',(1.,0.,0.)) ;
#281=DIRECTION('Axis2P3D XDirection',(0.,-0.479425538604,0.87758256189)) ;
#285=DIRECTION('Vector Direction',(1.,0.,0.)) ;
#292=DIRECTION('Vector Direction',(1.,0.,0.)) ;
#299=DIRECTION('Axis2P3D Direction',(1.,0.,0.)) ;
#311=DIRECTION('Axis2P3D Direction',(1.,0.,0.)) ;
#323=DIRECTION('Axis2P3D Direction',(1.,0.,0.)) ;
#324=DIRECTION('Axis2P3D XDirection',(0.,1.,0.)) ;
#328=DIRECTION('Axis2P3D Direction',(1.,0.,0.)) ;
#337=DIRECTION('Axis2P3D Direction',(1.,0.,0.)) ;
#351=DIRECTION('Axis2P3D Direction',(1.,-4.4408920985E-015,1.7763568394E-015)) ;
#352=DIRECTION('Axis2P3D XDirection',(1.71221572076E-015,0.000304494451098,-0.999999953642)) ;
#356=DIRECTION('Vector Direction',(0.707106781187,0.339005049427,-0.620544580561)) ;
#361=DIRECTION('Vector Direction',(0.707106781187,-0.339005049421,0.620544580564)) ;
#373=DIRECTION('Axis2P3D Direction',(1.,-8.881784197E-016,1.33226762955E-015)) ;
#374=DIRECTION('Axis2P3D XDirection',(-1.58050681916E-015,-0.479425538604,0.87758256189)) ;
#388=DIRECTION('Axis2P3D Direction',(0.,0.,1.)) ;
#389=DIRECTION('Axis2P3D XDirection',(1.,0.,0.)) ;
#48=AXIS2_PLACEMENT_3D(' ',#47,$,$) ;
#55=AXIS2_PLACEMENT_3D('Cylinder Axis2P3D',#52,#53,#54) ;
#68=AXIS2_PLACEMENT_3D('Circle Axis2P3D',#66,#67,$) ;
#82=AXIS2_PLACEMENT_3D('Circle Axis2P3D',#80,#81,$) ;
#94=AXIS2_PLACEMENT_3D('Circle Axis2P3D',#92,#93,$) ;
#99=AXIS2_PLACEMENT_3D('Circle Axis2P3D',#97,#98,$) ;
#112=AXIS2_PLACEMENT_3D('Cylinder Axis2P3D',#109,#110,#111) ;
#125=AXIS2_PLACEMENT_3D('Circle Axis2P3D',#123,#124,$) ;
#139=AXIS2_PLACEMENT_3D('Circle Axis2P3D',#137,#138,$) ;
#151=AXIS2_PLACEMENT_3D('Circle Axis2P3D',#149,#150,$) ;
#156=AXIS2_PLACEMENT_3D('Circle Axis2P3D',#154,#155,$) ;
#169=AXIS2_PLACEMENT_3D('Cylinder Axis2P3D',#166,#167,#168) ;
#182=AXIS2_PLACEMENT_3D('Circle Axis2P3D',#180,#181,$) ;
#196=AXIS2_PLACEMENT_3D('Circle Axis2P3D',#194,#195,$) ;
#208=AXIS2_PLACEMENT_3D('Circle Axis2P3D',#206,#207,$) ;
#213=AXIS2_PLACEMENT_3D('Circle Axis2P3D',#211,#212,$) ;
#226=AXIS2_PLACEMENT_3D('Plane Axis2P3D',#223,#224,#225) ;
#230=AXIS2_PLACEMENT_3D('Circle Axis2P3D',#228,#229,$) ;
#239=AXIS2_PLACEMENT_3D('Circle Axis2P3D',#237,#238,$) ;
#254=AXIS2_PLACEMENT_3D('Plane Axis2P3D',#251,#252,#253) ;
#268=AXIS2_PLACEMENT_3D('Plane Axis2P3D',#265,#266,#267) ;
#282=AXIS2_PLACEMENT_3D('Cylinder Axis2P3D',#279,#280,#281) ;
#300=AXIS2_PLACEMENT_3D('Circle Axis2P3D',#298,#299,$) ;
#312=AXIS2_PLACEMENT_3D('Circle Axis2P3D',#310,#311,$) ;
#325=AXIS2_PLACEMENT_3D('Plane Axis2P3D',#322,#323,#324) ;
#329=AXIS2_PLACEMENT_3D('Circle Axis2P3D',#327,#328,$) ;
#338=AXIS2_PLACEMENT_3D('Circle Axis2P3D',#336,#337,$) ;
#353=AXIS2_PLACEMENT_3D('Cone Axis2P3D',#350,#351,#352) ;
#375=AXIS2_PLACEMENT_3D('Cone Axis2P3D',#372,#373,#374) ;
#390=AXIS2_PLACEMENT_3D('',#387,#388,#389) ;
#40=PRODUCT_DEFINITION_SHAPE(' ',' ',#14) ;
#31=APPROVAL_PERSON_ORGANIZATION(#25,#21,#19) ;
#25=PERSON_AND_ORGANIZATION(#22,#23) ;
#22=PERSON(' ',' ',' ',$,$,$) ;
#23=ORGANIZATION(' ',' ',' ') ;
#21=APPROVAL(#20,' ') ;
#20=APPROVAL_STATUS('not_yet_approved') ;
#19=APPROVAL_ROLE('APPROVER') ;
#13=DATE_AND_TIME(#11,#12) ;
#12=LOCAL_TIME(20,22,52.,#10) ;
#10=COORDINATED_UNIVERSAL_TIME_OFFSET(0,0,.AHEAD.) ;
#86=ORIENTED_EDGE('',*,*,#65,.T.) ;
#87=ORIENTED_EDGE('',*,*,#72,.F.) ;
#88=ORIENTED_EDGE('',*,*,#79,.F.) ;
#89=ORIENTED_EDGE('',*,*,#84,.T.) ;
#103=ORIENTED_EDGE('',*,*,#79,.T.) ;
#104=ORIENTED_EDGE('',*,*,#96,.F.) ;
#105=ORIENTED_EDGE('',*,*,#65,.F.) ;
#106=ORIENTED_EDGE('',*,*,#101,.T.) ;
#143=ORIENTED_EDGE('',*,*,#122,.T.) ;
#144=ORIENTED_EDGE('',*,*,#129,.F.) ;
#145=ORIENTED_EDGE('',*,*,#136,.F.) ;
#146=ORIENTED_EDGE('',*,*,#141,.T.) ;
#160=ORIENTED_EDGE('',*,*,#136,.T.) ;
#161=ORIENTED_EDGE('',*,*,#153,.F.) ;
#162=ORIENTED_EDGE('',*,*,#122,.F.) ;
#163=ORIENTED_EDGE('',*,*,#158,.T.) ;
#200=ORIENTED_EDGE('',*,*,#179,.T.) ;
#201=ORIENTED_EDGE('',*,*,#186,.F.) ;
#202=ORIENTED_EDGE('',*,*,#193,.F.) ;
#203=ORIENTED_EDGE('',*,*,#198,.T.) ;
#217=ORIENTED_EDGE('',*,*,#193,.T.) ;
#218=ORIENTED_EDGE('',*,*,#210,.F.) ;
#219=ORIENTED_EDGE('',*,*,#179,.F.) ;
#220=ORIENTED_EDGE('',*,*,#215,.T.) ;
#243=ORIENTED_EDGE('',*,*,#236,.T.) ;
#244=ORIENTED_EDGE('',*,*,#241,.T.) ;
#247=ORIENTED_EDGE('',*,*,#84,.F.) ;
#248=ORIENTED_EDGE('',*,*,#101,.F.) ;
#257=ORIENTED_EDGE('',*,*,#96,.T.) ;
#258=ORIENTED_EDGE('',*,*,#72,.T.) ;
#261=ORIENTED_EDGE('',*,*,#141,.F.) ;
#262=ORIENTED_EDGE('',*,*,#158,.F.) ;
#271=ORIENTED_EDGE('',*,*,#198,.F.) ;
#272=ORIENTED_EDGE('',*,*,#215,.F.) ;
#275=ORIENTED_EDGE('',*,*,#153,.T.) ;
#276=ORIENTED_EDGE('',*,*,#129,.T.) ;
#304=ORIENTED_EDGE('',*,*,#290,.T.) ;
#305=ORIENTED_EDGE('',*,*,#241,.F.) ;
#306=ORIENTED_EDGE('',*,*,#297,.F.) ;
#307=ORIENTED_EDGE('',*,*,#302,.T.) ;
#316=ORIENTED_EDGE('',*,*,#297,.T.) ;
#317=ORIENTED_EDGE('',*,*,#236,.F.) ;
#318=ORIENTED_EDGE('',*,*,#290,.F.) ;
#319=ORIENTED_EDGE('',*,*,#314,.T.) ;
#342=ORIENTED_EDGE('',*,*,#335,.F.) ;
#343=ORIENTED_EDGE('',*,*,#340,.F.) ;
#346=ORIENTED_EDGE('',*,*,#210,.T.) ;
#347=ORIENTED_EDGE('',*,*,#186,.T.) ;
#366=ORIENTED_EDGE('',*,*,#359,.T.) ;
#367=ORIENTED_EDGE('',*,*,#340,.T.) ;
#368=ORIENTED_EDGE('',*,*,#364,.F.) ;
#369=ORIENTED_EDGE('',*,*,#314,.F.) ;
#378=ORIENTED_EDGE('',*,*,#364,.T.) ;
#379=ORIENTED_EDGE('',*,*,#335,.T.) ;
#380=ORIENTED_EDGE('',*,*,#359,.F.) ;
#381=ORIENTED_EDGE('',*,*,#302,.F.) ;
#249=FACE_BOUND('',#246,.T.) ;
#263=FACE_BOUND('',#260,.T.) ;
#277=FACE_BOUND('',#274,.T.) ;
#348=FACE_BOUND('',#345,.T.) ;
#51=CLOSED_SHELL('Closed Shell',(#91,#108,#148,#165,#205,#222,#250,#264,#278,#309,#321,#349,#371,#383)) ;
#59=VECTOR('Line Direction',#58,1.) ;
#75=VECTOR('Line Direction',#74,1.) ;
#116=VECTOR('Line Direction',#115,1.) ;
#132=VECTOR('Line Direction',#131,1.) ;
#173=VECTOR('Line Direction',#172,1.) ;
#189=VECTOR('Line Direction',#188,1.) ;
#286=VECTOR('Line Direction',#285,1.) ;
#293=VECTOR('Line Direction',#292,1.) ;
#357=VECTOR('Line Direction',#356,1.) ;
#362=VECTOR('Line Direction',#361,1.) ;
#385=ADVANCED_BREP_SHAPE_REPRESENTATION('NONE',(#384),#46) ;
#49=SHAPE_REPRESENTATION(' ',(#48),#46) ;
#91=ADVANCED_FACE('Corps principal',(#90),#56,.T.) ;
#108=ADVANCED_FACE('Corps principal',(#107),#56,.T.) ;
#148=ADVANCED_FACE('Corps principal',(#147),#113,.F.) ;
#165=ADVANCED_FACE('Corps principal',(#164),#113,.F.) ;
#205=ADVANCED_FACE('Corps principal',(#204),#170,.F.) ;
#222=ADVANCED_FACE('Corps principal',(#221),#170,.F.) ;
#250=ADVANCED_FACE('Corps principal',(#245,#249),#227,.T.) ;
#264=ADVANCED_FACE('Corps principal',(#259,#263),#255,.T.) ;
#278=ADVANCED_FACE('Corps principal',(#273,#277),#269,.F.) ;
#309=ADVANCED_FACE('Corps principal',(#308),#283,.T.) ;
#321=ADVANCED_FACE('Corps principal',(#320),#283,.T.) ;
#349=ADVANCED_FACE('Corps principal',(#344,#348),#326,.F.) ;
#371=ADVANCED_FACE('Corps principal',(#370),#354,.T.) ;
#383=ADVANCED_FACE('Corps principal',(#382),#376,.T.) ;
#4=APPLICATION_PROTOCOL_DEFINITION('international standard','config_control_design',1994,#1) ;
#32=APPROVAL_DATE_TIME(#13,#21) ;
#384=MANIFOLD_SOLID_BREP('Corps principal',#51) ;
#11=CALENDAR_DATE(2016,13,10) ;
#30=CC_DESIGN_APPROVAL(#21,(#16,#6,#14)) ;
#18=CC_DESIGN_DATE_AND_TIME_ASSIGNMENT(#13,#17,(#16)) ;
#29=CC_DESIGN_DATE_AND_TIME_ASSIGNMENT(#13,#28,(#14)) ;
#17=DATE_TIME_ROLE('classification_date') ;
#28=DATE_TIME_ROLE('creation_date') ;
#27=CC_DESIGN_PERSON_AND_ORGANIZATION_ASSIGNMENT(#25,#26,(#16)) ;
#33=CC_DESIGN_PERSON_AND_ORGANIZATION_ASSIGNMENT(#25,#34,(#6)) ;
#35=CC_DESIGN_PERSON_AND_ORGANIZATION_ASSIGNMENT(#25,#36,(#6,#14)) ;
#37=CC_DESIGN_PERSON_AND_ORGANIZATION_ASSIGNMENT(#25,#38,(#5)) ;
#26=PERSON_AND_ORGANIZATION_ROLE('classification_officer') ;
#34=PERSON_AND_ORGANIZATION_ROLE('design_supplier') ;
#36=PERSON_AND_ORGANIZATION_ROLE('creator') ;
#38=PERSON_AND_ORGANIZATION_ROLE('design_owner') ;
#39=CC_DESIGN_SECURITY_CLASSIFICATION(#16,(#6)) ;
#69=CIRCLE('generated circle',#68,10.) ;
#83=CIRCLE('generated circle',#82,10.) ;
#95=CIRCLE('generated circle',#94,10.) ;
#100=CIRCLE('generated circle',#99,10.) ;
#126=CIRCLE('generated circle',#125,8.) ;
#140=CIRCLE('generated circle',#139,8.) ;
#152=CIRCLE('generated circle',#151,8.) ;
#157=CIRCLE('generated circle',#156,8.) ;
#183=CIRCLE('generated circle',#182,15.) ;
#197=CIRCLE('generated circle',#196,15.) ;
#209=CIRCLE('generated circle',#208,15.) ;
#214=CIRCLE('generated circle',#213,15.) ;
#231=CIRCLE('generated circle',#230,22.) ;
#240=CIRCLE('generated circle',#239,22.) ;
#301=CIRCLE('generated circle',#300,22.) ;
#313=CIRCLE('generated circle',#312,22.) ;
#330=CIRCLE('generated circle',#329,20.) ;
#339=CIRCLE('generated circle',#338,20.) ;
#354=CONICAL_SURFACE('Cone',#353,0.,0.785398163397) ;
#376=CONICAL_SURFACE('Cone',#375,0.,0.785398163397) ;
#386=SHAPE_REPRESENTATION_RELATIONSHIP(' ',' ',#49,#385) ;
#56=CYLINDRICAL_SURFACE('generated cylinder',#55,10.) ;
#113=CYLINDRICAL_SURFACE('generated cylinder',#112,8.) ;
#170=CYLINDRICAL_SURFACE('generated cylinder',#169,15.) ;
#283=CYLINDRICAL_SURFACE('generated cylinder',#282,22.) ;
#3=DESIGN_CONTEXT(' ',#1,'design') ;
#65=EDGE_CURVE('',#62,#64,#60,.T.) ;
#72=EDGE_CURVE('',#71,#64,#69,.T.) ;
#79=EDGE_CURVE('',#78,#71,#76,.T.) ;
#84=EDGE_CURVE('',#78,#62,#83,.T.) ;
#96=EDGE_CURVE('',#64,#71,#95,.T.) ;
#101=EDGE_CURVE('',#62,#78,#100,.T.) ;
#122=EDGE_CURVE('',#119,#121,#117,.F.) ;
#129=EDGE_CURVE('',#128,#121,#126,.T.) ;
#136=EDGE_CURVE('',#135,#128,#133,.F.) ;
#141=EDGE_CURVE('',#135,#119,#140,.T.) ;
#153=EDGE_CURVE('',#121,#128,#152,.T.) ;
#158=EDGE_CURVE('',#119,#135,#157,.T.) ;
#179=EDGE_CURVE('',#176,#178,#174,.F.) ;
#186=EDGE_CURVE('',#185,#178,#183,.T.) ;
#193=EDGE_CURVE('',#192,#185,#190,.F.) ;
#198=EDGE_CURVE('',#192,#176,#197,.T.) ;
#210=EDGE_CURVE('',#178,#185,#209,.T.) ;
#215=EDGE_CURVE('',#176,#192,#214,.T.) ;
#236=EDGE_CURVE('',#233,#235,#231,.T.) ;
#241=EDGE_CURVE('',#235,#233,#240,.T.) ;
#290=EDGE_CURVE('',#289,#233,#287,.T.) ;
#297=EDGE_CURVE('',#296,#235,#294,.T.) ;
#302=EDGE_CURVE('',#296,#289,#301,.T.) ;
#314=EDGE_CURVE('',#289,#296,#313,.T.) ;
#335=EDGE_CURVE('',#332,#334,#330,.T.) ;
#340=EDGE_CURVE('',#334,#332,#339,.T.) ;
#359=EDGE_CURVE('',#289,#334,#358,.F.) ;
#364=EDGE_CURVE('',#296,#332,#363,.F.) ;
#85=EDGE_LOOP('',(#86,#87,#88,#89)) ;
#102=EDGE_LOOP('',(#103,#104,#105,#106)) ;
#142=EDGE_LOOP('',(#143,#144,#145,#146)) ;
#159=EDGE_LOOP('',(#160,#161,#162,#163)) ;
#199=EDGE_LOOP('',(#200,#201,#202,#203)) ;
#216=EDGE_LOOP('',(#217,#218,#219,#220)) ;
#242=EDGE_LOOP('',(#243,#244)) ;
#246=EDGE_LOOP('',(#247,#248)) ;
#256=EDGE_LOOP('',(#257,#258)) ;
#260=EDGE_LOOP('',(#261,#262)) ;
#270=EDGE_LOOP('',(#271,#272)) ;
#274=EDGE_LOOP('',(#275,#276)) ;
#303=EDGE_LOOP('',(#304,#305,#306,#307)) ;
#315=EDGE_LOOP('',(#316,#317,#318,#319)) ;
#341=EDGE_LOOP('',(#342,#343)) ;
#345=EDGE_LOOP('',(#346,#347)) ;
#365=EDGE_LOOP('',(#366,#367,#368,#369)) ;
#377=EDGE_LOOP('',(#378,#379,#380,#381)) ;
#90=FACE_OUTER_BOUND('',#85,.T.) ;
#107=FACE_OUTER_BOUND('',#102,.T.) ;
#147=FACE_OUTER_BOUND('',#142,.T.) ;
#164=FACE_OUTER_BOUND('',#159,.T.) ;
#204=FACE_OUTER_BOUND('',#199,.T.) ;
#221=FACE_OUTER_BOUND('',#216,.T.) ;
#245=FACE_OUTER_BOUND('',#242,.T.) ;
#259=FACE_OUTER_BOUND('',#256,.T.) ;
#273=FACE_OUTER_BOUND('',#270,.T.) ;
#308=FACE_OUTER_BOUND('',#303,.T.) ;
#320=FACE_OUTER_BOUND('',#315,.T.) ;
#344=FACE_OUTER_BOUND('',#341,.T.) ;
#370=FACE_OUTER_BOUND('',#365,.T.) ;
#382=FACE_OUTER_BOUND('',#377,.T.) ;
#45=UNCERTAINTY_MEASURE_WITH_UNIT(LENGTH_MEASURE(0.005),#41,'distance_accuracy_value','CONFUSED CURVE UNCERTAINTY') ;
#60=LINE('Line',#57,#59) ;
#76=LINE('Line',#73,#75) ;
#117=LINE('Line',#114,#116) ;
#133=LINE('Line',#130,#132) ;
#174=LINE('Line',#171,#173) ;
#190=LINE('Line',#187,#189) ;
#287=LINE('Line',#284,#286) ;
#294=LINE('Line',#291,#293) ;
#358=LINE('Line',#355,#357) ;
#363=LINE('Line',#360,#362) ;
#2=MECHANICAL_CONTEXT(' ',#1,'mechanical') ;
#24=PERSONAL_ADDRESS(' ',' ',' ',' ',' ',' ',' ',' ',' ',' ',' ',' ',(#22),' ') ;
#227=PLANE('Plane',#226) ;
#255=PLANE('Plane',#254) ;
#269=PLANE('Plane',#268) ;
#326=PLANE('Plane',#325) ;
#43=PLANE_ANGLE_MEASURE_WITH_UNIT(PLANE_ANGLE_MEASURE(0.0174532925199),#42) ;
#7=PRODUCT_CATEGORY('part',$) ;
#9=PRODUCT_CATEGORY_RELATIONSHIP(' ',' ',#7,#8) ;
#6=PRODUCT_DEFINITION_FORMATION_WITH_SPECIFIED_SOURCE('',' ',#5,.NOT_KNOWN.) ;
#8=PRODUCT_RELATED_PRODUCT_CATEGORY('detail',$,(#5)) ;
#50=SHAPE_DEFINITION_REPRESENTATION(#40,#49) ;
#62=VERTEX_POINT('',#61) ;
#64=VERTEX_POINT('',#63) ;
#71=VERTEX_POINT('',#70) ;
#78=VERTEX_POINT('',#77) ;
#119=VERTEX_POINT('',#118) ;
#121=VERTEX_POINT('',#120) ;
#128=VERTEX_POINT('',#127) ;
#135=VERTEX_POINT('',#134) ;
#176=VERTEX_POINT('',#175) ;
#178=VERTEX_POINT('',#177) ;
#185=VERTEX_POINT('',#184) ;
#192=VERTEX_POINT('',#191) ;
#233=VERTEX_POINT('',#232) ;
#235=VERTEX_POINT('',#234) ;
#289=VERTEX_POINT('',#288) ;
#296=VERTEX_POINT('',#295) ;
#332=VERTEX_POINT('',#331) ;
#334=VERTEX_POINT('',#333) ;
#41=(LENGTH_UNIT()NAMED_UNIT(*)SI_UNIT(.MILLI.,.METRE.)) ;
#42=(NAMED_UNIT(*)PLANE_ANGLE_UNIT()SI_UNIT($,.RADIAN.)) ;
#44=(NAMED_UNIT(*)SI_UNIT($,.STERADIAN.)SOLID_ANGLE_UNIT()) ;
#46=(GEOMETRIC_REPRESENTATION_CONTEXT(3)GLOBAL_UNCERTAINTY_ASSIGNED_CONTEXT((#45))GLOBAL_UNIT_ASSIGNED_CONTEXT((#41,#42,#44))REPRESENTATION_CONTEXT(' ',' ')) ;
ENDSEC;
END-ISO-10303-21;
