ISO-10303-21;
HEADER;
FILE_DESCRIPTION(('CATIA V5 STEP Exchange'),'2;1');

FILE_NAME('C:\\Users\\Bastien\\Desktop\\Devis\\Contact positif.stp','2016-10-13T18:23:14+00:00',('none'),('none'),'CATIA Version 5 Release 20 GA (IN-10)','CATIA V5 STEP AP203','none');

FILE_SCHEMA(('CONFIG_CONTROL_DESIGN'));

ENDSEC;
/* file written by CATIA V5R20 */
DATA;
#5=PRODUCT('Contact positif','','',(#2)) ;
#1=APPLICATION_CONTEXT('configuration controlled 3D design of mechanical parts and assemblies') ;
#14=PRODUCT_DEFINITION('',' ',#6,#3) ;
#16=SECURITY_CLASSIFICATION(' ',' ',#15) ;
#15=SECURITY_CLASSIFICATION_LEVEL('unclassified') ;
#47=CARTESIAN_POINT(' ',(0.,0.,0.)) ;
#52=CARTESIAN_POINT('Axis2P3D Location',(12.,0.,4.)) ;
#57=CARTESIAN_POINT('Axis2P3D Location',(12.,9.85878045867E-014,2.17603712827E-014)) ;
#61=CARTESIAN_POINT('Vertex',(12.,1.6779893836,-3.07153896744)) ;
#63=CARTESIAN_POINT('Vertex',(12.,-1.67798938511,3.07153896662)) ;
#66=CARTESIAN_POINT('Axis2P3D Location',(12.,-1.27058086274E-013,2.975397706E-014)) ;
#76=CARTESIAN_POINT('Axis2P3D Location',(15.5,3.5482727867E-012,1.95432559025E-012)) ;
#81=CARTESIAN_POINT('Line Origine',(11.75,1.79784576977,-3.29093460709)) ;
#85=CARTESIAN_POINT('Vertex',(11.5,1.91770215442,-3.51033024756)) ;
#88=CARTESIAN_POINT('Axis2P3D Location',(11.5,-8.88178420467E-016,-5.55111512735E-016)) ;
#92=CARTESIAN_POINT('Vertex',(11.5,-1.91770215442,3.51033024756)) ;
#95=CARTESIAN_POINT('Line Origine',(11.75,-1.79784576977,3.29093460709)) ;
#107=CARTESIAN_POINT('Axis2P3D Location',(15.5,-2.59525734236E-012,-7.61612994893E-014)) ;
#112=CARTESIAN_POINT('Axis2P3D Location',(11.5,-1.77635684016E-015,2.22044604903E-016)) ;
#124=CARTESIAN_POINT('Axis2P3D Location',(0.,0.,0.)) ;
#129=CARTESIAN_POINT('Axis2P3D Location',(0.,-1.26440524717E-013,2.96498936514E-014)) ;
#133=CARTESIAN_POINT('Vertex',(0.,-1.67798938511,3.07153896662)) ;
#135=CARTESIAN_POINT('Vertex',(0.,1.6779893836,-3.07153896744)) ;
#138=CARTESIAN_POINT('Axis2P3D Location',(0.,4.15931178388E-013,1.28674848554E-013)) ;
#148=CARTESIAN_POINT('Axis2P3D Location',(6.,0.,0.)) ;
#153=CARTESIAN_POINT('Line Origine',(6.,1.91770215442,-3.51033024756)) ;
#157=CARTESIAN_POINT('Vertex',(0.5,1.91770215442,-3.51033024756)) ;
#160=CARTESIAN_POINT('Line Origine',(6.,-1.91770215442,3.51033024756)) ;
#164=CARTESIAN_POINT('Vertex',(0.5,-1.91770215442,3.51033024756)) ;
#167=CARTESIAN_POINT('Axis2P3D Location',(0.5,0.,0.)) ;
#179=CARTESIAN_POINT('Axis2P3D Location',(0.5,0.,0.)) ;
#191=CARTESIAN_POINT('Axis2P3D Location',(-3.5,5.13211695363E-012,1.79833925529E-012)) ;
#196=CARTESIAN_POINT('Line Origine',(0.250000000005,1.79784576881,-3.29093460761)) ;
#201=CARTESIAN_POINT('Line Origine',(0.25,-1.79784576977,3.29093460709)) ;
#213=CARTESIAN_POINT('Axis2P3D Location',(-3.5,-2.61302091076E-012,-6.90558721317E-014)) ;
#228=CARTESIAN_POINT('Axis2P3D Location',(0.,0.,0.)) ;
#53=DIRECTION('Axis2P3D Direction',(1.,0.,0.)) ;
#54=DIRECTION('Axis2P3D XDirection',(0.,1.,0.)) ;
#58=DIRECTION('Axis2P3D Direction',(1.,0.,0.)) ;
#67=DIRECTION('Axis2P3D Direction',(1.,0.,0.)) ;
#77=DIRECTION('Axis2P3D Direction',(-1.,-8.8729024128E-013,-4.8872017544E-013)) ;
#78=DIRECTION('Axis2P3D XDirection',(2.15870889717E-013,0.284639962696,-0.958634493244)) ;
#82=DIRECTION('Vector Direction',(-0.707106781187,0.33900504942,-0.620544580564)) ;
#89=DIRECTION('Axis2P3D Direction',(1.,9.48757033367E-013,2.81707124549E-013)) ;
#96=DIRECTION('Vector Direction',(-0.707106781187,-0.339005049422,0.620544580563)) ;
#108=DIRECTION('Axis2P3D Direction',(-1.,6.48370246381E-013,1.90958360236E-014)) ;
#109=DIRECTION('Axis2P3D XDirection',(-2.94105977265E-013,-0.479425538604,0.87758256189)) ;
#113=DIRECTION('Axis2P3D Direction',(1.,-5.07377388751E-013,-2.77181530765E-013)) ;
#125=DIRECTION('Axis2P3D Direction',(1.,0.,0.)) ;
#126=DIRECTION('Axis2P3D XDirection',(0.,1.,0.)) ;
#130=DIRECTION('Axis2P3D Direction',(1.,0.,0.)) ;
#139=DIRECTION('Axis2P3D Direction',(1.,0.,0.)) ;
#149=DIRECTION('Axis2P3D Direction',(1.,0.,0.)) ;
#150=DIRECTION('Axis2P3D XDirection',(0.,-0.479425538604,0.87758256189)) ;
#154=DIRECTION('Vector Direction',(1.,0.,0.)) ;
#161=DIRECTION('Vector Direction',(1.,0.,0.)) ;
#168=DIRECTION('Axis2P3D Direction',(1.,0.,0.)) ;
#180=DIRECTION('Axis2P3D Direction',(1.,0.,0.)) ;
#192=DIRECTION('Axis2P3D Direction',(1.,-1.28297372726E-012,-4.49418280368E-013)) ;
#193=DIRECTION('Axis2P3D XDirection',(-6.09943923294E-013,-0.12796667928,-0.9917784677)) ;
#197=DIRECTION('Vector Direction',(0.707106781187,0.339005049241,-0.620544580662)) ;
#202=DIRECTION('Vector Direction',(0.707106781186,-0.339005049422,0.620544580563)) ;
#214=DIRECTION('Axis2P3D Direction',(1.,6.53699316899E-013,1.73194791842E-014)) ;
#215=DIRECTION('Axis2P3D XDirection',(2.98188953215E-013,-0.479425538604,0.87758256189)) ;
#229=DIRECTION('Axis2P3D Direction',(0.,0.,1.)) ;
#230=DIRECTION('Axis2P3D XDirection',(1.,0.,0.)) ;
#48=AXIS2_PLACEMENT_3D(' ',#47,$,$) ;
#55=AXIS2_PLACEMENT_3D('Plane Axis2P3D',#52,#53,#54) ;
#59=AXIS2_PLACEMENT_3D('Circle Axis2P3D',#57,#58,$) ;
#68=AXIS2_PLACEMENT_3D('Circle Axis2P3D',#66,#67,$) ;
#79=AXIS2_PLACEMENT_3D('Cone Axis2P3D',#76,#77,#78) ;
#90=AXIS2_PLACEMENT_3D('Circle Axis2P3D',#88,#89,$) ;
#110=AXIS2_PLACEMENT_3D('Cone Axis2P3D',#107,#108,#109) ;
#114=AXIS2_PLACEMENT_3D('Circle Axis2P3D',#112,#113,$) ;
#127=AXIS2_PLACEMENT_3D('Plane Axis2P3D',#124,#125,#126) ;
#131=AXIS2_PLACEMENT_3D('Circle Axis2P3D',#129,#130,$) ;
#140=AXIS2_PLACEMENT_3D('Circle Axis2P3D',#138,#139,$) ;
#151=AXIS2_PLACEMENT_3D('Cylinder Axis2P3D',#148,#149,#150) ;
#169=AXIS2_PLACEMENT_3D('Circle Axis2P3D',#167,#168,$) ;
#181=AXIS2_PLACEMENT_3D('Circle Axis2P3D',#179,#180,$) ;
#194=AXIS2_PLACEMENT_3D('Cone Axis2P3D',#191,#192,#193) ;
#216=AXIS2_PLACEMENT_3D('Cone Axis2P3D',#213,#214,#215) ;
#231=AXIS2_PLACEMENT_3D('',#228,#229,#230) ;
#40=PRODUCT_DEFINITION_SHAPE(' ',' ',#14) ;
#31=APPROVAL_PERSON_ORGANIZATION(#25,#21,#19) ;
#25=PERSON_AND_ORGANIZATION(#22,#23) ;
#22=PERSON(' ',' ',' ',$,$,$) ;
#23=ORGANIZATION(' ',' ',' ') ;
#21=APPROVAL(#20,' ') ;
#20=APPROVAL_STATUS('not_yet_approved') ;
#19=APPROVAL_ROLE('APPROVER') ;
#13=DATE_AND_TIME(#11,#12) ;
#12=LOCAL_TIME(20,23,14.,#10) ;
#10=COORDINATED_UNIVERSAL_TIME_OFFSET(0,0,.AHEAD.) ;
#72=ORIENTED_EDGE('',*,*,#65,.T.) ;
#73=ORIENTED_EDGE('',*,*,#70,.T.) ;
#101=ORIENTED_EDGE('',*,*,#87,.T.) ;
#102=ORIENTED_EDGE('',*,*,#94,.T.) ;
#103=ORIENTED_EDGE('',*,*,#99,.F.) ;
#104=ORIENTED_EDGE('',*,*,#65,.F.) ;
#118=ORIENTED_EDGE('',*,*,#99,.T.) ;
#119=ORIENTED_EDGE('',*,*,#116,.T.) ;
#120=ORIENTED_EDGE('',*,*,#87,.F.) ;
#121=ORIENTED_EDGE('',*,*,#70,.F.) ;
#144=ORIENTED_EDGE('',*,*,#137,.F.) ;
#145=ORIENTED_EDGE('',*,*,#142,.F.) ;
#173=ORIENTED_EDGE('',*,*,#159,.T.) ;
#174=ORIENTED_EDGE('',*,*,#116,.F.) ;
#175=ORIENTED_EDGE('',*,*,#166,.F.) ;
#176=ORIENTED_EDGE('',*,*,#171,.T.) ;
#185=ORIENTED_EDGE('',*,*,#166,.T.) ;
#186=ORIENTED_EDGE('',*,*,#94,.F.) ;
#187=ORIENTED_EDGE('',*,*,#159,.F.) ;
#188=ORIENTED_EDGE('',*,*,#183,.T.) ;
#207=ORIENTED_EDGE('',*,*,#200,.T.) ;
#208=ORIENTED_EDGE('',*,*,#142,.T.) ;
#209=ORIENTED_EDGE('',*,*,#205,.F.) ;
#210=ORIENTED_EDGE('',*,*,#183,.F.) ;
#219=ORIENTED_EDGE('',*,*,#205,.T.) ;
#220=ORIENTED_EDGE('',*,*,#137,.T.) ;
#221=ORIENTED_EDGE('',*,*,#200,.F.) ;
#222=ORIENTED_EDGE('',*,*,#171,.F.) ;
#51=CLOSED_SHELL('Closed Shell',(#75,#106,#123,#147,#178,#190,#212,#224)) ;
#83=VECTOR('Line Direction',#82,1.) ;
#97=VECTOR('Line Direction',#96,1.) ;
#155=VECTOR('Line Direction',#154,1.) ;
#162=VECTOR('Line Direction',#161,1.) ;
#198=VECTOR('Line Direction',#197,1.) ;
#203=VECTOR('Line Direction',#202,1.) ;
#226=ADVANCED_BREP_SHAPE_REPRESENTATION('NONE',(#225),#46) ;
#49=SHAPE_REPRESENTATION(' ',(#48),#46) ;
#75=ADVANCED_FACE('Corps principal',(#74),#56,.T.) ;
#106=ADVANCED_FACE('Corps principal',(#105),#80,.T.) ;
#123=ADVANCED_FACE('Corps principal',(#122),#111,.T.) ;
#147=ADVANCED_FACE('Corps principal',(#146),#128,.F.) ;
#178=ADVANCED_FACE('Corps principal',(#177),#152,.T.) ;
#190=ADVANCED_FACE('Corps principal',(#189),#152,.T.) ;
#212=ADVANCED_FACE('Corps principal',(#211),#195,.T.) ;
#224=ADVANCED_FACE('Corps principal',(#223),#217,.T.) ;
#4=APPLICATION_PROTOCOL_DEFINITION('international standard','config_control_design',1994,#1) ;
#32=APPROVAL_DATE_TIME(#13,#21) ;
#225=MANIFOLD_SOLID_BREP('Corps principal',#51) ;
#11=CALENDAR_DATE(2016,13,10) ;
#30=CC_DESIGN_APPROVAL(#21,(#16,#6,#14)) ;
#18=CC_DESIGN_DATE_AND_TIME_ASSIGNMENT(#13,#17,(#16)) ;
#29=CC_DESIGN_DATE_AND_TIME_ASSIGNMENT(#13,#28,(#14)) ;
#17=DATE_TIME_ROLE('classification_date') ;
#28=DATE_TIME_ROLE('creation_date') ;
#27=CC_DESIGN_PERSON_AND_ORGANIZATION_ASSIGNMENT(#25,#26,(#16)) ;
#33=CC_DESIGN_PERSON_AND_ORGANIZATION_ASSIGNMENT(#25,#34,(#6)) ;
#35=CC_DESIGN_PERSON_AND_ORGANIZATION_ASSIGNMENT(#25,#36,(#6,#14)) ;
#37=CC_DESIGN_PERSON_AND_ORGANIZATION_ASSIGNMENT(#25,#38,(#5)) ;
#26=PERSON_AND_ORGANIZATION_ROLE('classification_officer') ;
#34=PERSON_AND_ORGANIZATION_ROLE('design_supplier') ;
#36=PERSON_AND_ORGANIZATION_ROLE('creator') ;
#38=PERSON_AND_ORGANIZATION_ROLE('design_owner') ;
#39=CC_DESIGN_SECURITY_CLASSIFICATION(#16,(#6)) ;
#60=CIRCLE('generated circle',#59,3.5) ;
#69=CIRCLE('generated circle',#68,3.5) ;
#91=CIRCLE('generated circle',#90,4.) ;
#115=CIRCLE('generated circle',#114,4.) ;
#132=CIRCLE('generated circle',#131,3.5) ;
#141=CIRCLE('generated circle',#140,3.5) ;
#170=CIRCLE('generated circle',#169,4.) ;
#182=CIRCLE('generated circle',#181,4.) ;
#80=CONICAL_SURFACE('Cone',#79,0.,0.785398163397) ;
#111=CONICAL_SURFACE('Cone',#110,0.,0.785398163398) ;
#195=CONICAL_SURFACE('Cone',#194,0.,0.785398163397) ;
#217=CONICAL_SURFACE('Cone',#216,0.,0.785398163398) ;
#227=SHAPE_REPRESENTATION_RELATIONSHIP(' ',' ',#49,#226) ;
#152=CYLINDRICAL_SURFACE('generated cylinder',#151,4.) ;
#3=DESIGN_CONTEXT(' ',#1,'design') ;
#65=EDGE_CURVE('',#62,#64,#60,.T.) ;
#70=EDGE_CURVE('',#64,#62,#69,.T.) ;
#87=EDGE_CURVE('',#62,#86,#84,.T.) ;
#94=EDGE_CURVE('',#86,#93,#91,.T.) ;
#99=EDGE_CURVE('',#64,#93,#98,.T.) ;
#116=EDGE_CURVE('',#93,#86,#115,.T.) ;
#137=EDGE_CURVE('',#134,#136,#132,.T.) ;
#142=EDGE_CURVE('',#136,#134,#141,.T.) ;
#159=EDGE_CURVE('',#158,#86,#156,.T.) ;
#166=EDGE_CURVE('',#165,#93,#163,.T.) ;
#171=EDGE_CURVE('',#165,#158,#170,.T.) ;
#183=EDGE_CURVE('',#158,#165,#182,.T.) ;
#200=EDGE_CURVE('',#158,#136,#199,.F.) ;
#205=EDGE_CURVE('',#165,#134,#204,.F.) ;
#71=EDGE_LOOP('',(#72,#73)) ;
#100=EDGE_LOOP('',(#101,#102,#103,#104)) ;
#117=EDGE_LOOP('',(#118,#119,#120,#121)) ;
#143=EDGE_LOOP('',(#144,#145)) ;
#172=EDGE_LOOP('',(#173,#174,#175,#176)) ;
#184=EDGE_LOOP('',(#185,#186,#187,#188)) ;
#206=EDGE_LOOP('',(#207,#208,#209,#210)) ;
#218=EDGE_LOOP('',(#219,#220,#221,#222)) ;
#74=FACE_OUTER_BOUND('',#71,.T.) ;
#105=FACE_OUTER_BOUND('',#100,.T.) ;
#122=FACE_OUTER_BOUND('',#117,.T.) ;
#146=FACE_OUTER_BOUND('',#143,.T.) ;
#177=FACE_OUTER_BOUND('',#172,.T.) ;
#189=FACE_OUTER_BOUND('',#184,.T.) ;
#211=FACE_OUTER_BOUND('',#206,.T.) ;
#223=FACE_OUTER_BOUND('',#218,.T.) ;
#45=UNCERTAINTY_MEASURE_WITH_UNIT(LENGTH_MEASURE(0.005),#41,'distance_accuracy_value','CONFUSED CURVE UNCERTAINTY') ;
#84=LINE('Line',#81,#83) ;
#98=LINE('Line',#95,#97) ;
#156=LINE('Line',#153,#155) ;
#163=LINE('Line',#160,#162) ;
#199=LINE('Line',#196,#198) ;
#204=LINE('Line',#201,#203) ;
#2=MECHANICAL_CONTEXT(' ',#1,'mechanical') ;
#24=PERSONAL_ADDRESS(' ',' ',' ',' ',' ',' ',' ',' ',' ',' ',' ',' ',(#22),' ') ;
#56=PLANE('Plane',#55) ;
#128=PLANE('Plane',#127) ;
#43=PLANE_ANGLE_MEASURE_WITH_UNIT(PLANE_ANGLE_MEASURE(0.0174532925199),#42) ;
#7=PRODUCT_CATEGORY('part',$) ;
#9=PRODUCT_CATEGORY_RELATIONSHIP(' ',' ',#7,#8) ;
#6=PRODUCT_DEFINITION_FORMATION_WITH_SPECIFIED_SOURCE('',' ',#5,.NOT_KNOWN.) ;
#8=PRODUCT_RELATED_PRODUCT_CATEGORY('detail',$,(#5)) ;
#50=SHAPE_DEFINITION_REPRESENTATION(#40,#49) ;
#62=VERTEX_POINT('',#61) ;
#64=VERTEX_POINT('',#63) ;
#86=VERTEX_POINT('',#85) ;
#93=VERTEX_POINT('',#92) ;
#134=VERTEX_POINT('',#133) ;
#136=VERTEX_POINT('',#135) ;
#158=VERTEX_POINT('',#157) ;
#165=VERTEX_POINT('',#164) ;
#41=(LENGTH_UNIT()NAMED_UNIT(*)SI_UNIT(.MILLI.,.METRE.)) ;
#42=(NAMED_UNIT(*)PLANE_ANGLE_UNIT()SI_UNIT($,.RADIAN.)) ;
#44=(NAMED_UNIT(*)SI_UNIT($,.STERADIAN.)SOLID_ANGLE_UNIT()) ;
#46=(GEOMETRIC_REPRESENTATION_CONTEXT(3)GLOBAL_UNCERTAINTY_ASSIGNED_CONTEXT((#45))GLOBAL_UNIT_ASSIGNED_CONTEXT((#41,#42,#44))REPRESENTATION_CONTEXT(' ',' ')) ;
ENDSEC;
END-ISO-10303-21;
