ISO-10303-21;
HEADER;
FILE_DESCRIPTION(('CATIA V5 STEP Exchange'),'2;1');

FILE_NAME('D:\\Users\\s554843\\Documents\\perso\\HE COVER.stp','2016-10-11T11:38:39+00:00',('none'),('none'),'CATIA Version 5 Release 19 SP 9 (IN-10)','CATIA V5 STEP AP203 Edition 2','none');

FILE_SCHEMA(('AP203_CONFIGURATION_CONTROLLED_3D_DESIGN_OF_MECHANICAL_PARTS_AND_ASSEMBLIES_MIM_LF  { 1 0 10303 403 2 1 2}'));

ENDSEC;
/* file written by CATIA V5R19 */
DATA;
#5=PRODUCT('HE cover','','',(#2)) ;
#2=PRODUCT_CONTEXT(' ',#1,'mechanical') ;
#1=APPLICATION_CONTEXT('configuration controlled 3D design of mechanical parts and assemblies') ;
#14=PRODUCT_DEFINITION('',' ',#6,#3) ;
#3=PRODUCT_DEFINITION_CONTEXT('part definition',#1,' ') ;
#15=PRODUCT_DEFINITION_SHAPE(' ',' ',#14) ;
#50=SHAPE_REPRESENTATION_RELATIONSHIP(' ',' ',#24,#48) ;
#405=SHAPE_REPRESENTATION_RELATIONSHIP(' ',' ',#24,#404) ;
#47=STYLED_ITEM(' ',(#46),#42) ;
#59=STYLED_ITEM(' ',(#58),#51) ;
#46=PRESENTATION_STYLE_ASSIGNMENT((#45)) ;
#58=PRESENTATION_STYLE_ASSIGNMENT((#57)) ;
#45=CURVE_STYLE(' ',#43,POSITIVE_LENGTH_MEASURE(0.129999995232),#44) ;
#57=SURFACE_STYLE_USAGE(.BOTH.,#56) ;
#56=SURFACE_SIDE_STYLE(' ',(#55)) ;
#55=SURFACE_STYLE_FILL_AREA(#54) ;
#54=FILL_AREA_STYLE(' ',(#53)) ;
#53=FILL_AREA_STYLE_COLOUR(' ',#52) ;
#68=VECTOR('Line Direction',#67,1.) ;
#84=VECTOR('Line Direction',#83,1.) ;
#189=VECTOR('Line Direction',#188,1.) ;
#196=VECTOR('Line Direction',#195,1.) ;
#296=VECTOR('Line Direction',#295,1.) ;
#303=VECTOR('Line Direction',#302,1.) ;
#339=VECTOR('Line Direction',#338,1.) ;
#344=VECTOR('Line Direction',#343,1.) ;
#368=VECTOR('Line Direction',#367,1.) ;
#373=VECTOR('Line Direction',#372,1.) ;
#27=DIRECTION('Axis2P3D Direction',(1.,0.,0.)) ;
#35=DIRECTION('Axis2P3D Direction',(1.,0.,0.)) ;
#62=DIRECTION('Axis2P3D Direction',(-1.,0.,-0.)) ;
#63=DIRECTION('Axis2P3D XDirection',(0.,0.87758256189,-0.479425538604)) ;
#67=DIRECTION('Vector Direction',(-1.,0.,0.)) ;
#76=DIRECTION('Axis2P3D Direction',(-1.,0.,-0.)) ;
#83=DIRECTION('Vector Direction',(-1.,0.,0.)) ;
#90=DIRECTION('Axis2P3D Direction',(-1.,0.,-0.)) ;
#102=DIRECTION('Axis2P3D Direction',(1.,0.,0.)) ;
#103=DIRECTION('Axis2P3D XDirection',(0.,1.,0.)) ;
#107=DIRECTION('Axis2P3D Direction',(1.,0.,0.)) ;
#116=DIRECTION('Axis2P3D Direction',(1.,0.,0.)) ;
#125=DIRECTION('Axis2P3D Direction',(1.,0.,0.)) ;
#134=DIRECTION('Axis2P3D Direction',(1.,0.,0.)) ;
#143=DIRECTION('Axis2P3D Direction',(1.,0.,0.)) ;
#152=DIRECTION('Axis2P3D Direction',(1.,0.,0.)) ;
#161=DIRECTION('Axis2P3D Direction',(1.,0.,0.)) ;
#171=DIRECTION('Axis2P3D Direction',(-1.,0.,-0.)) ;
#183=DIRECTION('Axis2P3D Direction',(1.,0.,0.)) ;
#184=DIRECTION('Axis2P3D XDirection',(0.,-0.479425538604,0.87758256189)) ;
#188=DIRECTION('Vector Direction',(1.,0.,0.)) ;
#195=DIRECTION('Vector Direction',(1.,0.,0.)) ;
#202=DIRECTION('Axis2P3D Direction',(1.,0.,0.)) ;
#214=DIRECTION('Axis2P3D Direction',(1.,0.,0.)) ;
#226=DIRECTION('Axis2P3D Direction',(1.,0.,0.)) ;
#227=DIRECTION('Axis2P3D XDirection',(0.,1.,0.)) ;
#235=DIRECTION('Axis2P3D Direction',(1.,0.,0.)) ;
#244=DIRECTION('Axis2P3D Direction',(1.,0.,0.)) ;
#253=DIRECTION('Axis2P3D Direction',(1.,0.,0.)) ;
#262=DIRECTION('Axis2P3D Direction',(1.,0.,0.)) ;
#271=DIRECTION('Axis2P3D Direction',(1.,0.,0.)) ;
#280=DIRECTION('Axis2P3D Direction',(1.,0.,0.)) ;
#290=DIRECTION('Axis2P3D Direction',(1.,0.,0.)) ;
#291=DIRECTION('Axis2P3D XDirection',(0.,-0.479425538604,0.87758256189)) ;
#295=DIRECTION('Vector Direction',(1.,0.,0.)) ;
#302=DIRECTION('Vector Direction',(1.,0.,0.)) ;
#309=DIRECTION('Axis2P3D Direction',(1.,0.,0.)) ;
#321=DIRECTION('Axis2P3D Direction',(1.,0.,0.)) ;
#333=DIRECTION('Axis2P3D Direction',(1.,0.,0.)) ;
#334=DIRECTION('Axis2P3D XDirection',(0.,1.,0.)) ;
#338=DIRECTION('Vector Direction',(1.,0.,0.)) ;
#343=DIRECTION('Vector Direction',(1.,0.,0.)) ;
#362=DIRECTION('Axis2P3D Direction',(1.,0.,0.)) ;
#363=DIRECTION('Axis2P3D XDirection',(0.,1.,0.)) ;
#367=DIRECTION('Vector Direction',(1.,0.,0.)) ;
#372=DIRECTION('Vector Direction',(1.,0.,0.)) ;
#391=DIRECTION('Axis2P3D Direction',(1.,0.,0.)) ;
#392=DIRECTION('Axis2P3D XDirection',(0.,1.,0.)) ;
#22=CARTESIAN_POINT(' ',(0.,0.,0.)) ;
#26=CARTESIAN_POINT('Axis2P3D Location',(50.,0.,0.)) ;
#30=CARTESIAN_POINT('Limit',(50.,14.,0.)) ;
#31=CARTESIAN_POINT('Limit',(50.,-14.,1.71450551881E-015)) ;
#34=CARTESIAN_POINT('Axis2P3D Location',(50.,0.,0.)) ;
#38=CARTESIAN_POINT('Limit',(50.,-14.,1.71450551881E-015)) ;
#39=CARTESIAN_POINT('Limit',(50.,14.,0.)) ;
#61=CARTESIAN_POINT('Axis2P3D Location',(55.9,0.,0.)) ;
#66=CARTESIAN_POINT('Line Origine',(51.1550000003,-1.07898775984,0.589453699714)) ;
#70=CARTESIAN_POINT('Vertex',(52.,-1.07898775984,0.589453699714)) ;
#72=CARTESIAN_POINT('Vertex',(56.,-1.07898775984,0.589453699714)) ;
#75=CARTESIAN_POINT('Axis2P3D Location',(52.,0.,0.)) ;
#79=CARTESIAN_POINT('Vertex',(52.,1.07898775984,-0.589453699714)) ;
#82=CARTESIAN_POINT('Line Origine',(51.1550000003,1.07898775984,-0.589453699714)) ;
#86=CARTESIAN_POINT('Vertex',(56.,1.07898775984,-0.589453699714)) ;
#89=CARTESIAN_POINT('Axis2P3D Location',(56.,0.,0.)) ;
#101=CARTESIAN_POINT('Axis2P3D Location',(56.,0.,21.)) ;
#106=CARTESIAN_POINT('Axis2P3D Location',(56.,0.,0.)) ;
#110=CARTESIAN_POINT('Vertex',(56.,10.0679363107,-18.4292337997)) ;
#112=CARTESIAN_POINT('Vertex',(56.,-10.0679363107,18.4292337997)) ;
#115=CARTESIAN_POINT('Axis2P3D Location',(56.,0.,0.)) ;
#124=CARTESIAN_POINT('Axis2P3D Location',(56.,-2.22044604925E-016,0.)) ;
#133=CARTESIAN_POINT('Axis2P3D Location',(56.,4.90590683971,-15.2293164023)) ;
#137=CARTESIAN_POINT('Vertex',(56.,7.15590683971,-15.2293164023)) ;
#139=CARTESIAN_POINT('Vertex',(56.,2.65590683971,-15.2293164023)) ;
#142=CARTESIAN_POINT('Axis2P3D Location',(56.,4.90590683971,-15.2293164023)) ;
#151=CARTESIAN_POINT('Axis2P3D Location',(56.,-4.92632427807,15.2227241027)) ;
#155=CARTESIAN_POINT('Vertex',(56.,-2.67632427807,15.2227241027)) ;
#157=CARTESIAN_POINT('Vertex',(56.,-7.17632427807,15.2227241027)) ;
#160=CARTESIAN_POINT('Axis2P3D Location',(56.,-4.92632427807,15.2227241027)) ;
#170=CARTESIAN_POINT('Axis2P3D Location',(52.,0.,0.)) ;
#182=CARTESIAN_POINT('Axis2P3D Location',(54.,0.,0.)) ;
#187=CARTESIAN_POINT('Line Origine',(53.,-10.0679363107,18.4292337997)) ;
#191=CARTESIAN_POINT('Vertex',(50.,-10.0679363107,18.4292337997)) ;
#194=CARTESIAN_POINT('Line Origine',(53.,10.0679363107,-18.4292337997)) ;
#198=CARTESIAN_POINT('Vertex',(50.,10.0679363107,-18.4292337997)) ;
#201=CARTESIAN_POINT('Axis2P3D Location',(50.,0.,0.)) ;
#213=CARTESIAN_POINT('Axis2P3D Location',(50.,0.,0.)) ;
#225=CARTESIAN_POINT('Axis2P3D Location',(50.,0.,21.)) ;
#234=CARTESIAN_POINT('Axis2P3D Location',(50.,0.,0.)) ;
#238=CARTESIAN_POINT('Vertex',(50.,5.99281923255,-10.9697820236)) ;
#240=CARTESIAN_POINT('Vertex',(50.,-5.99281923255,10.9697820236)) ;
#243=CARTESIAN_POINT('Axis2P3D Location',(50.,0.,0.)) ;
#252=CARTESIAN_POINT('Axis2P3D Location',(50.,4.90590683971,-15.2293164023)) ;
#256=CARTESIAN_POINT('Vertex',(50.,2.65590683971,-15.2293164023)) ;
#258=CARTESIAN_POINT('Vertex',(50.,7.15590683971,-15.2293164023)) ;
#261=CARTESIAN_POINT('Axis2P3D Location',(50.,4.90590683971,-15.2293164023)) ;
#270=CARTESIAN_POINT('Axis2P3D Location',(50.,-4.92632427807,15.2227241027)) ;
#274=CARTESIAN_POINT('Vertex',(50.,-7.17632427807,15.2227241027)) ;
#276=CARTESIAN_POINT('Vertex',(50.,-2.67632427807,15.2227241027)) ;
#279=CARTESIAN_POINT('Axis2P3D Location',(50.,-4.92632427807,15.2227241027)) ;
#289=CARTESIAN_POINT('Axis2P3D Location',(54.,0.,0.)) ;
#294=CARTESIAN_POINT('Line Origine',(51.,5.99281923255,-10.9697820236)) ;
#298=CARTESIAN_POINT('Vertex',(52.,5.99281923255,-10.9697820236)) ;
#301=CARTESIAN_POINT('Line Origine',(51.,-5.99281923255,10.9697820236)) ;
#305=CARTESIAN_POINT('Vertex',(52.,-5.99281923255,10.9697820236)) ;
#308=CARTESIAN_POINT('Axis2P3D Location',(52.,0.,0.)) ;
#320=CARTESIAN_POINT('Axis2P3D Location',(52.,0.,0.)) ;
#332=CARTESIAN_POINT('Axis2P3D Location',(46.,-4.92632427807,15.2227241027)) ;
#337=CARTESIAN_POINT('Line Origine',(46.,-7.17632427807,15.2227241027)) ;
#342=CARTESIAN_POINT('Line Origine',(46.,-2.67632427807,15.2227241027)) ;
#361=CARTESIAN_POINT('Axis2P3D Location',(46.,4.90590683971,-15.2293164023)) ;
#366=CARTESIAN_POINT('Line Origine',(46.,2.65590683971,-15.2293164023)) ;
#371=CARTESIAN_POINT('Line Origine',(46.,7.15590683971,-15.2293164023)) ;
#390=CARTESIAN_POINT('Axis2P3D Location',(52.,0.,12.5)) ;
#406=MECHANICAL_DESIGN_GEOMETRIC_PRESENTATION_REPRESENTATION(' ',(#59),#21) ;
#407=MECHANICAL_DESIGN_GEOMETRIC_PRESENTATION_REPRESENTATION(' ',(#47),#21) ;
#24=SHAPE_REPRESENTATION(' ',(#23),#21) ;
#23=AXIS2_PLACEMENT_3D(' ',#22,$,$) ;
#28=AXIS2_PLACEMENT_3D('Circle Axis2P3D',#26,#27,$) ;
#36=AXIS2_PLACEMENT_3D('Circle Axis2P3D',#34,#35,$) ;
#64=AXIS2_PLACEMENT_3D('Cylinder Axis2P3D',#61,#62,#63) ;
#77=AXIS2_PLACEMENT_3D('Circle Axis2P3D',#75,#76,$) ;
#91=AXIS2_PLACEMENT_3D('Circle Axis2P3D',#89,#90,$) ;
#104=AXIS2_PLACEMENT_3D('Plane Axis2P3D',#101,#102,#103) ;
#108=AXIS2_PLACEMENT_3D('Circle Axis2P3D',#106,#107,$) ;
#117=AXIS2_PLACEMENT_3D('Circle Axis2P3D',#115,#116,$) ;
#126=AXIS2_PLACEMENT_3D('Circle Axis2P3D',#124,#125,$) ;
#135=AXIS2_PLACEMENT_3D('Circle Axis2P3D',#133,#134,$) ;
#144=AXIS2_PLACEMENT_3D('Circle Axis2P3D',#142,#143,$) ;
#153=AXIS2_PLACEMENT_3D('Circle Axis2P3D',#151,#152,$) ;
#162=AXIS2_PLACEMENT_3D('Circle Axis2P3D',#160,#161,$) ;
#172=AXIS2_PLACEMENT_3D('Circle Axis2P3D',#170,#171,$) ;
#185=AXIS2_PLACEMENT_3D('Cylinder Axis2P3D',#182,#183,#184) ;
#203=AXIS2_PLACEMENT_3D('Circle Axis2P3D',#201,#202,$) ;
#215=AXIS2_PLACEMENT_3D('Circle Axis2P3D',#213,#214,$) ;
#228=AXIS2_PLACEMENT_3D('Plane Axis2P3D',#225,#226,#227) ;
#236=AXIS2_PLACEMENT_3D('Circle Axis2P3D',#234,#235,$) ;
#245=AXIS2_PLACEMENT_3D('Circle Axis2P3D',#243,#244,$) ;
#254=AXIS2_PLACEMENT_3D('Circle Axis2P3D',#252,#253,$) ;
#263=AXIS2_PLACEMENT_3D('Circle Axis2P3D',#261,#262,$) ;
#272=AXIS2_PLACEMENT_3D('Circle Axis2P3D',#270,#271,$) ;
#281=AXIS2_PLACEMENT_3D('Circle Axis2P3D',#279,#280,$) ;
#292=AXIS2_PLACEMENT_3D('Cylinder Axis2P3D',#289,#290,#291) ;
#310=AXIS2_PLACEMENT_3D('Circle Axis2P3D',#308,#309,$) ;
#322=AXIS2_PLACEMENT_3D('Circle Axis2P3D',#320,#321,$) ;
#335=AXIS2_PLACEMENT_3D('Cylinder Axis2P3D',#332,#333,#334) ;
#364=AXIS2_PLACEMENT_3D('Cylinder Axis2P3D',#361,#362,#363) ;
#393=AXIS2_PLACEMENT_3D('Plane Axis2P3D',#390,#391,#392) ;
#13=DATE_AND_TIME(#11,#12) ;
#12=LOCAL_TIME(13,38,38.,#10) ;
#10=COORDINATED_UNIVERSAL_TIME_OFFSET(0,0,.AHEAD.) ;
#7=PRODUCT_CATEGORY('part','specification') ;
#11=CALENDAR_DATE(2016,11,10) ;
#8=PRODUCT_RELATED_PRODUCT_CATEGORY('part',$,(#5)) ;
#20=UNCERTAINTY_MEASURE_WITH_UNIT(LENGTH_MEASURE(0.005),#16,'distance_accuracy_value','CONFUSED CURVE UNCERTAINTY') ;
#32=TRIMMED_CURVE('',#29,(#30),(#31),.T.,.CARTESIAN.) ;
#40=TRIMMED_CURVE('',#37,(#38),(#39),.T.,.CARTESIAN.) ;
#132=FACE_BOUND('',#129,.T.) ;
#150=FACE_BOUND('',#147,.T.) ;
#168=FACE_BOUND('',#165,.T.) ;
#251=FACE_BOUND('',#248,.T.) ;
#269=FACE_BOUND('',#266,.T.) ;
#287=FACE_BOUND('',#284,.T.) ;
#402=FACE_BOUND('',#399,.T.) ;
#74=EDGE_CURVE('',#71,#73,#69,.F.) ;
#81=EDGE_CURVE('',#80,#71,#78,.F.) ;
#88=EDGE_CURVE('',#80,#87,#85,.F.) ;
#93=EDGE_CURVE('',#87,#73,#92,.F.) ;
#114=EDGE_CURVE('',#111,#113,#109,.T.) ;
#119=EDGE_CURVE('',#113,#111,#118,.T.) ;
#128=EDGE_CURVE('',#73,#87,#127,.T.) ;
#141=EDGE_CURVE('',#138,#140,#136,.T.) ;
#146=EDGE_CURVE('',#140,#138,#145,.T.) ;
#159=EDGE_CURVE('',#156,#158,#154,.T.) ;
#164=EDGE_CURVE('',#158,#156,#163,.T.) ;
#174=EDGE_CURVE('',#71,#80,#173,.F.) ;
#193=EDGE_CURVE('',#192,#113,#190,.T.) ;
#200=EDGE_CURVE('',#199,#111,#197,.T.) ;
#205=EDGE_CURVE('',#199,#192,#204,.T.) ;
#217=EDGE_CURVE('',#192,#199,#216,.T.) ;
#242=EDGE_CURVE('',#239,#241,#237,.T.) ;
#247=EDGE_CURVE('',#241,#239,#246,.T.) ;
#260=EDGE_CURVE('',#257,#259,#255,.T.) ;
#265=EDGE_CURVE('',#259,#257,#264,.T.) ;
#278=EDGE_CURVE('',#275,#277,#273,.T.) ;
#283=EDGE_CURVE('',#277,#275,#282,.T.) ;
#300=EDGE_CURVE('',#299,#239,#297,.F.) ;
#307=EDGE_CURVE('',#306,#241,#304,.F.) ;
#312=EDGE_CURVE('',#306,#299,#311,.T.) ;
#324=EDGE_CURVE('',#299,#306,#323,.T.) ;
#341=EDGE_CURVE('',#158,#275,#340,.F.) ;
#346=EDGE_CURVE('',#156,#277,#345,.F.) ;
#370=EDGE_CURVE('',#140,#257,#369,.F.) ;
#375=EDGE_CURVE('',#138,#259,#374,.F.) ;
#42=COMPOSITE_CURVE('Courbe.1',(#33,#41),.U.) ;
#33=COMPOSITE_CURVE_SEGMENT(.CONTINUOUS.,.T.,#32) ;
#41=COMPOSITE_CURVE_SEGMENT(.DISCONTINUOUS.,.T.,#40) ;
#105=PLANE('Plane',#104) ;
#229=PLANE('Plane',#228) ;
#394=PLANE('Plane',#393) ;
#95=ORIENTED_EDGE('',*,*,#74,.F.) ;
#96=ORIENTED_EDGE('',*,*,#81,.F.) ;
#97=ORIENTED_EDGE('',*,*,#88,.T.) ;
#98=ORIENTED_EDGE('',*,*,#93,.T.) ;
#121=ORIENTED_EDGE('',*,*,#114,.T.) ;
#122=ORIENTED_EDGE('',*,*,#119,.T.) ;
#130=ORIENTED_EDGE('',*,*,#128,.F.) ;
#131=ORIENTED_EDGE('',*,*,#93,.F.) ;
#148=ORIENTED_EDGE('',*,*,#141,.F.) ;
#149=ORIENTED_EDGE('',*,*,#146,.F.) ;
#166=ORIENTED_EDGE('',*,*,#159,.F.) ;
#167=ORIENTED_EDGE('',*,*,#164,.F.) ;
#176=ORIENTED_EDGE('',*,*,#88,.F.) ;
#177=ORIENTED_EDGE('',*,*,#174,.F.) ;
#178=ORIENTED_EDGE('',*,*,#74,.T.) ;
#179=ORIENTED_EDGE('',*,*,#128,.T.) ;
#207=ORIENTED_EDGE('',*,*,#193,.T.) ;
#208=ORIENTED_EDGE('',*,*,#114,.F.) ;
#209=ORIENTED_EDGE('',*,*,#200,.F.) ;
#210=ORIENTED_EDGE('',*,*,#205,.T.) ;
#219=ORIENTED_EDGE('',*,*,#200,.T.) ;
#220=ORIENTED_EDGE('',*,*,#119,.F.) ;
#221=ORIENTED_EDGE('',*,*,#193,.F.) ;
#222=ORIENTED_EDGE('',*,*,#217,.T.) ;
#231=ORIENTED_EDGE('',*,*,#217,.F.) ;
#232=ORIENTED_EDGE('',*,*,#205,.F.) ;
#249=ORIENTED_EDGE('',*,*,#242,.T.) ;
#250=ORIENTED_EDGE('',*,*,#247,.T.) ;
#267=ORIENTED_EDGE('',*,*,#260,.T.) ;
#268=ORIENTED_EDGE('',*,*,#265,.T.) ;
#285=ORIENTED_EDGE('',*,*,#278,.T.) ;
#286=ORIENTED_EDGE('',*,*,#283,.T.) ;
#314=ORIENTED_EDGE('',*,*,#300,.T.) ;
#315=ORIENTED_EDGE('',*,*,#247,.F.) ;
#316=ORIENTED_EDGE('',*,*,#307,.F.) ;
#317=ORIENTED_EDGE('',*,*,#312,.T.) ;
#326=ORIENTED_EDGE('',*,*,#307,.T.) ;
#327=ORIENTED_EDGE('',*,*,#242,.F.) ;
#328=ORIENTED_EDGE('',*,*,#300,.F.) ;
#329=ORIENTED_EDGE('',*,*,#324,.T.) ;
#348=ORIENTED_EDGE('',*,*,#278,.F.) ;
#349=ORIENTED_EDGE('',*,*,#341,.F.) ;
#350=ORIENTED_EDGE('',*,*,#164,.T.) ;
#351=ORIENTED_EDGE('',*,*,#346,.T.) ;
#355=ORIENTED_EDGE('',*,*,#283,.F.) ;
#356=ORIENTED_EDGE('',*,*,#346,.F.) ;
#357=ORIENTED_EDGE('',*,*,#159,.T.) ;
#358=ORIENTED_EDGE('',*,*,#341,.T.) ;
#377=ORIENTED_EDGE('',*,*,#260,.F.) ;
#378=ORIENTED_EDGE('',*,*,#370,.F.) ;
#379=ORIENTED_EDGE('',*,*,#146,.T.) ;
#380=ORIENTED_EDGE('',*,*,#375,.T.) ;
#384=ORIENTED_EDGE('',*,*,#265,.F.) ;
#385=ORIENTED_EDGE('',*,*,#375,.F.) ;
#386=ORIENTED_EDGE('',*,*,#141,.T.) ;
#387=ORIENTED_EDGE('',*,*,#370,.T.) ;
#396=ORIENTED_EDGE('',*,*,#324,.F.) ;
#397=ORIENTED_EDGE('',*,*,#312,.F.) ;
#400=ORIENTED_EDGE('',*,*,#81,.T.) ;
#401=ORIENTED_EDGE('',*,*,#174,.T.) ;
#60=CLOSED_SHELL('Closed Shell',(#100,#169,#181,#212,#224,#288,#319,#331,#353,#360,#382,#389,#403)) ;
#404=ADVANCED_BREP_SHAPE_REPRESENTATION('NONE',(#51),#21) ;
#6=PRODUCT_DEFINITION_FORMATION_WITH_SPECIFIED_SOURCE('',' ',#5,.NOT_KNOWN.) ;
#69=LINE('Line',#66,#68) ;
#85=LINE('Line',#82,#84) ;
#190=LINE('Line',#187,#189) ;
#197=LINE('Line',#194,#196) ;
#297=LINE('Line',#294,#296) ;
#304=LINE('Line',#301,#303) ;
#340=LINE('Line',#337,#339) ;
#345=LINE('Line',#342,#344) ;
#369=LINE('Line',#366,#368) ;
#374=LINE('Line',#371,#373) ;
#100=ADVANCED_FACE('Corps principal',(#99),#65,.F.) ;
#169=ADVANCED_FACE('Corps principal',(#123,#132,#150,#168),#105,.T.) ;
#181=ADVANCED_FACE('Corps principal',(#180),#65,.F.) ;
#212=ADVANCED_FACE('Corps principal',(#211),#186,.T.) ;
#224=ADVANCED_FACE('Corps principal',(#223),#186,.T.) ;
#288=ADVANCED_FACE('Corps principal',(#233,#251,#269,#287),#229,.F.) ;
#319=ADVANCED_FACE('Corps principal',(#318),#293,.F.) ;
#331=ADVANCED_FACE('Corps principal',(#330),#293,.F.) ;
#353=ADVANCED_FACE('Corps principal',(#352),#336,.F.) ;
#360=ADVANCED_FACE('Corps principal',(#359),#336,.F.) ;
#382=ADVANCED_FACE('Corps principal',(#381),#365,.F.) ;
#389=ADVANCED_FACE('Corps principal',(#388),#365,.F.) ;
#403=ADVANCED_FACE('Corps principal',(#398,#402),#394,.F.) ;
#29=CIRCLE('generated circle',#28,14.) ;
#37=CIRCLE('generated circle',#36,14.) ;
#78=CIRCLE('generated circle',#77,1.2295) ;
#92=CIRCLE('generated circle',#91,1.2295) ;
#109=CIRCLE('generated circle',#108,21.) ;
#118=CIRCLE('generated circle',#117,21.) ;
#127=CIRCLE('generated circle',#126,1.2295) ;
#136=CIRCLE('generated circle',#135,2.25) ;
#145=CIRCLE('generated circle',#144,2.25) ;
#154=CIRCLE('generated circle',#153,2.25) ;
#163=CIRCLE('generated circle',#162,2.25) ;
#173=CIRCLE('generated circle',#172,1.2295) ;
#204=CIRCLE('generated circle',#203,21.) ;
#216=CIRCLE('generated circle',#215,21.) ;
#237=CIRCLE('generated circle',#236,12.5) ;
#246=CIRCLE('generated circle',#245,12.5) ;
#255=CIRCLE('generated circle',#254,2.25) ;
#264=CIRCLE('generated circle',#263,2.25) ;
#273=CIRCLE('generated circle',#272,2.25) ;
#282=CIRCLE('generated circle',#281,2.25) ;
#311=CIRCLE('generated circle',#310,12.5) ;
#323=CIRCLE('generated circle',#322,12.5) ;
#65=CYLINDRICAL_SURFACE('generated cylinder',#64,1.2295) ;
#186=CYLINDRICAL_SURFACE('generated cylinder',#185,21.) ;
#293=CYLINDRICAL_SURFACE('generated cylinder',#292,12.5) ;
#336=CYLINDRICAL_SURFACE('generated cylinder',#335,2.25) ;
#365=CYLINDRICAL_SURFACE('generated cylinder',#364,2.25) ;
#71=VERTEX_POINT('',#70) ;
#73=VERTEX_POINT('',#72) ;
#80=VERTEX_POINT('',#79) ;
#87=VERTEX_POINT('',#86) ;
#111=VERTEX_POINT('',#110) ;
#113=VERTEX_POINT('',#112) ;
#138=VERTEX_POINT('',#137) ;
#140=VERTEX_POINT('',#139) ;
#156=VERTEX_POINT('',#155) ;
#158=VERTEX_POINT('',#157) ;
#192=VERTEX_POINT('',#191) ;
#199=VERTEX_POINT('',#198) ;
#239=VERTEX_POINT('',#238) ;
#241=VERTEX_POINT('',#240) ;
#257=VERTEX_POINT('',#256) ;
#259=VERTEX_POINT('',#258) ;
#275=VERTEX_POINT('',#274) ;
#277=VERTEX_POINT('',#276) ;
#299=VERTEX_POINT('',#298) ;
#306=VERTEX_POINT('',#305) ;
#52=COLOUR_RGB('Colour',0.823529411765,0.823529411765,1.) ;
#51=MANIFOLD_SOLID_BREP('Corps principal',#60) ;
#48=GEOMETRICALLY_BOUNDED_SURFACE_SHAPE_REPRESENTATION('NONE',(#49),#21) ;
#25=SHAPE_DEFINITION_REPRESENTATION(#15,#24) ;
#9=PRODUCT_CATEGORY_RELATIONSHIP(' ',' ',#7,#8) ;
#18=PLANE_ANGLE_MEASURE_WITH_UNIT(PLANE_ANGLE_MEASURE(0.0174532925199),#17) ;
#4=APPLICATION_PROTOCOL_DEFINITION('draft international standard','configuration_control_3d_design_ed2_mim',2004,#1) ;
#94=EDGE_LOOP('',(#95,#96,#97,#98)) ;
#120=EDGE_LOOP('',(#121,#122)) ;
#129=EDGE_LOOP('',(#130,#131)) ;
#147=EDGE_LOOP('',(#148,#149)) ;
#165=EDGE_LOOP('',(#166,#167)) ;
#175=EDGE_LOOP('',(#176,#177,#178,#179)) ;
#206=EDGE_LOOP('',(#207,#208,#209,#210)) ;
#218=EDGE_LOOP('',(#219,#220,#221,#222)) ;
#230=EDGE_LOOP('',(#231,#232)) ;
#248=EDGE_LOOP('',(#249,#250)) ;
#266=EDGE_LOOP('',(#267,#268)) ;
#284=EDGE_LOOP('',(#285,#286)) ;
#313=EDGE_LOOP('',(#314,#315,#316,#317)) ;
#325=EDGE_LOOP('',(#326,#327,#328,#329)) ;
#347=EDGE_LOOP('',(#348,#349,#350,#351)) ;
#354=EDGE_LOOP('',(#355,#356,#357,#358)) ;
#376=EDGE_LOOP('',(#377,#378,#379,#380)) ;
#383=EDGE_LOOP('',(#384,#385,#386,#387)) ;
#395=EDGE_LOOP('',(#396,#397)) ;
#399=EDGE_LOOP('',(#400,#401)) ;
#99=FACE_OUTER_BOUND('',#94,.T.) ;
#123=FACE_OUTER_BOUND('',#120,.T.) ;
#180=FACE_OUTER_BOUND('',#175,.T.) ;
#211=FACE_OUTER_BOUND('',#206,.T.) ;
#223=FACE_OUTER_BOUND('',#218,.T.) ;
#233=FACE_OUTER_BOUND('',#230,.T.) ;
#318=FACE_OUTER_BOUND('',#313,.T.) ;
#330=FACE_OUTER_BOUND('',#325,.T.) ;
#352=FACE_OUTER_BOUND('',#347,.T.) ;
#359=FACE_OUTER_BOUND('',#354,.T.) ;
#381=FACE_OUTER_BOUND('',#376,.T.) ;
#388=FACE_OUTER_BOUND('',#383,.T.) ;
#398=FACE_OUTER_BOUND('',#395,.T.) ;
#43=DRAUGHTING_PRE_DEFINED_CURVE_FONT('continuous') ;
#44=DRAUGHTING_PRE_DEFINED_COLOUR('white') ;
#49=GEOMETRIC_SET('NONE',(#42)) ;
#16=(LENGTH_UNIT()NAMED_UNIT(*)SI_UNIT(.MILLI.,.METRE.)) ;
#17=(NAMED_UNIT(*)PLANE_ANGLE_UNIT()SI_UNIT($,.RADIAN.)) ;
#19=(NAMED_UNIT(*)SI_UNIT($,.STERADIAN.)SOLID_ANGLE_UNIT()) ;
#21=(GEOMETRIC_REPRESENTATION_CONTEXT(3)GLOBAL_UNCERTAINTY_ASSIGNED_CONTEXT((#20))GLOBAL_UNIT_ASSIGNED_CONTEXT((#16,#17,#19))REPRESENTATION_CONTEXT(' ',' ')) ;
ENDSEC;
END-ISO-10303-21;
