 0
SECTION
 2
ENTITIES
  0
LINE
 8
Layer0
10
779.0393302622989
20
-8483.876749286075
30
2.255973186038318e-13
11
778.675016209499
21
-8482.398669071004
31
2.255973186038318e-13
  0
LINE
 8
Layer0
10
778.675016209499
20
-8482.398669071004
30
2.255973186038318e-13
11
778.2397165424745
21
-8480.93991616145
31
2.255973186038318e-13
  0
LINE
 8
Layer0
10
778.2397165424745
20
-8480.93991616145
30
2.255973186038318e-13
11
777.7344479237674
21
-8479.50389754242
31
2.255973186038318e-13
  0
LINE
 8
Layer0
10
777.1603904316491
20
-8503.25393586658
30
2.255973186038318e-13
11
777.7344479237681
21
-8501.844005426101
31
2.255973186038318e-13
  0
LINE
 8
Layer0
10
777.7344479237681
20
-8501.844005426101
30
2.255973186038318e-13
11
778.2397165424745
21
-8500.407986807071
31
2.255973186038318e-13
  0
LINE
 8
Layer0
10
778.2397165424745
20
-8500.407986807071
30
2.255973186038318e-13
11
778.675016209499
21
-8498.949233897516
31
2.255973186038318e-13
  0
LINE
 8
Layer0
10
778.675016209499
20
-8498.949233897516
30
2.255973186038318e-13
11
779.0393302622989
21
-8497.471153682447
31
2.255973186038318e-13
  0
LINE
 8
Layer0
10
779.0393302622989
20
-8497.471153682447
30
2.255973186038318e-13
11
779.3318078285238
21
-8495.977198286691
31
2.255973186038318e-13
  0
LINE
 8
Layer0
10
762.4234664440331
20
-8485.692782613653
30
2.255973186038318e-13
11
762.5247142816828
21
-8485.969801003745
31
2.255973186038318e-13
  0
LINE
 8
Layer0
10
762.5247142816828
20
-8485.969801003745
30
2.255973186038318e-13
11
762.7919844787275
21
-8486.873426395736
31
2.255973186038318e-13
  0
LINE
 8
Layer0
10
762.7919844787275
20
-8486.873426395736
30
2.255973186038318e-13
11
763.0019881712678
21
-8487.792050723956
31
2.255973186038318e-13
  0
LINE
 8
Layer0
10
745.2412846257889
20
-8651.655726194782
30
2.255973186038318e-13
11
744.4793001718467
21
-8651.544900232719
31
2.255973186038318e-13
  0
LINE
 8
Layer0
10
744.4793001718467
20
-8651.544900232719
30
2.255973186038318e-13
11
743.731499933232
21
-8651.361331430777
31
2.255973186038318e-13
  0
LINE
 8
Layer0
10
743.0048116096644
20
-8651.106720389562
30
2.255973186038318e-13
11
742.3059673178706
21
-8650.783425852424
31
2.255973186038318e-13
  0
LINE
 8
Layer0
10
742.3059673178706
20
-8650.783425852424
30
2.255973186038318e-13
11
741.6414412245496
21
-8650.394442853805
31
2.255973186038318e-13
  0
LINE
 8
Layer0
10
741.6414412245496
20
-8650.394442853805
30
2.255973186038318e-13
11
741.0173895690187
21
-8649.943374972943
31
2.255973186038318e-13
  0
LINE
 8
Layer0
10
741.0173895690187
20
-8649.943374972943
30
2.255973186038318e-13
11
740.4395936311623
21
-8649.434400949916
31
2.255973186038318e-13
  0
LINE
 8
Layer0
10
740.4395936311623
20
-8649.434400949916
30
2.255973186038318e-13
11
739.9134061730555
21
-8648.872235973377
31
2.255973186038318e-13
  0
LINE
 8
Layer0
10
739.9134061730555
20
-8648.872235973377
30
2.255973186038318e-13
11
739.4437018504105
21
-8648.262087998532
31
2.255973186038318e-13
  0
LINE
 8
Layer0
10
739.4437018504105
20
-8648.262087998532
30
2.255973186038318e-13
11
739.0348320532592
21
-8647.609609500118
31
2.255973186038318e-13
  0
LINE
 8
Layer0
10
739.0348320532592
20
-8647.609609500118
30
2.255973186038318e-13
11
738.6905845942174
21
-8646.920845107265
31
2.255973186038318e-13
  0
LINE
 8
Layer0
10
738.6905845942174
20
-8646.920845107265
30
2.255973186038318e-13
11
738.4141486177946
21
-8646.202175605436
31
2.255973186038318e-13
  0
LINE
 8
Layer0
10
770.2845442845183
20
-8468.13258422082
30
2.255973186038318e-13
11
769.1698000137618
21
-8467.09586291687
31
2.255973186038318e-13
  0
LINE
 8
Layer0
10
769.1698000137618
20
-8467.09586291687
30
2.255973186038318e-13
11
768.0062700016333
21
-8466.114209331268
31
2.255973186038318e-13
  0
LINE
 8
Layer0
10
768.0062700016333
20
-8466.114209331268
30
2.255973186038318e-13
11
766.7966717263895
21
-8465.18991616145
31
2.255973186038318e-13
  0
LINE
 8
Layer0
10
766.7966717263895
20
-8465.18991616145
30
2.255973186038318e-13
11
765.5438302608488
21
-8464.325142136937
31
2.255973186038318e-13
  0
LINE
 8
Layer0
10
765.5438302608488
20
-8464.325142136937
30
2.255973186038318e-13
11
764.2506716743054
21
-8463.52190697754
31
2.255973186038318e-13
  0
LINE
 8
Layer0
10
779.3788380794476
20
-8485.692782613653
30
2.255973186038318e-13
11
894.2736991864601
21
-8485.692782613653
31
4.511946372076636e-14
  0
LINE
 8
Layer0
10
779.3788380794476
20
-8485.692782613653
30
2.255973186038318e-13
11
779.3318078285238
21
-8485.370704681827
31
2.255973186038318e-13
  0
LINE
 8
Layer0
10
779.3318078285238
20
-8485.370704681827
30
2.255973186038318e-13
11
779.0393302622989
21
-8483.876749286075
31
2.255973186038318e-13
  0
LINE
 8
Layer0
10
764.2506716743054
20
-8463.52190697754
30
2.255973186038318e-13
11
762.9202161985554
21
-8462.782086676185
31
2.255973186038318e-13
  0
LINE
 8
Layer0
10
762.9202161985554
20
-8462.782086676185
30
2.255973186038318e-13
11
761.5555711740114
21
-8462.107409117469
31
2.255973186038318e-13
  0
LINE
 8
Layer0
10
761.5555711740114
20
-8462.107409117469
30
2.255973186038318e-13
11
760.1599237923591
21
-8461.499450042089
31
2.255973186038318e-13
  0
LINE
 8
Layer0
10
760.1599237923591
20
-8461.499450042089
30
2.255973186038318e-13
11
758.736533652725
21
-8460.959629366642
31
2.255973186038318e-13
  0
LINE
 8
Layer0
10
758.736533652725
20
-8460.959629366642
30
2.255973186038318e-13
11
757.2887251487351
21
-8460.489207867322
31
2.255973186038318e-13
  0
LINE
 8
Layer0
10
757.2887251487351
20
-8460.489207867322
30
2.255973186038318e-13
11
755.8198797042353
21
-8460.08928423534
31
2.255973186038318e-13
  0
LINE
 8
Layer0
10
755.8198797042353
20
-8460.08928423534
30
2.255973186038318e-13
11
754.333427875818
21
-8459.76079251087
31
2.255973186038318e-13
  0
LINE
 8
Layer0
10
597.4733001046892
20
-8484.810936794098
30
2.255973186038318e-13
11
597.7470891961112
21
-8485.692782613653
31
2.255973186038318e-13
  0
LINE
 8
Layer0
10
744.0103941912854
20
-8339.42947761848
30
2.255973186038318e-13
11
743.2727906175501
21
-8339.209798422675
31
2.255973186038318e-13
  0
LINE
 8
Layer0
10
743.2727906175501
20
-8339.209798422675
30
2.255973186038318e-13
11
742.562795245304
21
-8338.911789574979
31
2.255973186038318e-13
  0
LINE
 8
Layer0
10
742.562795245304
20
-8338.911789574979
30
2.255973186038318e-13
11
741.8847387907155
21
-8338.546903090837
31
2.255973186038318e-13
  0
LINE
 8
Layer0
10
741.8847387907155
20
-8338.546903090837
30
2.255973186038318e-13
11
741.2449028397865
21
-8338.11851931685
31
2.255973186038318e-13
  0
LINE
 8
Layer0
10
741.2449028397865
20
-8338.11851931685
30
2.255973186038318e-13
11
740.6492148997687
21
-8337.630606845154
31
2.255973186038318e-13
  0
LINE
 8
Layer0
10
740.6492148997687
20
-8337.630606845154
30
2.255973186038318e-13
11
740.103193486116
21
-8337.087685747987
31
2.255973186038318e-13
  0
LINE
 8
Layer0
10
740.103193486116
20
-8337.087685747987
30
2.255973186038318e-13
11
739.6118969983825
21
-8336.494785703242
31
2.255973186038318e-13
  0
LINE
 8
Layer0
10
739.6118969983825
20
-8336.494785703242
30
2.255973186038318e-13
11
739.1798768586797
21
-8335.857399399021
31
2.255973186038318e-13
  0
LINE
 8
Layer0
10
739.1798768586797
20
-8335.857399399021
30
2.255973186038318e-13
11
738.8111353468195
21
-8335.181431648793
31
2.255973186038318e-13
  0
LINE
 8
Layer0
10
738.8111353468195
20
-8335.181431648793
30
2.255973186038318e-13
11
738.5090885227829
21
-8334.473144688582
31
2.255973186038318e-13
  0
LINE
 8
Layer0
10
738.5090885227829
20
-8334.473144688582
30
2.255973186038318e-13
11
738.2765345799769
21
-8333.739100162953
31
2.255973186038318e-13
  0
LINE
 8
Layer0
10
738.2765345799769
20
-8333.739100162953
30
2.255973186038318e-13
11
738.1156279224804
21
-8332.986098337266
31
2.255973186038318e-13
  0
LINE
 8
Layer0
10
738.1156279224804
20
-8332.986098337266
30
2.255973186038318e-13
11
738.0278592064182
21
-8332.221115099279
31
2.255973186038318e-13
  0
LINE
 8
Layer0
10
738.0278592064182
20
-8332.221115099279
30
2.255973186038318e-13
11
738.0140415303665
21
-8331.45123733382
31
2.255973186038318e-13
  0
LINE
 8
Layer0
10
738.0140415303665
20
-8331.45123733382
30
2.255973186038318e-13
11
738.0743029027227
21
-8330.683597269131
31
2.255973186038318e-13
  0
LINE
 8
Layer0
10
738.0743029027227
20
-8330.683597269131
30
2.255973186038318e-13
11
738.2080850558241
21
-8329.925306403149
31
2.255973186038318e-13
  0
LINE
 8
Layer0
10
738.2080850558241
20
-8329.925306403149
30
2.255973186038318e-13
11
738.4141486177946
21
-8329.18338962187
31
2.255973186038318e-13
  0
LINE
 8
Layer0
10
748.289288449338
20
-8324.02423379653
30
2.255973186038318e-13
11
749.0159767729056
21
-8324.278844837745
31
2.255973186038318e-13
  0
LINE
 8
Layer0
10
738.4141486177946
20
-8329.18338962187
30
2.255973186038318e-13
11
738.6905845942174
21
-8328.464720120042
31
2.255973186038318e-13
  0
LINE
 8
Layer0
10
738.6905845942174
20
-8328.464720120042
30
2.255973186038318e-13
11
739.0348320532592
21
-8327.775955727191
31
2.255973186038318e-13
  0
LINE
 8
Layer0
10
739.0348320532592
20
-8327.775955727191
30
2.255973186038318e-13
11
739.4437018504105
21
-8327.123477228775
31
2.255973186038318e-13
  0
LINE
 8
Layer0
10
739.4437018504105
20
-8327.123477228775
30
2.255973186038318e-13
11
739.9134061730555
21
-8326.51332925393
31
2.255973186038318e-13
  0
LINE
 8
Layer0
10
739.9134061730555
20
-8326.51332925393
30
2.255973186038318e-13
11
740.4395936311623
21
-8325.95116427739
31
2.255973186038318e-13
  0
LINE
 8
Layer0
10
740.4395936311623
20
-8325.95116427739
30
2.255973186038318e-13
11
741.0173895690187
21
-8325.442190254365
31
2.255973186038318e-13
  0
LINE
 8
Layer0
10
741.0173895690187
20
-8325.442190254365
30
2.255973186038318e-13
11
741.6414412245496
21
-8324.991122373502
31
2.255973186038318e-13
  0
LINE
 8
Layer0
10
741.6414412245496
20
-8324.991122373502
30
2.255973186038318e-13
11
742.3059673178706
21
-8324.602139374883
31
2.255973186038318e-13
  0
LINE
 8
Layer0
10
742.3059673178706
20
-8324.602139374883
30
2.255973186038318e-13
11
743.0048116096651
21
-8324.278844837745
31
2.255973186038318e-13
  0
LINE
 8
Layer0
10
743.0048116096651
20
-8324.278844837745
30
2.255973186038318e-13
11
743.731499933232
21
-8324.02423379653
31
2.255973186038318e-13
  0
LINE
 8
Layer0
10
743.731499933232
20
-8324.02423379653
30
2.255973186038318e-13
11
744.4793001718459
21
-8323.840664994588
31
2.255973186038318e-13
  0
LINE
 8
Layer0
10
744.4793001718459
20
-8323.840664994588
30
2.255973186038318e-13
11
745.2412846257889
21
-8323.729839032523
31
2.255973186038318e-13
  0
LINE
 8
Layer0
10
745.2412846257889
20
-8323.729839032523
30
2.255973186038318e-13
11
746.0103941912857
21
-8323.692782613654
31
2.255973186038318e-13
  0
LINE
 8
Layer0
10
746.0103941912857
20
-8323.692782613654
30
2.255973186038318e-13
11
746.7795037567818
21
-8323.729839032525
31
2.255973186038318e-13
  0
LINE
 8
Layer0
10
746.7795037567818
20
-8323.729839032525
30
2.255973186038318e-13
11
747.5414882107241
21
-8323.840664994588
31
2.255973186038318e-13
  0
LINE
 8
Layer0
10
747.5414882107241
20
-8323.840664994588
30
2.255973186038318e-13
11
748.289288449338
21
-8324.02423379653
31
2.255973186038318e-13
  0
LINE
 8
Layer0
10
749.0159767729056
20
-8324.278844837745
30
2.255973186038318e-13
11
749.7148210647002
21
-8324.602139374883
31
2.255973186038318e-13
  0
LINE
 8
Layer0
10
749.7148210647002
20
-8324.602139374883
30
2.255973186038318e-13
11
750.3793471580211
21
-8324.991122373502
31
2.255973186038318e-13
  0
LINE
 8
Layer0
10
750.3793471580211
20
-8324.991122373502
30
2.255973186038318e-13
11
751.0033988135526
21
-8325.442190254365
31
2.255973186038318e-13
  0
LINE
 8
Layer0
10
751.0033988135526
20
-8325.442190254365
30
2.255973186038318e-13
11
751.5811947514084
21
-8325.95116427739
31
2.255973186038318e-13
  0
LINE
 8
Layer0
10
751.5811947514084
20
-8325.95116427739
30
2.255973186038318e-13
11
752.1073822095152
21
-8326.51332925393
31
2.255973186038318e-13
  0
LINE
 8
Layer0
10
752.1073822095152
20
-8326.51332925393
30
2.255973186038318e-13
11
752.5770865321603
21
-8327.123477228775
31
2.255973186038318e-13
  0
LINE
 8
Layer0
10
752.5770865321603
20
-8327.123477228775
30
2.255973186038318e-13
11
752.9859563293116
21
-8327.77595572719
31
2.255973186038318e-13
  0
LINE
 8
Layer0
10
752.9859563293116
20
-8327.77595572719
30
2.255973186038318e-13
11
753.3302037883533
21
-8328.464720120042
31
2.255973186038318e-13
  0
LINE
 8
Layer0
10
753.3302037883533
20
-8328.464720120042
30
2.255973186038318e-13
11
753.6066397647761
21
-8329.18338962187
31
2.255973186038318e-13
  0
LINE
 8
Layer0
10
753.6066397647761
20
-8329.18338962187
30
2.255973186038318e-13
11
753.8127033267459
21
-8329.925306403149
31
2.255973186038318e-13
  0
LINE
 8
Layer0
10
753.8127033267459
20
-8329.925306403149
30
2.255973186038318e-13
11
753.9464854798473
21
-8330.683597269131
31
2.255973186038318e-13
  0
LINE
 8
Layer0
10
753.9464854798473
20
-8330.683597269131
30
2.255973186038318e-13
11
754.0067468522042
21
-8331.45123733382
31
2.255973186038318e-13
  0
LINE
 8
Layer0
10
754.0067468522042
20
-8331.45123733382
30
2.255973186038318e-13
11
753.9929291761525
21
-8332.22111509928
31
2.255973186038318e-13
  0
LINE
 8
Layer0
10
753.9929291761525
20
-8332.22111509928
30
2.255973186038318e-13
11
753.9051604600903
21
-8332.986098337264
31
2.255973186038318e-13
  0
LINE
 8
Layer0
10
753.9051604600903
20
-8332.986098337264
30
2.255973186038318e-13
11
753.7442538025938
21
-8333.739100162955
31
2.255973186038318e-13
  0
LINE
 8
Layer0
10
753.7442538025938
20
-8333.739100162955
30
2.255973186038318e-13
11
753.5116998597878
21
-8334.47314468858
31
2.255973186038318e-13
  0
LINE
 8
Layer0
10
753.5116998597878
20
-8334.47314468858
30
2.255973186038318e-13
11
753.2096530357513
21
-8335.181431648793
31
2.255973186038318e-13
  0
LINE
 8
Layer0
10
753.2096530357513
20
-8335.181431648793
30
2.255973186038318e-13
11
752.8409115238918
21
-8335.857399399023
31
2.255973186038318e-13
  0
LINE
 8
Layer0
10
752.8409115238918
20
-8335.857399399023
30
2.255973186038318e-13
11
752.4088913841875
21
-8336.494785703242
31
2.255973186038318e-13
  0
LINE
 8
Layer0
10
752.4088913841875
20
-8336.494785703242
30
2.255973186038318e-13
11
751.9175948964555
21
-8337.087685747987
31
2.255973186038318e-13
  0
LINE
 8
Layer0
10
751.9175948964555
20
-8337.087685747987
30
2.255973186038318e-13
11
751.3715734828028
21
-8337.630606845156
31
2.255973186038318e-13
  0
LINE
 8
Layer0
10
751.3715734828028
20
-8337.630606845156
30
2.255973186038318e-13
11
750.7758855427835
21
-8338.11851931685
31
2.255973186038318e-13
  0
LINE
 8
Layer0
10
750.7758855427835
20
-8338.11851931685
30
2.255973186038318e-13
11
750.1360495918552
21
-8338.546903090837
31
2.255973186038318e-13
  0
LINE
 8
Layer0
10
750.1360495918552
20
-8338.546903090837
30
2.255973186038318e-13
11
749.4579931372675
21
-8338.91178957498
31
2.255973186038318e-13
  0
LINE
 8
Layer0
10
749.4579931372675
20
-8338.91178957498
30
2.255973186038318e-13
11
748.7479977650199
21
-8339.209798422675
31
2.255973186038318e-13
  0
LINE
 8
Layer0
10
748.7479977650199
20
-8339.209798422675
30
2.255973186038318e-13
11
748.0103941912853
21
-8339.42947761848
31
2.255973186038318e-13
  0
LINE
 8
Layer0
10
905.2384566848978
20
-8480.372973016585
30
4.511946372076636e-14
11
906.2583824044809
21
-8480.913800673823
31
4.511946372076636e-14
  0
LINE
 8
Layer0
10
906.2583824044809
20
-8480.913800673823
30
4.511946372076636e-14
11
907.1898475510103
21
-8481.595794595425
31
4.511946372076636e-14
  0
LINE
 8
Layer0
10
907.1898475510103
20
-8481.595794595425
30
4.511946372076636e-14
11
908.0134551919836
21
-8482.40475286507
31
4.511946372076636e-14
  0
LINE
 8
Layer0
10
754.0067468522042
20
-8643.934327893487
30
2.255973186038318e-13
11
753.9464854798473
21
-8644.701967958177
31
2.255973186038318e-13
  0
LINE
 8
Layer0
10
753.9464854798473
20
-8644.701967958177
30
2.255973186038318e-13
11
753.8127033267459
21
-8645.460258824158
31
2.255973186038318e-13
  0
LINE
 8
Layer0
10
753.8127033267459
20
-8645.460258824158
30
2.255973186038318e-13
11
753.6066397647761
21
-8646.202175605436
31
2.255973186038318e-13
  0
LINE
 8
Layer0
10
743.731499933232
20
-8651.361331430777
30
2.255973186038318e-13
11
743.0048116096644
21
-8651.106720389562
31
2.255973186038318e-13
  0
LINE
 8
Layer0
10
753.6066397647761
20
-8646.202175605436
30
2.255973186038318e-13
11
753.3302037883533
21
-8646.920845107265
31
2.255973186038318e-13
  0
LINE
 8
Layer0
10
723.2522393681937
20
-8509.79957048055
30
2.255973186038318e-13
11
724.2054910819827
21
-8510.98648118545
31
2.255973186038318e-13
  0
LINE
 8
Layer0
10
724.2054910819827
20
-8510.98648118545
30
2.255973186038318e-13
11
725.214973281347
21
-8512.125951036045
31
2.255973186038318e-13
  0
LINE
 8
Layer0
10
725.214973281347
20
-8512.125951036045
30
2.255973186038318e-13
11
726.2783282738357
21
-8513.215318747702
31
2.255973186038318e-13
  0
LINE
 8
Layer0
10
726.2783282738357
20
-8513.215318747702
30
2.255973186038318e-13
11
727.3930725445915
21
-8514.25204005165
31
2.255973186038318e-13
  0
LINE
 8
Layer0
10
727.3930725445915
20
-8514.25204005165
30
2.255973186038318e-13
11
728.55660255672
21
-8515.233693637252
31
2.255973186038318e-13
  0
LINE
 8
Layer0
10
728.55660255672
20
-8515.233693637252
30
2.255973186038318e-13
11
729.7662008319638
21
-8516.157986807071
31
2.255973186038318e-13
  0
LINE
 8
Layer0
10
729.7662008319638
20
-8516.157986807071
30
2.255973186038318e-13
11
731.0190422975053
21
-8517.022760831584
31
2.255973186038318e-13
  0
LINE
 8
Layer0
10
731.0190422975053
20
-8517.022760831584
30
2.255973186038318e-13
11
732.3122008840493
21
-8517.825995990981
31
2.255973186038318e-13
  0
LINE
 8
Layer0
10
732.3122008840493
20
-8517.825995990981
30
2.255973186038318e-13
11
733.6426563597979
21
-8518.565816292336
31
2.255973186038318e-13
  0
LINE
 8
Layer0
10
733.6426563597979
20
-8518.565816292336
30
2.255973186038318e-13
11
735.0073013843419
21
-8519.240493851054
31
2.255973186038318e-13
  0
LINE
 8
Layer0
10
735.0073013843419
20
-8519.240493851054
30
2.255973186038318e-13
11
736.4029487659949
21
-8519.84845292643
31
2.255973186038318e-13
  0
LINE
 8
Layer0
10
736.4029487659949
20
-8519.84845292643
30
2.255973186038318e-13
11
737.8263389056283
21
-8520.38827360188
31
2.255973186038318e-13
  0
LINE
 8
Layer0
10
737.8263389056283
20
-8520.38827360188
30
2.255973186038318e-13
11
739.2741474096182
21
-8520.8586951012
31
2.255973186038318e-13
  0
LINE
 8
Layer0
10
739.2741474096182
20
-8520.8586951012
30
2.255973186038318e-13
11
740.7429928541188
21
-8521.25861873318
31
2.255973186038318e-13
  0
LINE
 8
Layer0
10
740.7429928541188
20
-8521.25861873318
30
2.255973186038318e-13
11
742.2294446825354
21
-8521.587110457653
31
2.255973186038318e-13
  0
LINE
 8
Layer0
10
742.2294446825354
20
-8521.587110457653
30
2.255973186038318e-13
11
743.7300312177466
21
-8521.843403066969
31
2.255973186038318e-13
  0
LINE
 8
Layer0
10
894.2736991864601
20
-8485.692782613653
30
4.511946372076636e-14
11
894.6338357031287
21
-8484.596593848282
31
4.511946372076636e-14
  0
LINE
 8
Layer0
10
718.3231560158796
20
-8500.407986807071
30
2.255973186038318e-13
11
718.8284246345867
21
-8501.844005426101
31
2.255973186038318e-13
  0
LINE
 8
Layer0
10
718.8284246345867
20
-8501.844005426101
30
2.255973186038318e-13
11
719.4024821267042
21
-8503.25393586658
31
2.255973186038318e-13
  0
LINE
 8
Layer0
10
719.4024821267042
20
-8503.25393586658
30
2.255973186038318e-13
11
720.0439877543618
21
-8504.634485170636
31
2.255973186038318e-13
  0
LINE
 8
Layer0
10
720.0439877543618
20
-8504.634485170636
30
2.255973186038318e-13
11
720.7514432514415
21
-8505.982429001402
31
2.255973186038318e-13
  0
LINE
 8
Layer0
10
720.7514432514415
20
-8505.982429001402
30
2.255973186038318e-13
11
721.5231963228485
21
-8507.294619173603
31
2.255973186038318e-13
  0
LINE
 8
Layer0
10
721.5231963228485
20
-8507.294619173603
30
2.255973186038318e-13
11
722.357444503527
21
-8508.567991006292
31
2.255973186038318e-13
  0
LINE
 8
Layer0
10
722.357444503527
20
-8508.567991006292
30
2.255973186038318e-13
11
723.2522393681937
21
-8509.79957048055
31
2.255973186038318e-13
  0
LINE
 8
Layer0
10
717.5235422960544
20
-8483.876749286075
30
2.255973186038318e-13
11
717.2310647298295
21
-8485.370704681829
31
2.255973186038318e-13
  0
LINE
 8
Layer0
10
717.2310647298295
20
-8485.370704681829
30
2.255973186038318e-13
11
717.1840344789064
21
-8485.692782613653
31
2.255973186038318e-13
  0
LINE
 8
Layer0
10
717.1840344789064
20
-8485.692782613653
30
2.255973186038318e-13
11
597.7470891961112
21
-8485.692782613653
31
2.255973186038318e-13
  0
LINE
 8
Layer0
10
716.801275732875
20
-8489.692782613653
30
2.255973186038318e-13
11
597.7470891961112
21
-8489.692782613653
31
2.255973186038318e-13
  0
LINE
 8
Layer0
10
716.801275732875
20
-8489.692782613653
30
2.255973186038318e-13
11
716.7906338356509
21
-8489.912793509322
31
2.255973186038318e-13
  0
LINE
 8
Layer0
10
716.7906338356509
20
-8489.912793509322
30
2.255973186038318e-13
11
716.7906338356509
21
-8491.435109459198
31
2.255973186038318e-13
  0
LINE
 8
Layer0
10
716.7906338356509
20
-8491.435109459198
30
2.255973186038318e-13
11
716.864182063895
21
-8492.955647689356
31
2.255973186038318e-13
  0
LINE
 8
Layer0
10
716.864182063895
20
-8492.955647689356
30
2.255973186038318e-13
11
717.0111067450881
21
-8494.470856912303
31
2.255973186038318e-13
  0
LINE
 8
Layer0
10
717.0111067450881
20
-8494.470856912303
30
2.255973186038318e-13
11
717.2310647298295
21
-8495.977198286691
31
2.255973186038318e-13
  0
LINE
 8
Layer0
10
717.2310647298295
20
-8495.977198286691
30
2.255973186038318e-13
11
717.5235422960544
21
-8497.471153682447
31
2.255973186038318e-13
  0
LINE
 8
Layer0
10
717.5235422960544
20
-8497.471153682447
30
2.255973186038318e-13
11
717.8878563488552
21
-8498.949233897516
31
2.255973186038318e-13
  0
LINE
 8
Layer0
10
717.8878563488552
20
-8498.949233897516
30
2.255973186038318e-13
11
718.3231560158796
21
-8500.407986807071
31
2.255973186038318e-13
  0
LINE
 8
Layer0
10
721.5231963228485
20
-8474.053283794918
30
2.255973186038318e-13
11
720.7514432514415
21
-8475.365473967118
31
2.255973186038318e-13
  0
LINE
 8
Layer0
10
720.7514432514415
20
-8475.365473967118
30
2.255973186038318e-13
11
720.0439877543618
21
-8476.713417797884
31
2.255973186038318e-13
  0
LINE
 8
Layer0
10
720.0439877543618
20
-8476.713417797884
30
2.255973186038318e-13
11
719.4024821267042
21
-8478.09396710194
31
2.255973186038318e-13
  0
LINE
 8
Layer0
10
719.4024821267042
20
-8478.09396710194
30
2.255973186038318e-13
11
718.8284246345867
21
-8479.50389754242
31
2.255973186038318e-13
  0
LINE
 8
Layer0
10
718.8284246345867
20
-8479.50389754242
30
2.255973186038318e-13
11
718.3231560158796
21
-8480.93991616145
31
2.255973186038318e-13
  0
LINE
 8
Layer0
10
718.3231560158796
20
-8480.93991616145
30
2.255973186038318e-13
11
717.8878563488552
21
-8482.398669071006
31
2.255973186038318e-13
  0
LINE
 8
Layer0
10
717.8878563488552
20
-8482.398669071006
30
2.255973186038318e-13
11
717.5235422960544
21
-8483.876749286075
31
2.255973186038318e-13
  0
LINE
 8
Layer0
10
732.3122008840493
20
-8463.52190697754
30
2.255973186038318e-13
11
731.0190422975053
21
-8464.325142136937
31
2.255973186038318e-13
  0
LINE
 8
Layer0
10
731.0190422975053
20
-8464.325142136937
30
2.255973186038318e-13
11
729.7662008319638
21
-8465.189916161451
31
2.255973186038318e-13
  0
LINE
 8
Layer0
10
729.7662008319638
20
-8465.189916161451
30
2.255973186038318e-13
11
728.55660255672
21
-8466.114209331268
31
2.255973186038318e-13
  0
LINE
 8
Layer0
10
728.55660255672
20
-8466.114209331268
30
2.255973186038318e-13
11
727.3930725445915
21
-8467.09586291687
31
2.255973186038318e-13
  0
LINE
 8
Layer0
10
727.3930725445915
20
-8467.09586291687
30
2.255973186038318e-13
11
726.2783282738357
21
-8468.13258422082
31
2.255973186038318e-13
  0
LINE
 8
Layer0
10
726.2783282738357
20
-8468.13258422082
30
2.255973186038318e-13
11
725.214973281347
21
-8469.221951932477
31
2.255973186038318e-13
  0
LINE
 8
Layer0
10
725.214973281347
20
-8469.221951932477
30
2.255973186038318e-13
11
724.2054910819827
21
-8470.36142178307
31
2.255973186038318e-13
  0
LINE
 8
Layer0
10
724.2054910819827
20
-8470.36142178307
30
2.255973186038318e-13
11
723.2522393681937
21
-8471.54833248797
31
2.255973186038318e-13
  0
LINE
 8
Layer0
10
723.2522393681937
20
-8471.54833248797
30
2.255973186038318e-13
11
722.357444503527
21
-8472.779911962229
31
2.255973186038318e-13
  0
LINE
 8
Layer0
10
722.357444503527
20
-8472.779911962229
30
2.255973186038318e-13
11
721.5231963228485
21
-8474.053283794918
31
2.255973186038318e-13
  0
LINE
 8
Layer0
10
736.4029487659949
20
-8461.49945004209
30
2.255973186038318e-13
11
735.0073013843419
21
-8462.107409117469
31
2.255973186038318e-13
  0
LINE
 8
Layer0
10
735.0073013843419
20
-8462.107409117469
30
2.255973186038318e-13
11
733.6426563597979
21
-8462.782086676185
31
2.255973186038318e-13
  0
LINE
 8
Layer0
10
733.6426563597979
20
-8462.782086676185
30
2.255973186038318e-13
11
732.3122008840493
21
-8463.52190697754
31
2.255973186038318e-13
  0
LINE
 8
Layer0
10
738.1156279224804
20
-8642.399466890043
30
2.255973186038318e-13
11
738.2765345799769
21
-8641.646465064354
31
2.255973186038318e-13
  0
LINE
 8
Layer0
10
738.2765345799769
20
-8641.646465064354
30
2.255973186038318e-13
11
738.5090885227829
21
-8640.912420538727
31
2.255973186038318e-13
  0
LINE
 8
Layer0
10
738.5090885227829
20
-8640.912420538727
30
2.255973186038318e-13
11
738.8111353468195
21
-8640.204133578514
31
2.255973186038318e-13
  0
LINE
 8
Layer0
10
738.8111353468195
20
-8640.204133578514
30
2.255973186038318e-13
11
739.1798768586797
21
-8639.528165828284
31
2.255973186038318e-13
  0
LINE
 8
Layer0
10
738.4141486177946
20
-8646.202175605436
30
2.255973186038318e-13
11
738.2080850558241
21
-8645.460258824158
31
2.255973186038318e-13
  0
LINE
 8
Layer0
10
738.2080850558241
20
-8645.460258824158
30
2.255973186038318e-13
11
738.0743029027227
21
-8644.701967958177
31
2.255973186038318e-13
  0
LINE
 8
Layer0
10
738.0743029027227
20
-8644.701967958177
30
2.255973186038318e-13
11
738.0140415303658
21
-8643.934327893487
31
2.255973186038318e-13
  0
LINE
 8
Layer0
10
738.0140415303658
20
-8643.934327893487
30
2.255973186038318e-13
11
738.0278592064182
21
-8643.164450128026
31
2.255973186038318e-13
  0
LINE
 8
Layer0
10
738.0278592064182
20
-8643.164450128026
30
2.255973186038318e-13
11
738.1156279224804
21
-8642.399466890043
31
2.255973186038318e-13
  0
LINE
 8
Layer0
10
743.7300312177466
20
-8521.843403066969
30
2.255973186038318e-13
11
744.0103941912854
21
-8521.877445295238
31
2.255973186038318e-13
  0
LINE
 8
Layer0
10
744.0103941912854
20
-8521.877445295238
30
2.255973186038318e-13
11
744.0103941912854
21
-8635.956087608827
31
2.255973186038318e-13
  0
LINE
 8
Layer0
10
748.0103941912853
20
-8522.16740017941
30
2.255973186038318e-13
11
748.0103941912853
21
-8635.956087608827
31
2.255973186038318e-13
  0
LINE
 8
Layer0
10
768.006270001634
20
-8515.233693637252
30
2.255973186038318e-13
11
769.1698000137618
21
-8514.25204005165
31
2.255973186038318e-13
  0
LINE
 8
Layer0
10
748.0103941912853
20
-8522.16740017941
30
2.255973186038318e-13
11
748.2814362791767
21
-8522.173951484261
31
2.255973186038318e-13
  0
LINE
 8
Layer0
10
748.2814362791767
20
-8522.173951484261
30
2.255973186038318e-13
11
749.8033077342304
21
-8522.137166629478
31
2.255973186038318e-13
  0
LINE
 8
Layer0
10
749.8033077342304
20
-8522.137166629478
30
2.255973186038318e-13
11
751.3216247879847
21
-8522.026897977867
31
2.255973186038318e-13
  0
LINE
 8
Layer0
10
751.3216247879847
20
-8522.026897977867
30
2.255973186038318e-13
11
752.8328413406075
21
-8521.843403066969
31
2.255973186038318e-13
  0
LINE
 8
Layer0
10
752.8328413406075
20
-8521.843403066969
30
2.255973186038318e-13
11
754.3334278758188
21
-8521.587110457653
31
2.255973186038318e-13
  0
LINE
 8
Layer0
10
754.3334278758188
20
-8521.587110457653
30
2.255973186038318e-13
11
755.8198797042353
21
-8521.25861873318
31
2.255973186038318e-13
  0
LINE
 8
Layer0
10
755.8198797042353
20
-8521.25861873318
30
2.255973186038318e-13
11
757.2887251487358
21
-8520.8586951012
31
2.255973186038318e-13
  0
LINE
 8
Layer0
10
757.2887251487358
20
-8520.8586951012
30
2.255973186038318e-13
11
758.7365336527257
21
-8520.38827360188
31
2.255973186038318e-13
  0
LINE
 8
Layer0
10
758.7365336527257
20
-8520.38827360188
30
2.255973186038318e-13
11
760.1599237923591
21
-8519.84845292643
31
2.255973186038318e-13
  0
LINE
 8
Layer0
10
760.1599237923591
20
-8519.84845292643
30
2.255973186038318e-13
11
761.5555711740114
21
-8519.240493851054
31
2.255973186038318e-13
  0
LINE
 8
Layer0
10
761.5555711740114
20
-8519.240493851054
30
2.255973186038318e-13
11
762.9202161985554
21
-8518.565816292336
31
2.255973186038318e-13
  0
LINE
 8
Layer0
10
762.9202161985554
20
-8518.565816292336
30
2.255973186038318e-13
11
764.2506716743054
21
-8517.825995990981
31
2.255973186038318e-13
  0
LINE
 8
Layer0
10
764.2506716743054
20
-8517.825995990981
30
2.255973186038318e-13
11
765.5438302608495
21
-8517.022760831582
31
2.255973186038318e-13
  0
LINE
 8
Layer0
10
765.5438302608495
20
-8517.022760831582
30
2.255973186038318e-13
11
766.7966717263902
21
-8516.157986807071
31
2.255973186038318e-13
  0
LINE
 8
Layer0
10
766.7966717263902
20
-8516.157986807071
30
2.255973186038318e-13
11
768.006270001634
21
-8515.233693637252
31
2.255973186038318e-13
  0
LINE
 8
Layer0
10
769.1698000137618
20
-8514.25204005165
30
2.255973186038318e-13
11
770.2845442845191
21
-8513.215318747702
31
2.255973186038318e-13
  0
LINE
 8
Layer0
10
779.7722387227032
20
-8491.435109459198
30
2.255973186038318e-13
11
779.7722387227032
21
-8489.912793509322
31
2.255973186038318e-13
  0
LINE
 8
Layer0
10
770.2845442845191
20
-8513.215318747702
30
2.255973186038318e-13
11
771.347899277007
21
-8512.125951036045
31
2.255973186038318e-13
  0
LINE
 8
Layer0
10
771.347899277007
20
-8512.125951036045
30
2.255973186038318e-13
11
772.3573814763713
21
-8510.98648118545
31
2.255973186038318e-13
  0
LINE
 8
Layer0
10
772.3573814763713
20
-8510.98648118545
30
2.255973186038318e-13
11
773.3106331901603
21
-8509.79957048055
31
2.255973186038318e-13
  0
LINE
 8
Layer0
10
773.3106331901603
20
-8509.79957048055
30
2.255973186038318e-13
11
774.205428054827
21
-8508.567991006292
31
2.255973186038318e-13
  0
LINE
 8
Layer0
10
774.205428054827
20
-8508.567991006292
30
2.255973186038318e-13
11
775.0396762355048
21
-8507.294619173603
31
2.255973186038318e-13
  0
LINE
 8
Layer0
10
747.5414882107241
20
-8651.544900232719
30
2.255973186038318e-13
11
746.7795037567818
21
-8651.655726194784
31
2.255973186038318e-13
  0
LINE
 8
Layer0
10
746.7795037567818
20
-8651.655726194784
30
2.255973186038318e-13
11
746.0103941912857
21
-8651.692782613653
31
2.255973186038318e-13
  0
LINE
 8
Layer0
10
746.0103941912857
20
-8651.692782613653
30
2.255973186038318e-13
11
745.2412846257889
21
-8651.655726194782
31
2.255973186038318e-13
  0
LINE
 8
Layer0
10
753.3302037883533
20
-8646.920845107265
30
2.255973186038318e-13
11
752.9859563293116
21
-8647.609609500116
31
2.255973186038318e-13
  0
LINE
 8
Layer0
10
752.9859563293116
20
-8647.609609500116
30
2.255973186038318e-13
11
752.5770865321603
21
-8648.262087998532
31
2.255973186038318e-13
  0
LINE
 8
Layer0
10
752.5770865321603
20
-8648.262087998532
30
2.255973186038318e-13
11
752.1073822095152
21
-8648.872235973377
31
2.255973186038318e-13
  0
LINE
 8
Layer0
10
752.1073822095152
20
-8648.872235973377
30
2.255973186038318e-13
11
751.5811947514084
21
-8649.434400949916
31
2.255973186038318e-13
  0
LINE
 8
Layer0
10
751.5811947514084
20
-8649.434400949916
30
2.255973186038318e-13
11
751.0033988135526
21
-8649.943374972943
31
2.255973186038318e-13
  0
LINE
 8
Layer0
10
751.0033988135526
20
-8649.943374972943
30
2.255973186038318e-13
11
750.3793471580211
21
-8650.394442853805
31
2.255973186038318e-13
  0
LINE
 8
Layer0
10
582.06373729416
20
-8488.615086337679
30
2.255973186038318e-13
11
582.0103941912862
21
-8487.692782613654
31
2.255973186038318e-13
  0
LINE
 8
Layer0
10
582.0103941912862
20
-8487.692782613654
30
2.255973186038318e-13
11
582.06373729416
21
-8486.77047888963
31
2.255973186038318e-13
  0
LINE
 8
Layer0
10
894.6338357031287
20
-8484.596593848282
30
4.511946372076636e-14
11
895.1562737141016
21
-8483.567127213082
31
4.511946372076636e-14
  0
LINE
 8
Layer0
10
895.1562737141016
20
-8483.567127213082
30
4.511946372076636e-14
11
895.8214426825923
21
-8482.623573679013
31
4.511946372076636e-14
  0
LINE
 8
Layer0
10
895.8214426825923
20
-8482.623573679013
30
4.511946372076636e-14
11
896.6154910569526
21
-8481.785581908482
31
4.511946372076636e-14
  0
LINE
 8
Layer0
10
896.6154910569526
20
-8481.785581908482
30
4.511946372076636e-14
11
897.5218834866354
21
-8481.07060233415
31
4.511946372076636e-14
  0
LINE
 8
Layer0
10
897.5218834866354
20
-8481.07060233415
30
4.511946372076636e-14
11
898.5217451561476
21
-8480.493523769186
31
4.511946372076636e-14
  0
LINE
 8
Layer0
10
898.5217451561476
20
-8480.493523769186
30
4.511946372076636e-14
11
899.5942548362807
21
-8480.066363361004
31
4.511946372076636e-14
  0
LINE
 8
Layer0
10
899.5942548362807
20
-8480.066363361004
30
4.511946372076636e-14
11
900.7170784676754
21
-8479.79801634485
31
4.511946372076636e-14
  0
LINE
 8
Layer0
10
900.7170784676754
20
-8479.79801634485
30
4.511946372076636e-14
11
901.8668342477281
21
-8479.694070808457
31
4.511946372076636e-14
  0
LINE
 8
Layer0
10
901.8668342477281
20
-8479.694070808457
30
4.511946372076636e-14
11
903.01957953581
21
-8479.75669132509
31
4.511946372076636e-14
  0
LINE
 8
Layer0
10
903.01957953581
20
-8479.75669132509
30
4.511946372076636e-14
11
904.1513094374515
21
-8479.984573878239
31
4.511946372076636e-14
  0
LINE
 8
Layer0
10
904.1513094374515
20
-8479.984573878239
30
4.511946372076636e-14
11
905.2384566848978
21
-8480.372973016585
31
4.511946372076636e-14
  0
LINE
 8
Layer0
10
755.5711874778154
20
-8503.783471973657
30
2.255973186038318e-13
11
754.7336492167005
21
-8504.215330594558
31
2.255973186038318e-13
  0
LINE
 8
Layer0
10
754.7336492167005
20
-8504.215330594558
30
2.255973186038318e-13
11
753.8706470188575
21
-8504.59374757858
31
2.255973186038318e-13
  0
LINE
 8
Layer0
10
753.8706470188575
20
-8504.59374757858
30
2.255973186038318e-13
11
752.985586759692
21
-8504.917229486766
31
2.255973186038318e-13
  0
LINE
 8
Layer0
10
752.985586759692
20
-8504.917229486766
30
2.255973186038318e-13
11
752.0819613677022
21
-8505.184499683812
31
2.255973186038318e-13
  0
LINE
 8
Layer0
10
752.0819613677022
20
-8505.184499683812
30
2.255973186038318e-13
11
751.163337039483
21
-8505.39450337635
31
2.255973186038318e-13
  0
LINE
 8
Layer0
10
751.163337039483
20
-8505.39450337635
30
2.255973186038318e-13
11
750.2333391655765
21
-8505.546411775753
31
2.255973186038318e-13
  0
LINE
 8
Layer0
10
750.2333391655765
20
-8505.546411775753
30
2.255973186038318e-13
11
749.2956380227183
21
-8505.639625368967
31
2.255973186038318e-13
  0
LINE
 8
Layer0
10
749.2956380227183
20
-8505.639625368967
30
2.255973186038318e-13
11
748.3539342889231
21
-8505.673776284524
31
2.255973186038318e-13
  0
LINE
 8
Layer0
10
748.3539342889231
20
-8505.673776284524
30
2.255973186038318e-13
11
748.0103941912853
21
-8505.664641907068
31
2.255973186038318e-13
  0
LINE
 8
Layer0
10
748.0103941912853
20
-8505.664641907068
30
2.255973186038318e-13
11
747.4119444386041
21
-8505.64872974436
31
2.255973186038318e-13
  0
LINE
 8
Layer0
10
747.4119444386041
20
-8505.64872974436
30
2.255973186038318e-13
11
746.4733860753472
21
-8505.56458459573
31
2.255973186038318e-13
  0
LINE
 8
Layer0
10
746.4733860753472
20
-8505.56458459573
30
2.255973186038318e-13
11
745.5419632602251
21
-8505.421672921093
31
2.255973186038318e-13
  0
LINE
 8
Layer0
10
745.5419632602251
20
-8505.421672921093
30
2.255973186038318e-13
11
744.6213518935624
21
-8505.220558727537
31
2.255973186038318e-13
  0
LINE
 8
Layer0
10
744.6213518935624
20
-8505.220558727537
30
2.255973186038318e-13
11
744.0103941912854
21
-8505.046256775584
31
2.255973186038318e-13
  0
LINE
 8
Layer0
10
744.0103941912854
20
-8505.046256775584
30
2.255973186038318e-13
11
743.7151852078365
21
-8504.962035720904
31
2.255973186038318e-13
  0
LINE
 8
Layer0
10
743.7151852078365
20
-8504.962035720904
30
2.255973186038318e-13
11
742.8270394289669
21
-8504.647124173396
31
2.255973186038318e-13
  0
LINE
 8
Layer0
10
742.8270394289669
20
-8504.647124173396
30
2.255973186038318e-13
11
741.9604196625897
21
-8504.277066897019
31
2.255973186038318e-13
  0
LINE
 8
Layer0
10
741.9604196625897
20
-8504.277066897019
30
2.255973186038318e-13
11
741.1187460609989
21
-8503.853324338777
31
2.255973186038318e-13
  0
LINE
 8
Layer0
10
741.1187460609989
20
-8503.853324338777
30
2.255973186038318e-13
11
740.3053403253783
21
-8503.377568816964
31
2.255973186038318e-13
  0
LINE
 8
Layer0
10
740.3053403253783
20
-8503.377568816964
30
2.255973186038318e-13
11
739.5234125965544
21
-8502.85167792127
31
2.255973186038318e-13
  0
LINE
 8
Layer0
10
739.5234125965544
20
-8502.85167792127
30
2.255973186038318e-13
11
738.776048786047
21
-8502.277727102799
31
2.255973186038318e-13
  0
LINE
 8
Layer0
10
738.776048786047
20
-8502.277727102799
30
2.255973186038318e-13
11
738.0661983973748
21
-8501.657981483228
31
2.255973186038318e-13
  0
LINE
 8
Layer0
10
738.0661983973748
20
-8501.657981483228
30
2.255973186038318e-13
11
737.3966628857253
21
-8500.994886915372
31
2.255973186038318e-13
  0
LINE
 8
Layer0
10
737.3966628857253
20
-8500.994886915372
30
2.255973186038318e-13
11
736.7700846018795
21
-8500.291060330559
31
2.255973186038318e-13
  0
LINE
 8
Layer0
10
736.7700846018795
20
-8500.291060330559
30
2.255973186038318e-13
11
736.188936364067
21
-8499.549279410769
31
2.255973186038318e-13
  0
LINE
 8
Layer0
10
736.188936364067
20
-8499.549279410769
30
2.255973186038318e-13
11
735.6555116988823
21
-8498.772471626402
31
2.255973186038318e-13
  0
LINE
 8
Layer0
10
735.6555116988823
20
-8498.772471626402
30
2.255973186038318e-13
11
735.1719157897799
21
-8497.9637026829
31
2.255973186038318e-13
  0
LINE
 8
Layer0
10
735.1719157897799
20
-8497.9637026829
30
2.255973186038318e-13
11
734.7400571688784
21
-8497.126164421785
31
2.255973186038318e-13
  0
LINE
 8
Layer0
10
734.7400571688784
20
-8497.126164421785
30
2.255973186038318e-13
11
734.361640184858
21
-8496.26316222394
31
2.255973186038318e-13
  0
LINE
 8
Layer0
10
734.361640184858
20
-8496.26316222394
30
2.255973186038318e-13
11
734.1215660067484
21
-8495.350554758757
31
2.255973186038318e-13
  0
LINE
 8
Layer0
10
734.1215660067484
20
-8495.350554758757
30
2.255973186038318e-13
11
733.7708880796266
21
-8494.474476572785
31
2.255973186038318e-13
  0
LINE
 8
Layer0
10
733.7708880796266
20
-8494.474476572785
30
2.255973186038318e-13
11
733.5608843870863
21
-8493.555852244566
31
2.255973186038318e-13
  0
LINE
 8
Layer0
10
733.5608843870863
20
-8493.555852244566
30
2.255973186038318e-13
11
733.4089759876839
21
-8492.62585437066
31
2.255973186038318e-13
  0
LINE
 8
Layer0
10
733.4089759876839
20
-8492.62585437066
30
2.255973186038318e-13
11
733.3157623944709
21
-8491.688153227802
31
2.255973186038318e-13
  0
LINE
 8
Layer0
10
733.3157623944709
20
-8491.688153227802
30
2.255973186038318e-13
11
733.2816114789146
21
-8490.746449494007
31
2.255973186038318e-13
  0
LINE
 8
Layer0
10
733.2816114789146
20
-8490.746449494007
30
2.255973186038318e-13
11
733.3066580190768
21
-8489.804459643687
31
2.255973186038318e-13
  0
LINE
 8
Layer0
10
733.3066580190768
20
-8489.804459643687
30
2.255973186038318e-13
11
733.3166702683503
21
-8489.692782613653
31
2.255973186038318e-13
  0
LINE
 8
Layer0
10
733.3166702683503
20
-8489.692782613653
30
2.255973186038318e-13
11
733.3908031677065
21
-8488.865901280431
31
2.255973186038318e-13
  0
LINE
 8
Layer0
10
733.3908031677065
20
-8488.865901280431
30
2.255973186038318e-13
11
733.5337148423446
21
-8487.934478465308
31
2.255973186038318e-13
  0
LINE
 8
Layer0
10
733.5337148423446
20
-8487.934478465308
30
2.255973186038318e-13
11
733.7348290359001
21
-8487.013867098647
31
2.255973186038318e-13
  0
LINE
 8
Layer0
10
733.7348290359001
20
-8487.013867098647
30
2.255973186038318e-13
11
733.9933520425325
21
-8486.10770041292
31
2.255973186038318e-13
  0
LINE
 8
Layer0
10
733.9933520425325
20
-8486.10770041292
30
2.255973186038318e-13
11
734.1404702402039
21
-8485.692782613653
31
2.255973186038318e-13
  0
LINE
 8
Layer0
10
734.1404702402039
20
-8485.692782613653
30
2.255973186038318e-13
11
734.3082635900416
21
-8485.21955463405
31
2.255973186038318e-13
  0
LINE
 8
Layer0
10
734.3082635900416
20
-8485.21955463405
30
2.255973186038318e-13
11
734.6783208664191
21
-8484.352934867673
31
2.255973186038318e-13
  0
LINE
 8
Layer0
10
734.6783208664191
20
-8484.352934867673
30
2.255973186038318e-13
11
735.1020634246597
21
-8483.511261266081
31
2.255973186038318e-13
  0
LINE
 8
Layer0
10
735.1020634246597
20
-8483.511261266081
30
2.255973186038318e-13
11
735.5778189464736
21
-8482.697855530461
31
2.255973186038318e-13
  0
LINE
 8
Layer0
10
735.5778189464736
20
-8482.697855530461
30
2.255973186038318e-13
11
736.1037098421688
21
-8481.915927801638
31
2.255973186038318e-13
  0
LINE
 8
Layer0
10
736.1037098421688
20
-8481.915927801638
30
2.255973186038318e-13
11
736.6776606606368
21
-8481.16856399113
31
2.255973186038318e-13
  0
LINE
 8
Layer0
10
736.6776606606368
20
-8481.16856399113
30
2.255973186038318e-13
11
737.2974062802108
21
-8480.458713602458
31
2.255973186038318e-13
  0
LINE
 8
Layer0
10
737.2974062802108
20
-8480.458713602458
30
2.255973186038318e-13
11
737.9605008480645
21
-8479.789178090808
31
2.255973186038318e-13
  0
LINE
 8
Layer0
10
737.9605008480645
20
-8479.789178090808
30
2.255973186038318e-13
11
738.664327432878
21
-8479.162599806963
31
2.255973186038318e-13
  0
LINE
 8
Layer0
10
738.664327432878
20
-8479.162599806963
30
2.255973186038318e-13
11
739.4061083526692
21
-8478.58145156915
31
2.255973186038318e-13
  0
LINE
 8
Layer0
10
739.4061083526692
20
-8478.58145156915
30
2.255973186038318e-13
11
740.1829161370346
21
-8478.048026903965
31
2.255973186038318e-13
  0
LINE
 8
Layer0
10
740.1829161370346
20
-8478.048026903965
30
2.255973186038318e-13
11
740.9916850805379
21
-8477.564430994864
31
2.255973186038318e-13
  0
LINE
 8
Layer0
10
740.9916850805379
20
-8477.564430994864
30
2.255973186038318e-13
11
741.8292233416528
21
-8477.132572373963
31
2.255973186038318e-13
  0
LINE
 8
Layer0
10
741.8292233416528
20
-8477.132572373963
30
2.255973186038318e-13
11
742.6922255394965
21
-8476.754155389941
31
2.255973186038318e-13
  0
LINE
 8
Layer0
10
742.6922255394965
20
-8476.754155389941
30
2.255973186038318e-13
11
743.5772857986614
21
-8476.430673481756
31
2.255973186038318e-13
  0
LINE
 8
Layer0
10
743.5772857986614
20
-8476.430673481756
30
2.255973186038318e-13
11
744.0103941912854
21
-8476.302570656775
31
2.255973186038318e-13
  0
LINE
 8
Layer0
10
744.0103941912854
20
-8476.302570656775
30
2.255973186038318e-13
11
744.4809111906519
21
-8476.16340328471
31
2.255973186038318e-13
  0
LINE
 8
Layer0
10
744.4809111906519
20
-8476.16340328471
30
2.255973186038318e-13
11
745.3995355188717
21
-8475.95339959217
31
2.255973186038318e-13
  0
LINE
 8
Layer0
10
745.3995355188717
20
-8475.95339959217
30
2.255973186038318e-13
11
746.3295333927769
21
-8475.801491192768
31
2.255973186038318e-13
  0
LINE
 8
Layer0
10
746.3295333927769
20
-8475.801491192768
30
2.255973186038318e-13
11
747.267234535635
21
-8475.708277599553
31
2.255973186038318e-13
  0
LINE
 8
Layer0
10
747.267234535635
20
-8475.708277599553
30
2.255973186038318e-13
11
748.0103941912853
21
-8475.681326891243
31
2.255973186038318e-13
  0
LINE
 8
Layer0
10
748.0103941912853
20
-8475.681326891243
30
2.255973186038318e-13
11
748.208938269431
21
-8475.674126683998
31
2.255973186038318e-13
  0
LINE
 8
Layer0
10
748.208938269431
20
-8475.674126683998
30
2.255973186038318e-13
11
749.15092811975
21
-8475.69917322416
31
2.255973186038318e-13
  0
LINE
 8
Layer0
10
749.15092811975
20
-8475.69917322416
30
2.255973186038318e-13
11
750.0894864830069
21
-8475.78331837279
31
2.255973186038318e-13
  0
LINE
 8
Layer0
10
750.0894864830069
20
-8475.78331837279
30
2.255973186038318e-13
11
751.020909298129
21
-8475.926230047427
31
2.255973186038318e-13
  0
LINE
 8
Layer0
10
751.020909298129
20
-8475.926230047427
30
2.255973186038318e-13
11
751.9415206647916
21
-8476.127344240984
31
2.255973186038318e-13
  0
LINE
 8
Layer0
10
751.9415206647916
20
-8476.127344240984
30
2.255973186038318e-13
11
752.8476873505175
21
-8476.385867247616
31
2.255973186038318e-13
  0
LINE
 8
Layer0
10
752.8476873505175
20
-8476.385867247616
30
2.255973186038318e-13
11
753.7358331293864
21
-8476.700778795126
31
2.255973186038318e-13
  0
LINE
 8
Layer0
10
753.7358331293864
20
-8476.700778795126
30
2.255973186038318e-13
11
754.6024528957649
21
-8477.070836071503
31
2.255973186038318e-13
  0
LINE
 8
Layer0
10
754.6024528957649
20
-8477.070836071503
30
2.255973186038318e-13
11
755.4441264973551
21
-8477.494578629743
31
2.255973186038318e-13
  0
LINE
 8
Layer0
10
755.4441264973551
20
-8477.494578629743
30
2.255973186038318e-13
11
756.2575322329765
21
-8477.970334151556
31
2.255973186038318e-13
  0
LINE
 8
Layer0
10
756.2575322329765
20
-8477.970334151556
30
2.255973186038318e-13
11
757.0394599617989
21
-8478.496225047253
31
2.255973186038318e-13
  0
LINE
 8
Layer0
10
757.0394599617989
20
-8478.496225047253
30
2.255973186038318e-13
11
757.7868237723078
21
-8479.070175865721
31
2.255973186038318e-13
  0
LINE
 8
Layer0
10
757.7868237723078
20
-8479.070175865721
30
2.255973186038318e-13
11
758.4966741609785
21
-8479.689921485295
31
2.255973186038318e-13
  0
LINE
 8
Layer0
10
758.4966741609785
20
-8479.689921485295
30
2.255973186038318e-13
11
759.1662096726287
21
-8480.353016053148
31
2.255973186038318e-13
  0
LINE
 8
Layer0
10
759.1662096726287
20
-8480.353016053148
30
2.255973186038318e-13
11
759.7927879564746
21
-8481.056842637961
31
2.255973186038318e-13
  0
LINE
 8
Layer0
10
908.7120544314378
20
-8492.06173558039
30
4.511946372076636e-14
11
908.0134551919822
21
-8492.980812362237
31
4.511946372076636e-14
  0
LINE
 8
Layer0
10
908.0134551919822
20
-8492.980812362237
30
4.511946372076636e-14
11
907.1898475510088
21
-8493.789770631884
31
4.511946372076636e-14
  0
LINE
 8
Layer0
10
907.1898475510088
20
-8493.789770631884
30
4.511946372076636e-14
11
906.2583824044796
21
-8494.471764553486
31
4.511946372076636e-14
  0
LINE
 8
Layer0
10
906.2583824044796
20
-8494.471764553486
30
4.511946372076636e-14
11
905.2384566848971
21
-8495.012592210722
31
4.511946372076636e-14
  0
LINE
 8
Layer0
10
905.2384566848971
20
-8495.012592210722
30
4.511946372076636e-14
11
904.15130943745
21
-8495.40099134907
31
4.511946372076636e-14
  0
LINE
 8
Layer0
10
904.15130943745
20
-8495.40099134907
30
4.511946372076636e-14
11
903.0195795358085
21
-8495.628873902217
31
4.511946372076636e-14
  0
LINE
 8
Layer0
10
903.0195795358085
20
-8495.628873902217
30
4.511946372076636e-14
11
901.8668342477266
21
-8495.69149441885
31
4.511946372076636e-14
  0
LINE
 8
Layer0
10
901.8668342477266
20
-8495.69149441885
30
4.511946372076636e-14
11
900.7170784676739
21
-8495.587548882457
31
4.511946372076636e-14
  0
LINE
 8
Layer0
10
900.7170784676739
20
-8495.587548882457
30
4.511946372076636e-14
11
899.5942548362792
21
-8495.319201866303
31
4.511946372076636e-14
  0
LINE
 8
Layer0
10
898.5217451561462
20
-8494.892041458119
30
4.511946372076636e-14
11
897.5218834866339
21
-8494.314962893155
31
4.511946372076636e-14
  0
LINE
 8
Layer0
10
897.5218834866339
20
-8494.314962893155
30
4.511946372076636e-14
11
896.6154910569519
21
-8493.599983318823
31
4.511946372076636e-14
  0
LINE
 8
Layer0
10
896.6154910569519
20
-8493.599983318823
30
4.511946372076636e-14
11
895.8214426825908
21
-8492.761991548294
31
4.511946372076636e-14
  0
LINE
 8
Layer0
10
895.8214426825908
20
-8492.761991548294
30
4.511946372076636e-14
11
895.1562737141016
21
-8491.818438014223
31
4.511946372076636e-14
  0
LINE
 8
Layer0
10
895.1562737141016
20
-8491.818438014223
30
4.511946372076636e-14
11
894.633835703128
21
-8490.788971379023
31
4.511946372076636e-14
  0
LINE
 8
Layer0
10
894.633835703128
20
-8490.788971379023
30
4.511946372076636e-14
11
894.2736991864601
21
-8489.692782613653
31
4.511946372076636e-14
  0
LINE
 8
Layer0
10
748.0103941912853
20
-8635.956087608827
30
2.255973186038318e-13
11
748.7479977650199
21
-8636.175766804632
31
2.255973186038318e-13
  0
LINE
 8
Layer0
10
748.7479977650199
20
-8636.175766804632
30
2.255973186038318e-13
11
749.4579931372675
21
-8636.473775652328
31
2.255973186038318e-13
  0
LINE
 8
Layer0
10
749.4579931372675
20
-8636.473775652328
30
2.255973186038318e-13
11
750.1360495918552
21
-8636.83866213647
31
2.255973186038318e-13
  0
LINE
 8
Layer0
10
750.1360495918552
20
-8636.83866213647
30
2.255973186038318e-13
11
750.7758855427835
21
-8637.267045910457
31
2.255973186038318e-13
  0
LINE
 8
Layer0
10
750.7758855427835
20
-8637.267045910457
30
2.255973186038318e-13
11
751.3715734828028
21
-8637.754958382153
31
2.255973186038318e-13
  0
LINE
 8
Layer0
10
751.3715734828028
20
-8637.754958382153
30
2.255973186038318e-13
11
751.9175948964555
21
-8638.29787947932
31
2.255973186038318e-13
  0
LINE
 8
Layer0
10
751.9175948964555
20
-8638.29787947932
30
2.255973186038318e-13
11
752.4088913841875
21
-8638.890779524065
31
2.255973186038318e-13
  0
LINE
 8
Layer0
10
752.4088913841875
20
-8638.890779524065
30
2.255973186038318e-13
11
752.8409115238918
21
-8639.528165828286
31
2.255973186038318e-13
  0
LINE
 8
Layer0
10
752.8409115238918
20
-8639.528165828286
30
2.255973186038318e-13
11
753.2096530357505
21
-8640.204133578514
31
2.255973186038318e-13
  0
LINE
 8
Layer0
10
753.2096530357505
20
-8640.204133578514
30
2.255973186038318e-13
11
753.5116998597878
21
-8640.912420538725
31
2.255973186038318e-13
  0
LINE
 8
Layer0
10
753.5116998597878
20
-8640.912420538725
30
2.255973186038318e-13
11
753.7442538025931
21
-8641.646465064354
31
2.255973186038318e-13
  0
LINE
 8
Layer0
10
753.7442538025931
20
-8641.646465064354
30
2.255973186038318e-13
11
753.9051604600903
21
-8642.399466890041
31
2.255973186038318e-13
  0
LINE
 8
Layer0
10
753.9051604600903
20
-8642.399466890041
30
2.255973186038318e-13
11
753.9929291761525
21
-8643.164450128028
31
2.255973186038318e-13
  0
LINE
 8
Layer0
10
753.9929291761525
20
-8643.164450128028
30
2.255973186038318e-13
11
754.0067468522042
21
-8643.934327893487
31
2.255973186038318e-13
  0
LINE
 8
Layer0
10
775.0396762355048
20
-8507.294619173603
30
2.255973186038318e-13
11
775.8114293069125
21
-8505.982429001402
31
2.255973186038318e-13
  0
LINE
 8
Layer0
10
775.8114293069125
20
-8505.982429001402
30
2.255973186038318e-13
11
776.5188848039916
21
-8504.634485170636
31
2.255973186038318e-13
  0
LINE
 8
Layer0
10
776.5188848039916
20
-8504.634485170636
30
2.255973186038318e-13
11
777.1603904316491
21
-8503.25393586658
31
2.255973186038318e-13
  0
LINE
 8
Layer0
10
740.7429928541188
20
-8460.08928423534
30
2.255973186038318e-13
11
739.2741474096182
21
-8460.489207867322
31
2.255973186038318e-13
  0
LINE
 8
Layer0
10
739.2741474096182
20
-8460.489207867322
30
2.255973186038318e-13
11
737.8263389056283
21
-8460.959629366642
31
2.255973186038318e-13
  0
LINE
 8
Layer0
10
737.8263389056283
20
-8460.959629366642
30
2.255973186038318e-13
11
736.4029487659949
21
-8461.49945004209
31
2.255973186038318e-13
  0
LINE
 8
Layer0
10
754.333427875818
20
-8459.76079251087
30
2.255973186038318e-13
11
752.8328413406067
21
-8459.504499901552
31
2.255973186038318e-13
  0
LINE
 8
Layer0
10
752.8328413406067
20
-8459.504499901552
30
2.255973186038318e-13
11
751.321624787984
21
-8459.321004990654
31
2.255973186038318e-13
  0
LINE
 8
Layer0
10
751.321624787984
20
-8459.321004990654
30
2.255973186038318e-13
11
749.8033077342296
21
-8459.210736339042
31
2.255973186038318e-13
  0
LINE
 8
Layer0
10
749.8033077342296
20
-8459.210736339042
30
2.255973186038318e-13
11
748.2814362791767
21
-8459.173951484261
31
2.255973186038318e-13
  0
LINE
 8
Layer0
10
748.2814362791767
20
-8459.173951484261
30
2.255973186038318e-13
11
748.0103941912853
21
-8459.18050278911
31
2.255973186038318e-13
  0
LINE
 8
Layer0
10
748.0103941912853
20
-8459.18050278911
30
2.255973186038318e-13
11
748.0103941912853
21
-8339.42947761848
31
2.255973186038318e-13
  0
LINE
 8
Layer0
10
744.0103941912854
20
-8459.470457673282
30
2.255973186038318e-13
11
744.0103941912854
21
-8339.42947761848
31
2.255973186038318e-13
  0
LINE
 8
Layer0
10
744.0103941912854
20
-8459.470457673282
30
2.255973186038318e-13
11
743.7300312177466
21
-8459.504499901552
31
2.255973186038318e-13
  0
LINE
 8
Layer0
10
743.7300312177466
20
-8459.504499901552
30
2.255973186038318e-13
11
742.2294446825354
21
-8459.76079251087
31
2.255973186038318e-13
  0
LINE
 8
Layer0
10
742.2294446825354
20
-8459.76079251087
30
2.255973186038318e-13
11
740.7429928541188
21
-8460.08928423534
31
2.255973186038318e-13
  0
LINE
 8
Layer0
10
760.4591627161852
20
-8499.431975166883
30
2.255973186038318e-13
11
759.8852118977172
21
-8500.179338977392
31
2.255973186038318e-13
  0
LINE
 8
Layer0
10
759.8852118977172
20
-8500.179338977392
30
2.255973186038318e-13
11
759.2654662781432
21
-8500.889189366062
31
2.255973186038318e-13
  0
LINE
 8
Layer0
10
759.2654662781432
20
-8500.889189366062
30
2.255973186038318e-13
11
758.6023717102895
21
-8501.558724877712
31
2.255973186038318e-13
  0
LINE
 8
Layer0
10
758.6023717102895
20
-8501.558724877712
30
2.255973186038318e-13
11
757.898545125476
21
-8502.18530316156
31
2.255973186038318e-13
  0
LINE
 8
Layer0
10
757.898545125476
20
-8502.18530316156
30
2.255973186038318e-13
11
757.1567642056849
21
-8502.76645139937
31
2.255973186038318e-13
  0
LINE
 8
Layer0
10
757.1567642056849
20
-8502.76645139937
30
2.255973186038318e-13
11
756.3799564213201
21
-8503.299876064555
31
2.255973186038318e-13
  0
LINE
 8
Layer0
10
756.3799564213201
20
-8503.299876064555
30
2.255973186038318e-13
11
755.5711874778154
21
-8503.783471973657
31
2.255973186038318e-13
  0
LINE
 8
Layer0
10
763.1538965706709
20
-8488.72204859786
30
2.255973186038318e-13
11
763.2471101638832
21
-8489.659749740718
31
2.255973186038318e-13
  0
LINE
 8
Layer0
10
763.2471101638832
20
-8489.659749740718
30
2.255973186038318e-13
11
763.2483081020605
21
-8489.692782613653
31
2.255973186038318e-13
  0
LINE
 8
Layer0
10
763.2483081020605
20
-8489.692782613653
30
2.255973186038318e-13
11
763.2812610794394
21
-8490.601453474514
31
2.255973186038318e-13
  0
LINE
 8
Layer0
10
763.2812610794394
20
-8490.601453474514
30
2.255973186038318e-13
11
763.2562145392765
21
-8491.543443324834
31
2.255973186038318e-13
  0
LINE
 8
Layer0
10
763.2562145392765
20
-8491.543443324834
30
2.255973186038318e-13
11
763.1720693906475
21
-8492.482001688091
31
2.255973186038318e-13
  0
LINE
 8
Layer0
10
763.1720693906475
20
-8492.482001688091
30
2.255973186038318e-13
11
763.0291577160102
21
-8493.413424503213
31
2.255973186038318e-13
  0
LINE
 8
Layer0
10
763.0291577160102
20
-8493.413424503213
30
2.255973186038318e-13
11
762.8280435224547
21
-8494.334035869875
31
2.255973186038318e-13
  0
LINE
 8
Layer0
10
762.8280435224547
20
-8494.334035869875
30
2.255973186038318e-13
11
762.5695205158223
21
-8495.2402025556
31
2.255973186038318e-13
  0
LINE
 8
Layer0
10
762.5695205158223
20
-8495.2402025556
30
2.255973186038318e-13
11
762.2546089683132
21
-8496.12834833447
31
2.255973186038318e-13
  0
LINE
 8
Layer0
10
762.2546089683132
20
-8496.12834833447
30
2.255973186038318e-13
11
761.884551691935
21
-8496.99496810085
31
2.255973186038318e-13
  0
LINE
 8
Layer0
10
761.884551691935
20
-8496.99496810085
30
2.255973186038318e-13
11
761.4608091336951
21
-8497.836641702439
31
2.255973186038318e-13
  0
LINE
 8
Layer0
10
761.4608091336951
20
-8497.836641702439
30
2.255973186038318e-13
11
760.9850536118812
21
-8498.650047438061
31
2.255973186038318e-13
  0
LINE
 8
Layer0
10
760.9850536118812
20
-8498.650047438061
30
2.255973186038318e-13
11
760.4591627161852
21
-8499.431975166883
31
2.255973186038318e-13
  0
LINE
 8
Layer0
10
759.7927879564746
20
-8481.056842637961
30
2.255973186038318e-13
11
760.373936194287
21
-8481.798623557752
31
2.255973186038318e-13
  0
LINE
 8
Layer0
10
760.373936194287
20
-8481.798623557752
30
2.255973186038318e-13
11
760.9073608594717
21
-8482.575431342118
31
2.255973186038318e-13
  0
LINE
 8
Layer0
10
908.0134551919836
20
-8482.40475286507
30
4.511946372076636e-14
11
908.7120544314392
21
-8483.323829646919
31
4.511946372076636e-14
  0
LINE
 8
Layer0
10
908.7120544314392
20
-8483.323829646919
30
4.511946372076636e-14
11
909.271097562096
21
-8484.33388598513
31
4.511946372076636e-14
  0
LINE
 8
Layer0
10
899.5942548362792
20
-8495.319201866303
30
4.511946372076636e-14
11
898.5217451561462
21
-8494.892041458119
31
4.511946372076636e-14
  0
LINE
 8
Layer0
10
909.271097562096
20
-8484.33388598513
30
4.511946372076636e-14
11
909.678943008409
21
-8485.4138883556
31
4.511946372076636e-14
  0
LINE
 8
Layer0
10
909.678943008409
20
-8485.4138883556
30
4.511946372076636e-14
11
909.9270977520167
21
-8486.541346670363
31
4.511946372076636e-14
  0
LINE
 8
Layer0
10
909.9270977520167
20
-8486.541346670363
30
4.511946372076636e-14
11
910.0103941912852
21
-8487.692782613654
31
4.511946372076636e-14
  0
LINE
 8
Layer0
10
910.0103941912852
20
-8487.692782613654
30
4.511946372076636e-14
11
909.927097752016
21
-8488.844218556946
31
4.511946372076636e-14
  0
LINE
 8
Layer0
10
909.927097752016
20
-8488.844218556946
30
4.511946372076636e-14
11
909.678943008409
21
-8489.971676871708
31
4.511946372076636e-14
  0
LINE
 8
Layer0
10
909.678943008409
20
-8489.971676871708
30
4.511946372076636e-14
11
909.2710975620953
21
-8491.051679242177
31
4.511946372076636e-14
  0
LINE
 8
Layer0
10
909.2710975620953
20
-8491.051679242177
30
4.511946372076636e-14
11
908.7120544314378
21
-8492.06173558039
31
4.511946372076636e-14
  0
LINE
 8
Layer0
10
582.06373729416
20
-8486.77047888963
30
2.255973186038318e-13
11
582.2230552311235
21
-8485.860474801211
31
2.255973186038318e-13
  0
LINE
 8
Layer0
10
582.2230552311235
20
-8485.860474801211
30
2.255973186038318e-13
11
582.4862233739036
21
-8484.974905958828
31
2.255973186038318e-13
  0
LINE
 8
Layer0
10
582.4862233739036
20
-8484.974905958828
30
2.255973186038318e-13
11
582.8497321711702
21
-8484.125582109944
31
2.255973186038318e-13
  0
LINE
 8
Layer0
10
582.8497321711702
20
-8484.125582109944
30
2.255973186038318e-13
11
583.3087339511329
21
-8483.323829646919
31
2.255973186038318e-13
  0
LINE
 8
Layer0
10
583.3087339511329
20
-8483.323829646919
30
2.255973186038318e-13
11
583.8571075689986
21
-8482.580340560782
31
2.255973186038318e-13
  0
LINE
 8
Layer0
10
583.8571075689986
20
-8482.580340560782
30
2.255973186038318e-13
11
584.4875400371893
21
-8481.905029855236
31
2.255973186038318e-13
  0
LINE
 8
Layer0
10
584.4875400371893
20
-8481.905029855236
30
2.255973186038318e-13
11
585.1916240497047
21
-8481.306903322391
31
2.255973186038318e-13
  0
LINE
 8
Layer0
10
585.9599701000666
20
-8480.793937443535
30
2.255973186038318e-13
11
586.7823316976729
21
-8480.372973016585
31
2.255973186038318e-13
  0
LINE
 8
Layer0
10
586.7823316976729
20
-8480.372973016585
30
2.255973186038318e-13
11
587.6477420126995
21
-8480.049623928722
31
2.255973186038318e-13
  0
LINE
 8
Layer0
10
587.6477420126995
20
-8480.049623928722
30
2.255973186038318e-13
11
588.5446601272794
21
-8479.828202290864
31
2.255973186038318e-13
  0
LINE
 8
Layer0
10
588.5446601272794
20
-8479.828202290864
30
2.255973186038318e-13
11
589.4611249426003
21
-8479.711660932306
31
2.255973186038318e-13
  0
LINE
 8
Layer0
10
589.4611249426003
20
-8479.711660932306
30
2.255973186038318e-13
11
590.3849146894305
21
-8479.701554022475
31
2.255973186038318e-13
  0
LINE
 8
Layer0
10
777.7344479237674
20
-8479.50389754242
30
2.255973186038318e-13
11
777.1603904316491
21
-8478.09396710194
31
2.255973186038318e-13
  0
LINE
 8
Layer0
10
777.1603904316491
20
-8478.09396710194
30
2.255973186038318e-13
11
776.5188848039916
21
-8476.713417797884
31
2.255973186038318e-13
  0
LINE
 8
Layer0
10
776.5188848039916
20
-8476.713417797884
30
2.255973186038318e-13
11
775.8114293069118
21
-8475.365473967118
31
2.255973186038318e-13
  0
LINE
 8
Layer0
10
775.8114293069118
20
-8475.365473967118
30
2.255973186038318e-13
11
775.0396762355048
21
-8474.053283794916
31
2.255973186038318e-13
  0
LINE
 8
Layer0
10
775.0396762355048
20
-8474.053283794916
30
2.255973186038318e-13
11
774.205428054827
21
-8472.779911962229
31
2.255973186038318e-13
  0
LINE
 8
Layer0
10
774.205428054827
20
-8472.779911962229
30
2.255973186038318e-13
11
773.3106331901603
21
-8471.54833248797
31
2.255973186038318e-13
  0
LINE
 8
Layer0
10
773.3106331901603
20
-8471.54833248797
30
2.255973186038318e-13
11
772.3573814763713
21
-8470.36142178307
31
2.255973186038318e-13
  0
LINE
 8
Layer0
10
772.3573814763713
20
-8470.36142178307
30
2.255973186038318e-13
11
771.3478992770063
21
-8469.221951932477
31
2.255973186038318e-13
  0
LINE
 8
Layer0
10
771.3478992770063
20
-8469.221951932477
30
2.255973186038318e-13
11
770.2845442845183
21
-8468.13258422082
31
2.255973186038318e-13
  0
LINE
 8
Layer0
10
779.3318078285238
20
-8495.977198286691
30
2.255973186038318e-13
11
779.5517658132659
21
-8494.470856912303
31
2.255973186038318e-13
  0
LINE
 8
Layer0
10
779.5517658132659
20
-8494.470856912303
30
2.255973186038318e-13
11
779.6986904944591
21
-8492.955647689356
31
2.255973186038318e-13
  0
LINE
 8
Layer0
10
779.6986904944591
20
-8492.955647689356
30
2.255973186038318e-13
11
779.7722387227032
21
-8491.435109459198
31
2.255973186038318e-13
  0
LINE
 8
Layer0
10
779.7722387227032
20
-8489.912793509322
30
2.255973186038318e-13
11
779.761596825479
21
-8489.692782613653
31
2.255973186038318e-13
  0
LINE
 8
Layer0
10
779.761596825479
20
-8489.692782613653
30
2.255973186038318e-13
11
894.2736991864601
21
-8489.692782613653
31
4.511946372076636e-14
  0
LINE
 8
Layer0
10
739.1798768586797
20
-8639.528165828284
30
2.255973186038318e-13
11
739.6118969983825
21
-8638.890779524065
31
2.255973186038318e-13
  0
LINE
 8
Layer0
10
739.6118969983825
20
-8638.890779524065
30
2.255973186038318e-13
11
740.103193486116
21
-8638.29787947932
31
2.255973186038318e-13
  0
LINE
 8
Layer0
10
740.103193486116
20
-8638.29787947932
30
2.255973186038318e-13
11
740.6492148997687
21
-8637.754958382151
31
2.255973186038318e-13
  0
LINE
 8
Layer0
10
740.6492148997687
20
-8637.754958382151
30
2.255973186038318e-13
11
741.2449028397865
21
-8637.267045910457
31
2.255973186038318e-13
  0
LINE
 8
Layer0
10
741.2449028397865
20
-8637.267045910457
30
2.255973186038318e-13
11
741.8847387907163
21
-8636.83866213647
31
2.255973186038318e-13
  0
LINE
 8
Layer0
10
741.8847387907163
20
-8636.83866213647
30
2.255973186038318e-13
11
742.562795245304
21
-8636.473775652326
31
2.255973186038318e-13
  0
LINE
 8
Layer0
10
742.562795245304
20
-8636.473775652326
30
2.255973186038318e-13
11
743.2727906175501
21
-8636.175766804632
31
2.255973186038318e-13
  0
LINE
 8
Layer0
10
743.2727906175501
20
-8636.175766804632
30
2.255973186038318e-13
11
744.0103941912854
21
-8635.956087608827
31
2.255973186038318e-13
  0
LINE
 8
Layer0
10
597.7470891961112
20
-8489.692782613653
30
2.255973186038318e-13
11
597.4733001046892
21
-8490.574628433209
31
2.255973186038318e-13
  0
LINE
 8
Layer0
10
597.4733001046892
20
-8490.574628433209
30
2.255973186038318e-13
11
597.0912961435251
21
-8491.415795847954
31
2.255973186038318e-13
  0
LINE
 8
Layer0
10
597.0912961435251
20
-8491.415795847954
30
2.255973186038318e-13
11
596.6148628620418
21
-8492.20731399321
31
2.255973186038318e-13
  0
LINE
 8
Layer0
10
596.6148628620418
20
-8492.20731399321
30
2.255973186038318e-13
11
596.0503538676268
21
-8492.938627360516
31
2.255973186038318e-13
  0
LINE
 8
Layer0
10
596.0503538676268
20
-8492.938627360516
30
2.255973186038318e-13
11
595.4052973256195
21
-8493.599983318823
31
2.255973186038318e-13
  0
LINE
 8
Layer0
10
595.4052973256195
20
-8493.599983318823
30
2.255973186038318e-13
11
594.6882955653914
21
-8494.182562173402
31
2.255973186038318e-13
  0
LINE
 8
Layer0
10
594.6882955653914
20
-8494.182562173402
30
2.255973186038318e-13
11
593.9089103616051
21
-8494.678594783314
31
2.255973186038318e-13
  0
LINE
 8
Layer0
10
593.9089103616051
20
-8494.678594783314
30
2.255973186038318e-13
11
593.0775354205368
21
-8495.081466168918
31
2.255973186038318e-13
  0
LINE
 8
Layer0
10
593.0775354205368
20
-8495.081466168918
30
2.255973186038318e-13
11
592.205257771939
21
-8495.385803727775
31
2.255973186038318e-13
  0
LINE
 8
Layer0
10
592.205257771939
20
-8495.385803727775
30
2.255973186038318e-13
11
591.3037099148975
21
-8495.587548882459
31
2.255973186038318e-13
  0
LINE
 8
Layer0
10
591.3037099148975
20
-8495.587548882459
30
2.255973186038318e-13
11
590.3849146894319
21
-8495.68401120483
31
2.255973186038318e-13
  0
LINE
 8
Layer0
10
590.3849146894319
20
-8495.68401120483
30
2.255973186038318e-13
11
589.4611249426025
21
-8495.673904295
31
2.255973186038318e-13
  0
LINE
 8
Layer0
10
589.4611249426025
20
-8495.673904295
30
2.255973186038318e-13
11
588.5446601272808
21
-8495.557362936443
31
2.255973186038318e-13
  0
LINE
 8
Layer0
10
588.5446601272808
20
-8495.557362936443
30
2.255973186038318e-13
11
587.647742012701
21
-8495.335941298585
31
2.255973186038318e-13
  0
LINE
 8
Layer0
10
587.647742012701
20
-8495.335941298585
30
2.255973186038318e-13
11
586.7823316976751
21
-8495.012592210722
31
2.255973186038318e-13
  0
LINE
 8
Layer0
10
586.7823316976751
20
-8495.012592210722
30
2.255973186038318e-13
11
585.9599701000681
21
-8494.591627783771
31
2.255973186038318e-13
  0
LINE
 8
Layer0
10
585.9599701000681
20
-8494.591627783771
30
2.255973186038318e-13
11
585.1916240497054
21
-8494.07866190492
31
2.255973186038318e-13
  0
LINE
 8
Layer0
10
585.1916240497047
20
-8481.306903322391
30
2.255973186038318e-13
11
585.9599701000666
21
-8480.793937443535
31
2.255973186038318e-13
  0
LINE
 8
Layer0
10
585.1916240497054
20
-8494.07866190492
30
2.255973186038318e-13
11
584.4875400371907
21
-8493.480535372073
31
2.255973186038318e-13
  0
LINE
 8
Layer0
10
584.4875400371907
20
-8493.480535372073
30
2.255973186038318e-13
11
583.8571075689986
21
-8492.805224666527
31
2.255973186038318e-13
  0
LINE
 8
Layer0
10
583.8571075689986
20
-8492.805224666527
30
2.255973186038318e-13
11
583.3087339511336
21
-8492.06173558039
31
2.255973186038318e-13
  0
LINE
 8
Layer0
10
583.3087339511336
20
-8492.06173558039
30
2.255973186038318e-13
11
582.8497321711709
21
-8491.259983117365
31
2.255973186038318e-13
  0
LINE
 8
Layer0
10
582.8497321711709
20
-8491.259983117365
30
2.255973186038318e-13
11
582.4862233739043
21
-8490.410659268482
31
2.255973186038318e-13
  0
LINE
 8
Layer0
10
582.4862233739043
20
-8490.410659268482
30
2.255973186038318e-13
11
582.2230552311241
21
-8489.525090426096
31
2.255973186038318e-13
  0
LINE
 8
Layer0
10
582.2230552311241
20
-8489.525090426096
30
2.255973186038318e-13
11
582.06373729416
21
-8488.615086337679
31
2.255973186038318e-13
  0
LINE
 8
Layer0
10
596.050353867626
20
-8482.446937866789
30
2.255973186038318e-13
11
596.614862862041
21
-8483.178251234096
31
2.255973186038318e-13
  0
LINE
 8
Layer0
10
596.614862862041
20
-8483.178251234096
30
2.255973186038318e-13
11
597.0912961435251
21
-8483.969769379351
31
2.255973186038318e-13
  0
LINE
 8
Layer0
10
597.0912961435251
20
-8483.969769379351
30
2.255973186038318e-13
11
597.4733001046892
21
-8484.810936794098
31
2.255973186038318e-13
  0
LINE
 8
Layer0
10
590.3849146894305
20
-8479.701554022475
30
2.255973186038318e-13
11
591.303709914896
21
-8479.798016344848
31
2.255973186038318e-13
  0
LINE
 8
Layer0
10
591.303709914896
20
-8479.798016344848
30
2.255973186038318e-13
11
592.2052577719376
21
-8479.999761499532
31
2.255973186038318e-13
  0
LINE
 8
Layer0
10
592.2052577719376
20
-8479.999761499532
30
2.255973186038318e-13
11
593.0775354205354
21
-8480.304099058389
31
2.255973186038318e-13
  0
LINE
 8
Layer0
10
593.0775354205354
20
-8480.304099058389
30
2.255973186038318e-13
11
593.9089103616036
21
-8480.706970443993
31
2.255973186038318e-13
  0
LINE
 8
Layer0
10
593.9089103616036
20
-8480.706970443993
30
2.255973186038318e-13
11
594.6882955653899
21
-8481.203003053903
31
2.255973186038318e-13
  0
LINE
 8
Layer0
10
594.6882955653899
20
-8481.203003053903
30
2.255973186038318e-13
11
595.4052973256188
21
-8481.785581908482
31
2.255973186038318e-13
  0
LINE
 8
Layer0
10
595.4052973256188
20
-8481.785581908482
30
2.255973186038318e-13
11
596.050353867626
21
-8482.446937866789
31
2.255973186038318e-13
  0
LINE
 8
Layer0
10
760.9073608594717
20
-8482.575431342118
30
2.255973186038318e-13
11
761.3909567685749
21
-8483.384200285622
31
2.255973186038318e-13
  0
LINE
 8
Layer0
10
761.3909567685749
20
-8483.384200285622
30
2.255973186038318e-13
11
761.8228153894756
21
-8484.221738546736
31
2.255973186038318e-13
  0
LINE
 8
Layer0
10
761.8228153894756
20
-8484.221738546736
30
2.255973186038318e-13
11
762.201232373496
21
-8485.08474074458
31
2.255973186038318e-13
  0
LINE
 8
Layer0
10
762.201232373496
20
-8485.08474074458
30
2.255973186038318e-13
11
762.4234664440331
21
-8485.692782613653
31
2.255973186038318e-13
  0
LINE
 8
Layer0
10
763.0019881712678
20
-8487.792050723956
30
2.255973186038318e-13
11
763.1538965706709
21
-8488.72204859786
31
2.255973186038318e-13
  0
LINE
 8
Layer0
10
750.3793471580211
20
-8650.394442853805
30
2.255973186038318e-13
11
749.7148210647002
21
-8650.783425852424
31
2.255973186038318e-13
  0
LINE
 8
Layer0
10
749.7148210647002
20
-8650.783425852424
30
2.255973186038318e-13
11
749.0159767729056
21
-8651.106720389562
31
2.255973186038318e-13
  0
LINE
 8
Layer0
10
749.0159767729056
20
-8651.106720389562
30
2.255973186038318e-13
11
748.289288449338
21
-8651.361331430777
31
2.255973186038318e-13
  0
LINE
 8
Layer0
10
748.289288449338
20
-8651.361331430777
30
2.255973186038318e-13
11
747.5414882107241
21
-8651.544900232719
31
2.255973186038318e-13
 0
ENDSEC
 0
EOF
