ISO-10303-21;
HEADER;
FILE_DESCRIPTION(('CATIA V5 STEP Exchange'),'2;1');

FILE_NAME('C:\\Users\\Mat\\Documents\\usineur D6\\d6.stp','2016-08-28T19:02:04+00:00',('none'),('none'),'CATIA Version 5 Release 20 GA (IN-10)','CATIA V5 STEP AP203','none');

FILE_SCHEMA(('CONFIG_CONTROL_DESIGN'));

ENDSEC;
/* file written by CATIA V5R20 */
DATA;
#5=PRODUCT('d6','','',(#2)) ;
#1=APPLICATION_CONTEXT('configuration controlled 3D design of mechanical parts and assemblies') ;
#14=PRODUCT_DEFINITION('',' ',#6,#3) ;
#16=SECURITY_CLASSIFICATION(' ',' ',#15) ;
#15=SECURITY_CLASSIFICATION_LEVEL('unclassified') ;
#47=CARTESIAN_POINT(' ',(0.,0.,0.)) ;
#52=CARTESIAN_POINT('Axis2P3D Location',(47.5,0.,0.)) ;
#57=CARTESIAN_POINT('Line Origine',(47.5,2.95,0.)) ;
#61=CARTESIAN_POINT('Vertex',(30.,2.95,0.)) ;
#63=CARTESIAN_POINT('Vertex',(65.,2.95,0.)) ;
#66=CARTESIAN_POINT('Axis2P3D Location',(30.,0.,0.)) ;
#70=CARTESIAN_POINT('Vertex',(30.,-2.95,3.61258874378E-016)) ;
#73=CARTESIAN_POINT('Line Origine',(47.5,-2.95,3.61258874378E-016)) ;
#77=CARTESIAN_POINT('Vertex',(65.,-2.95,3.61258874378E-016)) ;
#80=CARTESIAN_POINT('Axis2P3D Location',(65.,0.,0.)) ;
#92=CARTESIAN_POINT('Axis2P3D Location',(30.,0.,0.)) ;
#97=CARTESIAN_POINT('Axis2P3D Location',(65.,0.,0.)) ;
#109=CARTESIAN_POINT('Axis2P3D Location',(65.,0.,0.)) ;
#119=CARTESIAN_POINT('Axis2P3D Location',(30.,0.,0.)) ;
#128=CARTESIAN_POINT('Axis2P3D Location',(30.,0.,0.)) ;
#132=CARTESIAN_POINT('Vertex',(30.,1.5,1.83690953073E-016)) ;
#134=CARTESIAN_POINT('Vertex',(30.,-1.5,0.)) ;
#137=CARTESIAN_POINT('Axis2P3D Location',(30.,0.,0.)) ;
#147=CARTESIAN_POINT('Axis2P3D Location',(31.5,0.,0.)) ;
#152=CARTESIAN_POINT('Line Origine',(31.5,-1.5,0.)) ;
#156=CARTESIAN_POINT('Vertex',(33.,-1.5,0.)) ;
#159=CARTESIAN_POINT('Line Origine',(31.5,1.5,1.83690953073E-016)) ;
#163=CARTESIAN_POINT('Vertex',(33.,1.5,1.83690953073E-016)) ;
#166=CARTESIAN_POINT('Axis2P3D Location',(33.,0.,0.)) ;
#178=CARTESIAN_POINT('Axis2P3D Location',(33.,0.,0.)) ;
#190=CARTESIAN_POINT('Axis2P3D Location',(33.,0.,0.)) ;
#199=CARTESIAN_POINT('Axis2P3D Location',(33.,0.,0.)) ;
#203=CARTESIAN_POINT('Vertex',(33.,-0.8,0.)) ;
#205=CARTESIAN_POINT('Vertex',(33.,0.8,9.79685083058E-017)) ;
#208=CARTESIAN_POINT('Axis2P3D Location',(33.,0.,0.)) ;
#218=CARTESIAN_POINT('Axis2P3D Location',(38.,0.,0.)) ;
#223=CARTESIAN_POINT('Line Origine',(38.,-0.8,0.)) ;
#227=CARTESIAN_POINT('Vertex',(43.,-0.8,0.)) ;
#230=CARTESIAN_POINT('Line Origine',(38.,0.8,9.79685083058E-017)) ;
#234=CARTESIAN_POINT('Vertex',(43.,0.8,9.79685083058E-017)) ;
#237=CARTESIAN_POINT('Axis2P3D Location',(43.,0.,0.)) ;
#249=CARTESIAN_POINT('Axis2P3D Location',(43.,0.,0.)) ;
#261=CARTESIAN_POINT('Axis2P3D Location',(43.,0.,0.)) ;
#275=CARTESIAN_POINT('Axis2P3D Location',(10.,0.,0.)) ;
#280=CARTESIAN_POINT('Line Origine',(10.,3.,0.)) ;
#284=CARTESIAN_POINT('Vertex',(0.,3.,0.)) ;
#286=CARTESIAN_POINT('Vertex',(20.,3.,0.)) ;
#289=CARTESIAN_POINT('Axis2P3D Location',(0.,0.,0.)) ;
#293=CARTESIAN_POINT('Vertex',(0.,-3.,3.67381906147E-016)) ;
#296=CARTESIAN_POINT('Line Origine',(10.,-3.,3.67381906147E-016)) ;
#300=CARTESIAN_POINT('Vertex',(20.,-3.,3.67381906147E-016)) ;
#303=CARTESIAN_POINT('Axis2P3D Location',(20.,0.,0.)) ;
#315=CARTESIAN_POINT('Axis2P3D Location',(0.,0.,0.)) ;
#320=CARTESIAN_POINT('Axis2P3D Location',(20.,0.,0.)) ;
#332=CARTESIAN_POINT('Axis2P3D Location',(20.,0.,0.)) ;
#341=CARTESIAN_POINT('Axis2P3D Location',(20.,0.,0.)) ;
#345=CARTESIAN_POINT('Vertex',(20.,1.5,0.)) ;
#347=CARTESIAN_POINT('Vertex',(20.,-1.5,1.83690953073E-016)) ;
#350=CARTESIAN_POINT('Axis2P3D Location',(20.,0.,0.)) ;
#360=CARTESIAN_POINT('Axis2P3D Location',(10.,0.,0.)) ;
#365=CARTESIAN_POINT('Axis2P3D Location',(10.,0.,0.)) ;
#369=CARTESIAN_POINT('Vertex',(10.,1.5,0.)) ;
#371=CARTESIAN_POINT('Vertex',(10.,-1.5,1.83690953073E-016)) ;
#374=CARTESIAN_POINT('Line Origine',(15.,-1.5,1.83690953073E-016)) ;
#379=CARTESIAN_POINT('Line Origine',(15.,1.5,-3.67381906147E-016)) ;
#391=CARTESIAN_POINT('Axis2P3D Location',(10.,0.,0.)) ;
#403=CARTESIAN_POINT('Axis2P3D Location',(0.,0.,0.)) ;
#412=CARTESIAN_POINT('Axis2P3D Location',(0.,0.,0.)) ;
#416=CARTESIAN_POINT('Vertex',(0.,1.585,8.97981504693E-016)) ;
#418=CARTESIAN_POINT('Vertex',(0.,-1.585,0.)) ;
#421=CARTESIAN_POINT('Axis2P3D Location',(0.,0.,0.)) ;
#431=CARTESIAN_POINT('Axis2P3D Location',(5.,0.,0.)) ;
#436=CARTESIAN_POINT('Line Origine',(5.,-1.585,0.)) ;
#440=CARTESIAN_POINT('Vertex',(10.,-1.585,0.)) ;
#443=CARTESIAN_POINT('Line Origine',(5.,1.585,-5.09781290532E-016)) ;
#447=CARTESIAN_POINT('Vertex',(10.,1.585,-5.09781290532E-016)) ;
#450=CARTESIAN_POINT('Axis2P3D Location',(10.,0.,0.)) ;
#462=CARTESIAN_POINT('Axis2P3D Location',(10.,0.,0.)) ;
#474=CARTESIAN_POINT('Axis2P3D Location',(10.,0.,0.)) ;
#53=DIRECTION('Axis2P3D Direction',(1.,0.,0.)) ;
#54=DIRECTION('Axis2P3D XDirection',(0.,-1.,1.22460635382E-016)) ;
#58=DIRECTION('Vector Direction',(1.,0.,0.)) ;
#67=DIRECTION('Axis2P3D Direction',(1.,0.,0.)) ;
#74=DIRECTION('Vector Direction',(1.,0.,0.)) ;
#81=DIRECTION('Axis2P3D Direction',(1.,0.,0.)) ;
#93=DIRECTION('Axis2P3D Direction',(1.,0.,0.)) ;
#98=DIRECTION('Axis2P3D Direction',(1.,0.,0.)) ;
#110=DIRECTION('Axis2P3D Direction',(1.,0.,0.)) ;
#111=DIRECTION('Axis2P3D XDirection',(0.,1.,0.)) ;
#120=DIRECTION('Axis2P3D Direction',(1.,0.,0.)) ;
#121=DIRECTION('Axis2P3D XDirection',(0.,1.,0.)) ;
#129=DIRECTION('Axis2P3D Direction',(1.,0.,0.)) ;
#138=DIRECTION('Axis2P3D Direction',(1.,0.,0.)) ;
#148=DIRECTION('Axis2P3D Direction',(-1.,-0.,0.)) ;
#149=DIRECTION('Axis2P3D XDirection',(0.,1.,1.22460635382E-016)) ;
#153=DIRECTION('Vector Direction',(-1.,0.,0.)) ;
#160=DIRECTION('Vector Direction',(-1.,0.,0.)) ;
#167=DIRECTION('Axis2P3D Direction',(-1.,-0.,0.)) ;
#179=DIRECTION('Axis2P3D Direction',(-1.,-0.,0.)) ;
#191=DIRECTION('Axis2P3D Direction',(-1.,0.,0.)) ;
#192=DIRECTION('Axis2P3D XDirection',(0.,-1.,0.)) ;
#200=DIRECTION('Axis2P3D Direction',(-1.,0.,0.)) ;
#209=DIRECTION('Axis2P3D Direction',(-1.,0.,0.)) ;
#219=DIRECTION('Axis2P3D Direction',(-1.,0.,0.)) ;
#220=DIRECTION('Axis2P3D XDirection',(0.,1.,1.22460635382E-016)) ;
#224=DIRECTION('Vector Direction',(-1.,0.,0.)) ;
#231=DIRECTION('Vector Direction',(-1.,0.,0.)) ;
#238=DIRECTION('Axis2P3D Direction',(-1.,0.,0.)) ;
#250=DIRECTION('Axis2P3D Direction',(-1.,0.,0.)) ;
#262=DIRECTION('Axis2P3D Direction',(-1.,0.,0.)) ;
#263=DIRECTION('Axis2P3D XDirection',(0.,-1.,0.)) ;
#276=DIRECTION('Axis2P3D Direction',(1.,0.,0.)) ;
#277=DIRECTION('Axis2P3D XDirection',(0.,-1.,1.22460635382E-016)) ;
#281=DIRECTION('Vector Direction',(1.,0.,0.)) ;
#290=DIRECTION('Axis2P3D Direction',(1.,0.,0.)) ;
#297=DIRECTION('Vector Direction',(1.,0.,0.)) ;
#304=DIRECTION('Axis2P3D Direction',(1.,0.,0.)) ;
#316=DIRECTION('Axis2P3D Direction',(1.,0.,0.)) ;
#321=DIRECTION('Axis2P3D Direction',(1.,0.,0.)) ;
#333=DIRECTION('Axis2P3D Direction',(1.,0.,0.)) ;
#334=DIRECTION('Axis2P3D XDirection',(0.,1.,0.)) ;
#342=DIRECTION('Axis2P3D Direction',(1.,0.,0.)) ;
#351=DIRECTION('Axis2P3D Direction',(1.,0.,0.)) ;
#361=DIRECTION('Axis2P3D Direction',(1.,0.,0.)) ;
#362=DIRECTION('Axis2P3D XDirection',(0.,1.,0.)) ;
#366=DIRECTION('Axis2P3D Direction',(1.,0.,0.)) ;
#375=DIRECTION('Vector Direction',(1.,0.,0.)) ;
#380=DIRECTION('Vector Direction',(1.,0.,0.)) ;
#392=DIRECTION('Axis2P3D Direction',(1.,0.,0.)) ;
#404=DIRECTION('Axis2P3D Direction',(1.,0.,0.)) ;
#405=DIRECTION('Axis2P3D XDirection',(0.,1.,0.)) ;
#413=DIRECTION('Axis2P3D Direction',(1.,0.,0.)) ;
#422=DIRECTION('Axis2P3D Direction',(1.,0.,0.)) ;
#432=DIRECTION('Axis2P3D Direction',(-1.,-0.,0.)) ;
#433=DIRECTION('Axis2P3D XDirection',(0.,1.,5.66549845232E-016)) ;
#437=DIRECTION('Vector Direction',(-1.,0.,0.)) ;
#444=DIRECTION('Vector Direction',(-1.,0.,0.)) ;
#451=DIRECTION('Axis2P3D Direction',(-1.,-0.,0.)) ;
#463=DIRECTION('Axis2P3D Direction',(-1.,-0.,0.)) ;
#475=DIRECTION('Axis2P3D Direction',(-1.,0.,0.)) ;
#476=DIRECTION('Axis2P3D XDirection',(0.,-1.,0.)) ;
#48=AXIS2_PLACEMENT_3D(' ',#47,$,$) ;
#55=AXIS2_PLACEMENT_3D('Cylinder Axis2P3D',#52,#53,#54) ;
#68=AXIS2_PLACEMENT_3D('Circle Axis2P3D',#66,#67,$) ;
#82=AXIS2_PLACEMENT_3D('Circle Axis2P3D',#80,#81,$) ;
#94=AXIS2_PLACEMENT_3D('Circle Axis2P3D',#92,#93,$) ;
#99=AXIS2_PLACEMENT_3D('Circle Axis2P3D',#97,#98,$) ;
#112=AXIS2_PLACEMENT_3D('Plane Axis2P3D',#109,#110,#111) ;
#122=AXIS2_PLACEMENT_3D('Plane Axis2P3D',#119,#120,#121) ;
#130=AXIS2_PLACEMENT_3D('Circle Axis2P3D',#128,#129,$) ;
#139=AXIS2_PLACEMENT_3D('Circle Axis2P3D',#137,#138,$) ;
#150=AXIS2_PLACEMENT_3D('Cylinder Axis2P3D',#147,#148,#149) ;
#168=AXIS2_PLACEMENT_3D('Circle Axis2P3D',#166,#167,$) ;
#180=AXIS2_PLACEMENT_3D('Circle Axis2P3D',#178,#179,$) ;
#193=AXIS2_PLACEMENT_3D('Plane Axis2P3D',#190,#191,#192) ;
#201=AXIS2_PLACEMENT_3D('Circle Axis2P3D',#199,#200,$) ;
#210=AXIS2_PLACEMENT_3D('Circle Axis2P3D',#208,#209,$) ;
#221=AXIS2_PLACEMENT_3D('Cylinder Axis2P3D',#218,#219,#220) ;
#239=AXIS2_PLACEMENT_3D('Circle Axis2P3D',#237,#238,$) ;
#251=AXIS2_PLACEMENT_3D('Circle Axis2P3D',#249,#250,$) ;
#264=AXIS2_PLACEMENT_3D('Plane Axis2P3D',#261,#262,#263) ;
#278=AXIS2_PLACEMENT_3D('Cylinder Axis2P3D',#275,#276,#277) ;
#291=AXIS2_PLACEMENT_3D('Circle Axis2P3D',#289,#290,$) ;
#305=AXIS2_PLACEMENT_3D('Circle Axis2P3D',#303,#304,$) ;
#317=AXIS2_PLACEMENT_3D('Circle Axis2P3D',#315,#316,$) ;
#322=AXIS2_PLACEMENT_3D('Circle Axis2P3D',#320,#321,$) ;
#335=AXIS2_PLACEMENT_3D('Plane Axis2P3D',#332,#333,#334) ;
#343=AXIS2_PLACEMENT_3D('Circle Axis2P3D',#341,#342,$) ;
#352=AXIS2_PLACEMENT_3D('Circle Axis2P3D',#350,#351,$) ;
#363=AXIS2_PLACEMENT_3D('Cylinder Axis2P3D',#360,#361,#362) ;
#367=AXIS2_PLACEMENT_3D('Circle Axis2P3D',#365,#366,$) ;
#393=AXIS2_PLACEMENT_3D('Circle Axis2P3D',#391,#392,$) ;
#406=AXIS2_PLACEMENT_3D('Plane Axis2P3D',#403,#404,#405) ;
#414=AXIS2_PLACEMENT_3D('Circle Axis2P3D',#412,#413,$) ;
#423=AXIS2_PLACEMENT_3D('Circle Axis2P3D',#421,#422,$) ;
#434=AXIS2_PLACEMENT_3D('Cylinder Axis2P3D',#431,#432,#433) ;
#452=AXIS2_PLACEMENT_3D('Circle Axis2P3D',#450,#451,$) ;
#464=AXIS2_PLACEMENT_3D('Circle Axis2P3D',#462,#463,$) ;
#477=AXIS2_PLACEMENT_3D('Plane Axis2P3D',#474,#475,#476) ;
#40=PRODUCT_DEFINITION_SHAPE(' ',' ',#14) ;
#31=APPROVAL_PERSON_ORGANIZATION(#25,#21,#19) ;
#25=PERSON_AND_ORGANIZATION(#22,#23) ;
#22=PERSON(' ',' ',' ',$,$,$) ;
#23=ORGANIZATION(' ',' ',' ') ;
#21=APPROVAL(#20,' ') ;
#20=APPROVAL_STATUS('not_yet_approved') ;
#19=APPROVAL_ROLE('APPROVER') ;
#13=DATE_AND_TIME(#11,#12) ;
#12=LOCAL_TIME(21,2,4.,#10) ;
#10=COORDINATED_UNIVERSAL_TIME_OFFSET(0,0,.AHEAD.) ;
#86=ORIENTED_EDGE('',*,*,#65,.F.) ;
#87=ORIENTED_EDGE('',*,*,#72,.T.) ;
#88=ORIENTED_EDGE('',*,*,#79,.T.) ;
#89=ORIENTED_EDGE('',*,*,#84,.F.) ;
#103=ORIENTED_EDGE('',*,*,#79,.F.) ;
#104=ORIENTED_EDGE('',*,*,#96,.T.) ;
#105=ORIENTED_EDGE('',*,*,#65,.T.) ;
#106=ORIENTED_EDGE('',*,*,#101,.F.) ;
#115=ORIENTED_EDGE('',*,*,#84,.T.) ;
#116=ORIENTED_EDGE('',*,*,#101,.T.) ;
#125=ORIENTED_EDGE('',*,*,#96,.F.) ;
#126=ORIENTED_EDGE('',*,*,#72,.F.) ;
#143=ORIENTED_EDGE('',*,*,#136,.F.) ;
#144=ORIENTED_EDGE('',*,*,#141,.F.) ;
#172=ORIENTED_EDGE('',*,*,#158,.F.) ;
#173=ORIENTED_EDGE('',*,*,#141,.T.) ;
#174=ORIENTED_EDGE('',*,*,#165,.T.) ;
#175=ORIENTED_EDGE('',*,*,#170,.F.) ;
#184=ORIENTED_EDGE('',*,*,#165,.F.) ;
#185=ORIENTED_EDGE('',*,*,#136,.T.) ;
#186=ORIENTED_EDGE('',*,*,#158,.T.) ;
#187=ORIENTED_EDGE('',*,*,#182,.F.) ;
#196=ORIENTED_EDGE('',*,*,#170,.T.) ;
#197=ORIENTED_EDGE('',*,*,#182,.T.) ;
#214=ORIENTED_EDGE('',*,*,#207,.F.) ;
#215=ORIENTED_EDGE('',*,*,#212,.F.) ;
#243=ORIENTED_EDGE('',*,*,#229,.F.) ;
#244=ORIENTED_EDGE('',*,*,#207,.T.) ;
#245=ORIENTED_EDGE('',*,*,#236,.T.) ;
#246=ORIENTED_EDGE('',*,*,#241,.F.) ;
#255=ORIENTED_EDGE('',*,*,#236,.F.) ;
#256=ORIENTED_EDGE('',*,*,#212,.T.) ;
#257=ORIENTED_EDGE('',*,*,#229,.T.) ;
#258=ORIENTED_EDGE('',*,*,#253,.F.) ;
#267=ORIENTED_EDGE('',*,*,#241,.T.) ;
#268=ORIENTED_EDGE('',*,*,#253,.T.) ;
#309=ORIENTED_EDGE('',*,*,#288,.F.) ;
#310=ORIENTED_EDGE('',*,*,#295,.T.) ;
#311=ORIENTED_EDGE('',*,*,#302,.T.) ;
#312=ORIENTED_EDGE('',*,*,#307,.F.) ;
#326=ORIENTED_EDGE('',*,*,#302,.F.) ;
#327=ORIENTED_EDGE('',*,*,#319,.T.) ;
#328=ORIENTED_EDGE('',*,*,#288,.T.) ;
#329=ORIENTED_EDGE('',*,*,#324,.F.) ;
#338=ORIENTED_EDGE('',*,*,#307,.T.) ;
#339=ORIENTED_EDGE('',*,*,#324,.T.) ;
#356=ORIENTED_EDGE('',*,*,#349,.F.) ;
#357=ORIENTED_EDGE('',*,*,#354,.F.) ;
#385=ORIENTED_EDGE('',*,*,#373,.T.) ;
#386=ORIENTED_EDGE('',*,*,#378,.F.) ;
#387=ORIENTED_EDGE('',*,*,#354,.T.) ;
#388=ORIENTED_EDGE('',*,*,#383,.T.) ;
#397=ORIENTED_EDGE('',*,*,#395,.T.) ;
#398=ORIENTED_EDGE('',*,*,#383,.F.) ;
#399=ORIENTED_EDGE('',*,*,#349,.T.) ;
#400=ORIENTED_EDGE('',*,*,#378,.T.) ;
#409=ORIENTED_EDGE('',*,*,#319,.F.) ;
#410=ORIENTED_EDGE('',*,*,#295,.F.) ;
#427=ORIENTED_EDGE('',*,*,#420,.F.) ;
#428=ORIENTED_EDGE('',*,*,#425,.F.) ;
#456=ORIENTED_EDGE('',*,*,#442,.F.) ;
#457=ORIENTED_EDGE('',*,*,#425,.T.) ;
#458=ORIENTED_EDGE('',*,*,#449,.T.) ;
#459=ORIENTED_EDGE('',*,*,#454,.F.) ;
#468=ORIENTED_EDGE('',*,*,#449,.F.) ;
#469=ORIENTED_EDGE('',*,*,#420,.T.) ;
#470=ORIENTED_EDGE('',*,*,#442,.T.) ;
#471=ORIENTED_EDGE('',*,*,#466,.F.) ;
#480=ORIENTED_EDGE('',*,*,#454,.T.) ;
#481=ORIENTED_EDGE('',*,*,#466,.T.) ;
#484=ORIENTED_EDGE('',*,*,#395,.F.) ;
#485=ORIENTED_EDGE('',*,*,#373,.F.) ;
#145=FACE_BOUND('',#142,.T.) ;
#216=FACE_BOUND('',#213,.T.) ;
#358=FACE_BOUND('',#355,.T.) ;
#429=FACE_BOUND('',#426,.T.) ;
#486=FACE_BOUND('',#483,.T.) ;
#51=CLOSED_SHELL('Closed Shell',(#91,#108,#118,#146,#177,#189,#217,#248,#260,#270)) ;
#274=CLOSED_SHELL('Closed Shell',(#314,#331,#359,#390,#402,#430,#461,#473,#487)) ;
#59=VECTOR('Line Direction',#58,1.) ;
#75=VECTOR('Line Direction',#74,1.) ;
#154=VECTOR('Line Direction',#153,1.) ;
#161=VECTOR('Line Direction',#160,1.) ;
#225=VECTOR('Line Direction',#224,1.) ;
#232=VECTOR('Line Direction',#231,1.) ;
#282=VECTOR('Line Direction',#281,1.) ;
#298=VECTOR('Line Direction',#297,1.) ;
#376=VECTOR('Line Direction',#375,1.) ;
#381=VECTOR('Line Direction',#380,1.) ;
#438=VECTOR('Line Direction',#437,1.) ;
#445=VECTOR('Line Direction',#444,1.) ;
#272=ADVANCED_BREP_SHAPE_REPRESENTATION('NONE',(#271,#488),#46) ;
#49=SHAPE_REPRESENTATION(' ',(#48),#46) ;
#91=ADVANCED_FACE('Corps principal',(#90),#56,.T.) ;
#108=ADVANCED_FACE('Corps principal',(#107),#56,.T.) ;
#118=ADVANCED_FACE('Corps principal',(#117),#113,.T.) ;
#146=ADVANCED_FACE('Corps principal',(#127,#145),#123,.F.) ;
#177=ADVANCED_FACE('Corps principal',(#176),#151,.F.) ;
#189=ADVANCED_FACE('Corps principal',(#188),#151,.F.) ;
#217=ADVANCED_FACE('Corps principal',(#198,#216),#194,.T.) ;
#248=ADVANCED_FACE('Corps principal',(#247),#222,.F.) ;
#260=ADVANCED_FACE('Corps principal',(#259),#222,.F.) ;
#270=ADVANCED_FACE('Corps principal',(#269),#265,.T.) ;
#314=ADVANCED_FACE('Corps principal',(#313),#279,.T.) ;
#331=ADVANCED_FACE('Corps principal',(#330),#279,.T.) ;
#359=ADVANCED_FACE('Corps principal',(#340,#358),#336,.T.) ;
#390=ADVANCED_FACE('Corps principal',(#389),#364,.F.) ;
#402=ADVANCED_FACE('Corps principal',(#401),#364,.F.) ;
#430=ADVANCED_FACE('Corps principal',(#411,#429),#407,.F.) ;
#461=ADVANCED_FACE('Corps principal',(#460),#435,.F.) ;
#473=ADVANCED_FACE('Corps principal',(#472),#435,.F.) ;
#487=ADVANCED_FACE('Corps principal',(#482,#486),#478,.T.) ;
#4=APPLICATION_PROTOCOL_DEFINITION('international standard','config_control_design',1994,#1) ;
#32=APPROVAL_DATE_TIME(#13,#21) ;
#271=MANIFOLD_SOLID_BREP('Corps principal.1',#51) ;
#488=MANIFOLD_SOLID_BREP('Corps principal.2',#274) ;
#11=CALENDAR_DATE(2016,28,8) ;
#30=CC_DESIGN_APPROVAL(#21,(#16,#6,#14)) ;
#18=CC_DESIGN_DATE_AND_TIME_ASSIGNMENT(#13,#17,(#16)) ;
#29=CC_DESIGN_DATE_AND_TIME_ASSIGNMENT(#13,#28,(#14)) ;
#17=DATE_TIME_ROLE('classification_date') ;
#28=DATE_TIME_ROLE('creation_date') ;
#27=CC_DESIGN_PERSON_AND_ORGANIZATION_ASSIGNMENT(#25,#26,(#16)) ;
#33=CC_DESIGN_PERSON_AND_ORGANIZATION_ASSIGNMENT(#25,#34,(#6)) ;
#35=CC_DESIGN_PERSON_AND_ORGANIZATION_ASSIGNMENT(#25,#36,(#6,#14)) ;
#37=CC_DESIGN_PERSON_AND_ORGANIZATION_ASSIGNMENT(#25,#38,(#5)) ;
#26=PERSON_AND_ORGANIZATION_ROLE('classification_officer') ;
#34=PERSON_AND_ORGANIZATION_ROLE('design_supplier') ;
#36=PERSON_AND_ORGANIZATION_ROLE('creator') ;
#38=PERSON_AND_ORGANIZATION_ROLE('design_owner') ;
#39=CC_DESIGN_SECURITY_CLASSIFICATION(#16,(#6)) ;
#69=CIRCLE('generated circle',#68,2.95) ;
#83=CIRCLE('generated circle',#82,2.95) ;
#95=CIRCLE('generated circle',#94,2.95) ;
#100=CIRCLE('generated circle',#99,2.95) ;
#131=CIRCLE('generated circle',#130,1.5) ;
#140=CIRCLE('generated circle',#139,1.5) ;
#169=CIRCLE('generated circle',#168,1.5) ;
#181=CIRCLE('generated circle',#180,1.5) ;
#202=CIRCLE('generated circle',#201,0.8) ;
#211=CIRCLE('generated circle',#210,0.8) ;
#240=CIRCLE('generated circle',#239,0.8) ;
#252=CIRCLE('generated circle',#251,0.8) ;
#292=CIRCLE('generated circle',#291,3.) ;
#306=CIRCLE('generated circle',#305,3.) ;
#318=CIRCLE('generated circle',#317,3.) ;
#323=CIRCLE('generated circle',#322,3.) ;
#344=CIRCLE('generated circle',#343,1.5) ;
#353=CIRCLE('generated circle',#352,1.5) ;
#368=CIRCLE('generated circle',#367,1.5) ;
#394=CIRCLE('generated circle',#393,1.5) ;
#415=CIRCLE('generated circle',#414,1.585) ;
#424=CIRCLE('generated circle',#423,1.585) ;
#453=CIRCLE('generated circle',#452,1.585) ;
#465=CIRCLE('generated circle',#464,1.585) ;
#273=SHAPE_REPRESENTATION_RELATIONSHIP(' ',' ',#49,#272) ;
#56=CYLINDRICAL_SURFACE('generated cylinder',#55,2.95) ;
#151=CYLINDRICAL_SURFACE('generated cylinder',#150,1.5) ;
#222=CYLINDRICAL_SURFACE('generated cylinder',#221,0.8) ;
#279=CYLINDRICAL_SURFACE('generated cylinder',#278,3.) ;
#364=CYLINDRICAL_SURFACE('generated cylinder',#363,1.5) ;
#435=CYLINDRICAL_SURFACE('generated cylinder',#434,1.585) ;
#3=DESIGN_CONTEXT(' ',#1,'design') ;
#65=EDGE_CURVE('',#62,#64,#60,.T.) ;
#72=EDGE_CURVE('',#62,#71,#69,.T.) ;
#79=EDGE_CURVE('',#71,#78,#76,.T.) ;
#84=EDGE_CURVE('',#64,#78,#83,.T.) ;
#96=EDGE_CURVE('',#71,#62,#95,.T.) ;
#101=EDGE_CURVE('',#78,#64,#100,.T.) ;
#136=EDGE_CURVE('',#133,#135,#131,.F.) ;
#141=EDGE_CURVE('',#135,#133,#140,.F.) ;
#158=EDGE_CURVE('',#135,#157,#155,.F.) ;
#165=EDGE_CURVE('',#133,#164,#162,.F.) ;
#170=EDGE_CURVE('',#157,#164,#169,.T.) ;
#182=EDGE_CURVE('',#164,#157,#181,.T.) ;
#207=EDGE_CURVE('',#204,#206,#202,.T.) ;
#212=EDGE_CURVE('',#206,#204,#211,.T.) ;
#229=EDGE_CURVE('',#204,#228,#226,.F.) ;
#236=EDGE_CURVE('',#206,#235,#233,.F.) ;
#241=EDGE_CURVE('',#228,#235,#240,.T.) ;
#253=EDGE_CURVE('',#235,#228,#252,.T.) ;
#288=EDGE_CURVE('',#285,#287,#283,.T.) ;
#295=EDGE_CURVE('',#285,#294,#292,.T.) ;
#302=EDGE_CURVE('',#294,#301,#299,.T.) ;
#307=EDGE_CURVE('',#287,#301,#306,.T.) ;
#319=EDGE_CURVE('',#294,#285,#318,.T.) ;
#324=EDGE_CURVE('',#301,#287,#323,.T.) ;
#349=EDGE_CURVE('',#346,#348,#344,.T.) ;
#354=EDGE_CURVE('',#348,#346,#353,.T.) ;
#373=EDGE_CURVE('',#370,#372,#368,.F.) ;
#378=EDGE_CURVE('',#348,#372,#377,.F.) ;
#383=EDGE_CURVE('',#346,#370,#382,.F.) ;
#395=EDGE_CURVE('',#372,#370,#394,.F.) ;
#420=EDGE_CURVE('',#417,#419,#415,.F.) ;
#425=EDGE_CURVE('',#419,#417,#424,.F.) ;
#442=EDGE_CURVE('',#419,#441,#439,.F.) ;
#449=EDGE_CURVE('',#417,#448,#446,.F.) ;
#454=EDGE_CURVE('',#441,#448,#453,.T.) ;
#466=EDGE_CURVE('',#448,#441,#465,.T.) ;
#85=EDGE_LOOP('',(#86,#87,#88,#89)) ;
#102=EDGE_LOOP('',(#103,#104,#105,#106)) ;
#114=EDGE_LOOP('',(#115,#116)) ;
#124=EDGE_LOOP('',(#125,#126)) ;
#142=EDGE_LOOP('',(#143,#144)) ;
#171=EDGE_LOOP('',(#172,#173,#174,#175)) ;
#183=EDGE_LOOP('',(#184,#185,#186,#187)) ;
#195=EDGE_LOOP('',(#196,#197)) ;
#213=EDGE_LOOP('',(#214,#215)) ;
#242=EDGE_LOOP('',(#243,#244,#245,#246)) ;
#254=EDGE_LOOP('',(#255,#256,#257,#258)) ;
#266=EDGE_LOOP('',(#267,#268)) ;
#308=EDGE_LOOP('',(#309,#310,#311,#312)) ;
#325=EDGE_LOOP('',(#326,#327,#328,#329)) ;
#337=EDGE_LOOP('',(#338,#339)) ;
#355=EDGE_LOOP('',(#356,#357)) ;
#384=EDGE_LOOP('',(#385,#386,#387,#388)) ;
#396=EDGE_LOOP('',(#397,#398,#399,#400)) ;
#408=EDGE_LOOP('',(#409,#410)) ;
#426=EDGE_LOOP('',(#427,#428)) ;
#455=EDGE_LOOP('',(#456,#457,#458,#459)) ;
#467=EDGE_LOOP('',(#468,#469,#470,#471)) ;
#479=EDGE_LOOP('',(#480,#481)) ;
#483=EDGE_LOOP('',(#484,#485)) ;
#90=FACE_OUTER_BOUND('',#85,.T.) ;
#107=FACE_OUTER_BOUND('',#102,.T.) ;
#117=FACE_OUTER_BOUND('',#114,.T.) ;
#127=FACE_OUTER_BOUND('',#124,.T.) ;
#176=FACE_OUTER_BOUND('',#171,.T.) ;
#188=FACE_OUTER_BOUND('',#183,.T.) ;
#198=FACE_OUTER_BOUND('',#195,.T.) ;
#247=FACE_OUTER_BOUND('',#242,.T.) ;
#259=FACE_OUTER_BOUND('',#254,.T.) ;
#269=FACE_OUTER_BOUND('',#266,.T.) ;
#313=FACE_OUTER_BOUND('',#308,.T.) ;
#330=FACE_OUTER_BOUND('',#325,.T.) ;
#340=FACE_OUTER_BOUND('',#337,.T.) ;
#389=FACE_OUTER_BOUND('',#384,.T.) ;
#401=FACE_OUTER_BOUND('',#396,.T.) ;
#411=FACE_OUTER_BOUND('',#408,.T.) ;
#460=FACE_OUTER_BOUND('',#455,.T.) ;
#472=FACE_OUTER_BOUND('',#467,.T.) ;
#482=FACE_OUTER_BOUND('',#479,.T.) ;
#45=UNCERTAINTY_MEASURE_WITH_UNIT(LENGTH_MEASURE(0.005),#41,'distance_accuracy_value','CONFUSED CURVE UNCERTAINTY') ;
#60=LINE('Line',#57,#59) ;
#76=LINE('Line',#73,#75) ;
#155=LINE('Line',#152,#154) ;
#162=LINE('Line',#159,#161) ;
#226=LINE('Line',#223,#225) ;
#233=LINE('Line',#230,#232) ;
#283=LINE('Line',#280,#282) ;
#299=LINE('Line',#296,#298) ;
#377=LINE('Line',#374,#376) ;
#382=LINE('Line',#379,#381) ;
#439=LINE('Line',#436,#438) ;
#446=LINE('Line',#443,#445) ;
#2=MECHANICAL_CONTEXT(' ',#1,'mechanical') ;
#24=PERSONAL_ADDRESS(' ',' ',' ',' ',' ',' ',' ',' ',' ',' ',' ',' ',(#22),' ') ;
#113=PLANE('Plane',#112) ;
#123=PLANE('Plane',#122) ;
#194=PLANE('Plane',#193) ;
#265=PLANE('Plane',#264) ;
#336=PLANE('Plane',#335) ;
#407=PLANE('Plane',#406) ;
#478=PLANE('Plane',#477) ;
#43=PLANE_ANGLE_MEASURE_WITH_UNIT(PLANE_ANGLE_MEASURE(0.0174532925199),#42) ;
#7=PRODUCT_CATEGORY('part',$) ;
#9=PRODUCT_CATEGORY_RELATIONSHIP(' ',' ',#7,#8) ;
#6=PRODUCT_DEFINITION_FORMATION_WITH_SPECIFIED_SOURCE('',' ',#5,.NOT_KNOWN.) ;
#8=PRODUCT_RELATED_PRODUCT_CATEGORY('detail',$,(#5)) ;
#50=SHAPE_DEFINITION_REPRESENTATION(#40,#49) ;
#62=VERTEX_POINT('',#61) ;
#64=VERTEX_POINT('',#63) ;
#71=VERTEX_POINT('',#70) ;
#78=VERTEX_POINT('',#77) ;
#133=VERTEX_POINT('',#132) ;
#135=VERTEX_POINT('',#134) ;
#157=VERTEX_POINT('',#156) ;
#164=VERTEX_POINT('',#163) ;
#204=VERTEX_POINT('',#203) ;
#206=VERTEX_POINT('',#205) ;
#228=VERTEX_POINT('',#227) ;
#235=VERTEX_POINT('',#234) ;
#285=VERTEX_POINT('',#284) ;
#287=VERTEX_POINT('',#286) ;
#294=VERTEX_POINT('',#293) ;
#301=VERTEX_POINT('',#300) ;
#346=VERTEX_POINT('',#345) ;
#348=VERTEX_POINT('',#347) ;
#370=VERTEX_POINT('',#369) ;
#372=VERTEX_POINT('',#371) ;
#417=VERTEX_POINT('',#416) ;
#419=VERTEX_POINT('',#418) ;
#441=VERTEX_POINT('',#440) ;
#448=VERTEX_POINT('',#447) ;
#41=(LENGTH_UNIT()NAMED_UNIT(*)SI_UNIT(.MILLI.,.METRE.)) ;
#42=(NAMED_UNIT(*)PLANE_ANGLE_UNIT()SI_UNIT($,.RADIAN.)) ;
#44=(NAMED_UNIT(*)SI_UNIT($,.STERADIAN.)SOLID_ANGLE_UNIT()) ;
#46=(GEOMETRIC_REPRESENTATION_CONTEXT(3)GLOBAL_UNCERTAINTY_ASSIGNED_CONTEXT((#45))GLOBAL_UNIT_ASSIGNED_CONTEXT((#41,#42,#44))REPRESENTATION_CONTEXT(' ',' ')) ;
ENDSEC;
END-ISO-10303-21;
