ISO-10303-21;
HEADER;
FILE_DESCRIPTION (( 'STEP AP214' ),
    '1' );
FILE_NAME ('Rallonges.STEP',
    '2016-08-23T09:24:14',
    ( '' ),
    ( '' ),
    'SwSTEP 2.0',
    'SolidWorks 2016',
    '' );
FILE_SCHEMA (( 'AUTOMOTIVE_DESIGN' ));
ENDSEC;

DATA;
#1 = ORIENTED_EDGE ( 'NONE', *, *, #87, .T. ) ;
#2 = LINE ( 'NONE', #66, #235 ) ;
#3 = ORIENTED_EDGE ( 'NONE', *, *, #207, .T. ) ;
#4 = ADVANCED_FACE ( 'NONE', ( #335 ), #236, .F. ) ;
#5 = CARTESIAN_POINT ( 'NONE',  ( 0.0000000000000000000, 0.0000000000000000000, 14.00000000000000000 ) ) ;
#6 = DIRECTION ( 'NONE',  ( 1.000000000000000000, 0.0000000000000000000, 0.0000000000000000000 ) ) ;
#7 = CARTESIAN_POINT ( 'NONE',  ( 65.00000000000000000, 42.00000000000000000, 14.00000000000000000 ) ) ;
#8 = LINE ( 'NONE', #177, #23 ) ;
#9 = CARTESIAN_POINT ( 'NONE',  ( 65.00000000000000000, 42.00000000000000000, 14.00000000000000000 ) ) ;
#10 = VERTEX_POINT ( 'NONE', #130 ) ;
#11 = EDGE_LOOP ( 'NONE', ( #277, #348, #77, #55 ) ) ;
#12 = AXIS2_PLACEMENT_3D ( 'NONE', #5, #38, #274 ) ;
#13 = FILL_AREA_STYLE ('',( #336 ) ) ;
#14 = DIRECTION ( 'NONE',  ( 0.0000000000000000000, 0.0000000000000000000, 1.000000000000000000 ) ) ;
#15 = PRESENTATION_STYLE_ASSIGNMENT (( #201 ) ) ;
#16 = VECTOR ( 'NONE', #250, 1000.000000000000000 ) ;
#17 = ORIENTED_EDGE ( 'NONE', *, *, #124, .F. ) ;
#18 = CARTESIAN_POINT ( 'NONE',  ( 65.00000000000000000, 0.0000000000000000000, 0.0000000000000000000 ) ) ;
#19 = DIRECTION ( 'NONE',  ( 0.0000000000000000000, 0.0000000000000000000, 1.000000000000000000 ) ) ;
#20 =( GEOMETRIC_REPRESENTATION_CONTEXT ( 3 ) GLOBAL_UNCERTAINTY_ASSIGNED_CONTEXT ( ( #131 ) ) GLOBAL_UNIT_ASSIGNED_CONTEXT ( ( #333, #311, #148 ) ) REPRESENTATION_CONTEXT ( 'NONE', 'WORKASPACE' ) );
#21 = DIRECTION ( 'NONE',  ( -1.000000000000000000, 0.0000000000000000000, -0.0000000000000000000 ) ) ;
#22 = FILL_AREA_STYLE_COLOUR ( '', #241 ) ;
#23 = VECTOR ( 'NONE', #258, 1000.000000000000000 ) ;
#24 =( GEOMETRIC_REPRESENTATION_CONTEXT ( 3 ) GLOBAL_UNCERTAINTY_ASSIGNED_CONTEXT ( ( #309 ) ) GLOBAL_UNIT_ASSIGNED_CONTEXT ( ( #230, #172, #225 ) ) REPRESENTATION_CONTEXT ( 'NONE', 'WORKASPACE' ) );
#25 = VECTOR ( 'NONE', #275, 1000.000000000000000 ) ;
#26 = EDGE_LOOP ( 'NONE', ( #121, #114, #179, #81 ) ) ;
#27 = VECTOR ( 'NONE', #65, 1000.000000000000000 ) ;
#28 = AXIS2_PLACEMENT_3D ( 'NONE', #109, #301, #213 ) ;
#29 = CIRCLE ( 'NONE', #118, 3.500000000000000400 ) ;
#30 = EDGE_LOOP ( 'NONE', ( #211, #204 ) ) ;
#31 = ORIENTED_EDGE ( 'NONE', *, *, #68, .T. ) ;
#32 = DIRECTION ( 'NONE',  ( 0.0000000000000000000, 0.0000000000000000000, 1.000000000000000000 ) ) ;
#33 = VECTOR ( 'NONE', #337, 1000.000000000000000 ) ;
#34 = ADVANCED_FACE ( 'NONE', ( #330 ), #36, .F. ) ;
#35 = DIRECTION ( 'NONE',  ( 0.0000000000000000000, 0.0000000000000000000, -1.000000000000000000 ) ) ;
#36 = CYLINDRICAL_SURFACE ( 'NONE', #350, 3.500000000000000400 ) ;
#37 = ORIENTED_EDGE ( 'NONE', *, *, #316, .T. ) ;
#38 = DIRECTION ( 'NONE',  ( 0.0000000000000000000, 0.0000000000000000000, -1.000000000000000000 ) ) ;
#39 = AXIS2_PLACEMENT_3D ( 'NONE', #292, #19, #146 ) ;
#40 = EDGE_CURVE ( 'NONE', #97, #74, #242, .T. ) ;
#41 = SURFACE_SIDE_STYLE ('',( #209 ) ) ;
#42 = CIRCLE ( 'NONE', #263, 3.499999999999999600 ) ;
#43 = PLANE ( 'NONE',  #184 ) ;
#44 = EDGE_LOOP ( 'NONE', ( #186, #195 ) ) ;
#45 = ORIENTED_EDGE ( 'NONE', *, *, #176, .F. ) ;
#46 = DIRECTION ( 'NONE',  ( -0.0000000000000000000, -1.000000000000000000, -0.0000000000000000000 ) ) ;
#47 = SURFACE_STYLE_FILL_AREA ( #283 ) ;
#48 = LINE ( 'NONE', #202, #315 ) ;
#49 = AXIS2_PLACEMENT_3D ( 'NONE', #140, #327, #332 ) ;
#50 = VERTEX_POINT ( 'NONE', #210 ) ;
#51 = ORIENTED_EDGE ( 'NONE', *, *, #176, .T. ) ;
#52 = EDGE_CURVE ( 'NONE', #60, #92, #199, .T. ) ;
#53 = UNCERTAINTY_MEASURE_WITH_UNIT (LENGTH_MEASURE( 1.000000000000000100E-005 ), #64, 'distance_accuracy_value', 'NONE');
#54 = FACE_OUTER_BOUND ( 'NONE', #11, .T. ) ;
#55 = ORIENTED_EDGE ( 'NONE', *, *, #297, .T. ) ;
#56 = LINE ( 'NONE', #164, #188 ) ;
#57 = EDGE_CURVE ( 'NONE', #50, #228, #105, .T. ) ;
#58 = PLANE ( 'NONE',  #342 ) ;
#59 = LINE ( 'NONE', #310, #293 ) ;
#60 = VERTEX_POINT ( 'NONE', #215 ) ;
#61 = DIRECTION ( 'NONE',  ( -0.0000000000000000000, -0.0000000000000000000, -1.000000000000000000 ) ) ;
#62 = APPLICATION_PROTOCOL_DEFINITION ( 'draft international standard', 'automotive_design', 1998, #101 ) ;
#63 = EDGE_LOOP ( 'NONE', ( #308, #107, #31, #239 ) ) ;
#64 =( LENGTH_UNIT ( ) NAMED_UNIT ( * ) SI_UNIT ( .MILLI., .METRE. ) );
#65 = DIRECTION ( 'NONE',  ( -0.0000000000000000000, -0.0000000000000000000, -1.000000000000000000 ) ) ;
#66 = CARTESIAN_POINT ( 'NONE',  ( 0.0000000000000000000, 42.00000000000000000, 14.00000000000000000 ) ) ;
#67 = EDGE_CURVE ( 'NONE', #92, #50, #221, .T. ) ;
#68 = EDGE_CURVE ( 'NONE', #340, #294, #302, .T. ) ;
#69 = CARTESIAN_POINT ( 'NONE',  ( 65.00000000000000000, 0.0000000000000000000, 14.00000000000000000 ) ) ;
#70 = ORIENTED_EDGE ( 'NONE', *, *, #232, .T. ) ;
#71 = CARTESIAN_POINT ( 'NONE',  ( 0.0000000000000000000, 0.0000000000000000000, 14.00000000000000000 ) ) ;
#72 = DIRECTION ( 'NONE',  ( 0.0000000000000000000, 0.0000000000000000000, 1.000000000000000000 ) ) ;
#73 = AXIS2_PLACEMENT_3D ( 'NONE', #229, #254, #123 ) ;
#74 = VERTEX_POINT ( 'NONE', #165 ) ;
#75 = EDGE_CURVE ( 'NONE', #228, #163, #56, .T. ) ;
#76 = SHAPE_DEFINITION_REPRESENTATION ( #268, #83 ) ;
#77 = ORIENTED_EDGE ( 'NONE', *, *, #162, .T. ) ;
#78 = CARTESIAN_POINT ( 'NONE',  ( 65.00000000000000000, 0.0000000000000000000, 14.00000000000000000 ) ) ;
#79 = FACE_BOUND ( 'NONE', #30, .T. ) ;
#80 = ORIENTED_EDGE ( 'NONE', *, *, #243, .F. ) ;
#81 = ORIENTED_EDGE ( 'NONE', *, *, #231, .T. ) ;
#82 = ADVANCED_FACE ( 'NONE', ( #320 ), #331, .F. ) ;
#83 = ADVANCED_BREP_SHAPE_REPRESENTATION ( 'Rallonges', ( #296, #39 ), #20 ) ;
#84 = ADVANCED_FACE ( 'NONE', ( #271 ), #139, .F. ) ;
#85 = ADVANCED_FACE ( 'NONE', ( #127, #96, #120 ), #58, .F. ) ;
#86 = VERTEX_POINT ( 'NONE', #218 ) ;
#87 = EDGE_CURVE ( 'NONE', #189, #294, #150, .T. ) ;
#88 = CARTESIAN_POINT ( 'NONE',  ( 56.25000000000000000, 0.0000000000000000000, 3.499999999999994200 ) ) ;
#89 = CARTESIAN_POINT ( 'NONE',  ( 0.0000000000000000000, 0.0000000000000000000, 14.00000000000000000 ) ) ;
#90 = CARTESIAN_POINT ( 'NONE',  ( 8.750000000000000000, 0.0000000000000000000, 10.50000000000000000 ) ) ;
#91 = ORIENTED_EDGE ( 'NONE', *, *, #137, .F. ) ;
#92 = VERTEX_POINT ( 'NONE', #9 ) ;
#93 = PRODUCT_DEFINITION ( 'UNKNOWN', '', #161, #208 ) ;
#94 = CARTESIAN_POINT ( 'NONE',  ( 8.750000000000000000, 42.00000000000000000, 10.50000000000000000 ) ) ;
#95 = CARTESIAN_POINT ( 'NONE',  ( 0.0000000000000000000, 42.00000000000000000, 14.00000000000000000 ) ) ;
#96 = FACE_BOUND ( 'NONE', #44, .T. ) ;
#97 = VERTEX_POINT ( 'NONE', #305 ) ;
#98 = CARTESIAN_POINT ( 'NONE',  ( 0.0000000000000000000, 42.00000000000000000, 0.0000000000000000000 ) ) ;
#99 = APPLICATION_CONTEXT ( 'automotive_design' ) ;
#100 = DIRECTION ( 'NONE',  ( -0.0000000000000000000, -0.0000000000000000000, -1.000000000000000000 ) ) ;
#101 = APPLICATION_CONTEXT ( 'automotive_design' ) ;
#102 = CARTESIAN_POINT ( 'NONE',  ( 8.750000000000000000, 42.00000000000000000, 3.500000000000000000 ) ) ;
#103 = EDGE_CURVE ( 'NONE', #60, #212, #347, .T. ) ;
#104 = DIRECTION ( 'NONE',  ( 0.0000000000000000000, 1.000000000000000000, 0.0000000000000000000 ) ) ;
#105 = LINE ( 'NONE', #278, #25 ) ;
#106 = LINE ( 'NONE', #18, #33 ) ;
#107 = ORIENTED_EDGE ( 'NONE', *, *, #325, .T. ) ;
#108 = EDGE_CURVE ( 'NONE', #74, #10, #173, .T. ) ;
#109 = CARTESIAN_POINT ( 'NONE',  ( 8.750000000000000000, 0.0000000000000000000, 7.000000000000000000 ) ) ;
#110 = ORIENTED_EDGE ( 'NONE', *, *, #52, .F. ) ;
#111 = ORIENTED_EDGE ( 'NONE', *, *, #137, .T. ) ;
#112 = CARTESIAN_POINT ( 'NONE',  ( 0.0000000000000000000, 0.0000000000000000000, 14.00000000000000000 ) ) ;
#113 = DIRECTION ( 'NONE',  ( -0.0000000000000000000, 1.000000000000000000, -0.0000000000000000000 ) ) ;
#114 = ORIENTED_EDGE ( 'NONE', *, *, #273, .F. ) ;
#115 = DIRECTION ( 'NONE',  ( 0.0000000000000000000, 1.000000000000000000, 0.0000000000000000000 ) ) ;
#116 = DIRECTION ( 'NONE',  ( 0.0000000000000000000, 1.000000000000000000, 0.0000000000000000000 ) ) ;
#117 = DIRECTION ( 'NONE',  ( 0.0000000000000000000, 0.0000000000000000000, 1.000000000000000000 ) ) ;
#118 = AXIS2_PLACEMENT_3D ( 'NONE', #253, #115, #197 ) ;
#119 = CARTESIAN_POINT ( 'NONE',  ( 0.0000000000000000000, 0.0000000000000000000, 0.0000000000000000000 ) ) ;
#120 = FACE_OUTER_BOUND ( 'NONE', #132, .T. ) ;
#121 = ORIENTED_EDGE ( 'NONE', *, *, #75, .T. ) ;
#122 = DIRECTION ( 'NONE',  ( 0.0000000000000000000, 1.000000000000000000, 0.0000000000000000000 ) ) ;
#123 = DIRECTION ( 'NONE',  ( 0.0000000000000000000, 0.0000000000000000000, 1.000000000000000000 ) ) ;
#124 = EDGE_CURVE ( 'NONE', #206, #60, #300, .T. ) ;
#125 = ORIENTED_EDGE ( 'NONE', *, *, #124, .T. ) ;
#126 = CARTESIAN_POINT ( 'NONE',  ( 56.25000000000000000, 42.00000000000000000, 6.999999999999993800 ) ) ;
#127 = FACE_BOUND ( 'NONE', #323, .T. ) ;
#128 = EDGE_CURVE ( 'NONE', #189, #86, #29, .T. ) ;
#129 = ORIENTED_EDGE ( 'NONE', *, *, #67, .T. ) ;
#130 = CARTESIAN_POINT ( 'NONE',  ( 56.25000000000000000, 42.00000000000000000, 3.499999999999994200 ) ) ;
#131 = UNCERTAINTY_MEASURE_WITH_UNIT (LENGTH_MEASURE( 1.000000000000000100E-005 ), #333, 'distance_accuracy_value', 'NONE');
#132 = EDGE_LOOP ( 'NONE', ( #133, #182, #17, #321 ) ) ;
#133 = ORIENTED_EDGE ( 'NONE', *, *, #243, .T. ) ;
#134 = ADVANCED_FACE ( 'NONE', ( #54 ), #329, .F. ) ;
#135 = CARTESIAN_POINT ( 'NONE',  ( 56.25000000000000000, 0.0000000000000000000, 6.999999999999993800 ) ) ;
#136 = LINE ( 'NONE', #149, #27 ) ;
#137 = EDGE_CURVE ( 'NONE', #212, #50, #106, .T. ) ;
#138 = DIRECTION ( 'NONE',  ( 0.0000000000000000000, 0.0000000000000000000, 1.000000000000000000 ) ) ;
#139 = PLANE ( 'NONE',  #12 ) ;
#140 = CARTESIAN_POINT ( 'NONE',  ( 8.750000000000000000, 42.00000000000000000, 7.000000000000000000 ) ) ;
#141 = DIRECTION ( 'NONE',  ( 0.0000000000000000000, 1.000000000000000000, 0.0000000000000000000 ) ) ;
#142 = CIRCLE ( 'NONE', #190, 3.499999999999999600 ) ;
#143 = STYLED_ITEM ( 'NONE', ( #15 ), #83 ) ;
#144 = EDGE_LOOP ( 'NONE', ( #45, #272, #37, #270 ) ) ;
#145 = CARTESIAN_POINT ( 'NONE',  ( 56.25000000000000000, 0.0000000000000000000, 6.999999999999993800 ) ) ;
#146 = DIRECTION ( 'NONE',  ( 1.000000000000000000, 0.0000000000000000000, 0.0000000000000000000 ) ) ;
#147 = CARTESIAN_POINT ( 'NONE',  ( 8.750000000000000000, 42.00000000000000000, 7.000000000000000000 ) ) ;
#148 =( NAMED_UNIT ( * ) SI_UNIT ( $, .STERADIAN. ) SOLID_ANGLE_UNIT ( ) );
#149 = CARTESIAN_POINT ( 'NONE',  ( 0.0000000000000000000, 42.00000000000000000, 14.00000000000000000 ) ) ;
#150 = LINE ( 'NONE', #90, #246 ) ;
#151 = EDGE_LOOP ( 'NONE', ( #256, #154, #324, #129 ) ) ;
#152 = DIRECTION ( 'NONE',  ( -0.0000000000000000000, 1.000000000000000000, -0.0000000000000000000 ) ) ;
#153 = FACE_BOUND ( 'NONE', #247, .T. ) ;
#154 = ORIENTED_EDGE ( 'NONE', *, *, #231, .F. ) ;
#155 = AXIS2_PLACEMENT_3D ( 'NONE', #147, #175, #14 ) ;
#156 = LINE ( 'NONE', #71, #298 ) ;
#157 = FACE_OUTER_BOUND ( 'NONE', #144, .T. ) ;
#158 = ORIENTED_EDGE ( 'NONE', *, *, #40, .T. ) ;
#159 = CARTESIAN_POINT ( 'NONE',  ( 8.750000000000000000, 0.0000000000000000000, 7.000000000000000000 ) ) ;
#160 = ORIENTED_EDGE ( 'NONE', *, *, #325, .F. ) ;
#161 = PRODUCT_DEFINITION_FORMATION_WITH_SPECIFIED_SOURCE ( 'ANY', '', #328, .NOT_KNOWN. ) ;
#162 = EDGE_CURVE ( 'NONE', #97, #264, #8, .T. ) ;
#163 = VERTEX_POINT ( 'NONE', #119 ) ;
#164 = CARTESIAN_POINT ( 'NONE',  ( 0.0000000000000000000, 0.0000000000000000000, 0.0000000000000000000 ) ) ;
#165 = CARTESIAN_POINT ( 'NONE',  ( 56.25000000000000000, 0.0000000000000000000, 3.499999999999994200 ) ) ;
#166 = DIRECTION ( 'NONE',  ( -0.0000000000000000000, 1.000000000000000000, -0.0000000000000000000 ) ) ;
#167 = VECTOR ( 'NONE', #141, 1000.000000000000000 ) ;
#168 = APPLICATION_PROTOCOL_DEFINITION ( 'draft international standard', 'automotive_design', 1998, #99 ) ;
#169 = CARTESIAN_POINT ( 'NONE',  ( 0.0000000000000000000, 0.0000000000000000000, 0.0000000000000000000 ) ) ;
#170 = AXIS2_PLACEMENT_3D ( 'NONE', #251, #306, #198 ) ;
#171 = DIRECTION ( 'NONE',  ( 0.0000000000000000000, 0.0000000000000000000, 1.000000000000000000 ) ) ;
#172 =( NAMED_UNIT ( * ) PLANE_ANGLE_UNIT ( ) SI_UNIT ( $, .RADIAN. ) );
#173 = LINE ( 'NONE', #88, #319 ) ;
#174 = ORIENTED_EDGE ( 'NONE', *, *, #297, .F. ) ;
#175 = DIRECTION ( 'NONE',  ( 0.0000000000000000000, 1.000000000000000000, 0.0000000000000000000 ) ) ;
#176 = EDGE_CURVE ( 'NONE', #74, #97, #142, .T. ) ;
#177 = CARTESIAN_POINT ( 'NONE',  ( 56.25000000000000000, 0.0000000000000000000, 10.49999999999999300 ) ) ;
#178 = CARTESIAN_POINT ( 'NONE',  ( 56.25000000000000000, 42.00000000000000000, 6.999999999999993800 ) ) ;
#179 = ORIENTED_EDGE ( 'NONE', *, *, #232, .F. ) ;
#180 = ORIENTED_EDGE ( 'NONE', *, *, #128, .F. ) ;
#181 = MECHANICAL_DESIGN_GEOMETRIC_PRESENTATION_REPRESENTATION (  '', ( #143 ), #24 ) ;
#182 = ORIENTED_EDGE ( 'NONE', *, *, #103, .F. ) ;
#183 = AXIS2_PLACEMENT_3D ( 'NONE', #169, #339, #21 ) ;
#184 = AXIS2_PLACEMENT_3D ( 'NONE', #95, #285, #259 ) ;
#185 = AXIS2_PLACEMENT_3D ( 'NONE', #126, #291, #72 ) ;
#186 = ORIENTED_EDGE ( 'NONE', *, *, #128, .T. ) ;
#187 = STYLED_ITEM ( 'NONE', ( #276 ), #296 ) ;
#188 = VECTOR ( 'NONE', #326, 1000.000000000000000 ) ;
#189 = VERTEX_POINT ( 'NONE', #224 ) ;
#190 = AXIS2_PLACEMENT_3D ( 'NONE', #145, #122, #286 ) ;
#191 = ADVANCED_FACE ( 'NONE', ( #238 ), #196, .F. ) ;
#192 = CARTESIAN_POINT ( 'NONE',  ( 0.0000000000000000000, 0.0000000000000000000, 14.00000000000000000 ) ) ;
#193 = EDGE_CURVE ( 'NONE', #294, #340, #214, .T. ) ;
#194 = CARTESIAN_POINT ( 'NONE',  ( 65.00000000000000000, 0.0000000000000000000, 14.00000000000000000 ) ) ;
#195 = ORIENTED_EDGE ( 'NONE', *, *, #341, .T. ) ;
#196 = PLANE ( 'NONE',  #284 ) ;
#197 = DIRECTION ( 'NONE',  ( 0.0000000000000000000, 0.0000000000000000000, 1.000000000000000000 ) ) ;
#198 = DIRECTION ( 'NONE',  ( 0.0000000000000000000, 0.0000000000000000000, 1.000000000000000000 ) ) ;
#199 = LINE ( 'NONE', #78, #167 ) ;
#200 = EDGE_LOOP ( 'NONE', ( #160, #180, #1, #222 ) ) ;
#201 = SURFACE_STYLE_USAGE ( .BOTH. , #287 ) ;
#202 = CARTESIAN_POINT ( 'NONE',  ( 0.0000000000000000000, 0.0000000000000000000, 14.00000000000000000 ) ) ;
#203 = PRESENTATION_LAYER_ASSIGNMENT (  '', '', ( #187 ) ) ;
#204 = ORIENTED_EDGE ( 'NONE', *, *, #68, .F. ) ;
#205 = ORIENTED_EDGE ( 'NONE', *, *, #57, .F. ) ;
#206 = VERTEX_POINT ( 'NONE', #334 ) ;
#207 = EDGE_CURVE ( 'NONE', #92, #303, #2, .T. ) ;
#208 = PRODUCT_DEFINITION_CONTEXT ( 'detailed design', #99, 'design' ) ;
#209 = SURFACE_STYLE_FILL_AREA ( #13 ) ;
#210 = CARTESIAN_POINT ( 'NONE',  ( 65.00000000000000000, 42.00000000000000000, 0.0000000000000000000 ) ) ;
#211 = ORIENTED_EDGE ( 'NONE', *, *, #193, .F. ) ;
#212 = VERTEX_POINT ( 'NONE', #312 ) ;
#213 = DIRECTION ( 'NONE',  ( 0.0000000000000000000, 0.0000000000000000000, 1.000000000000000000 ) ) ;
#214 = CIRCLE ( 'NONE', #155, 3.500000000000000400 ) ;
#215 = CARTESIAN_POINT ( 'NONE',  ( 65.00000000000000000, 0.0000000000000000000, 14.00000000000000000 ) ) ;
#216 = ADVANCED_FACE ( 'NONE', ( #153, #79, #322 ), #43, .F. ) ;
#217 = DIRECTION ( 'NONE',  ( 0.0000000000000000000, -0.0000000000000000000, 1.000000000000000000 ) ) ;
#218 = CARTESIAN_POINT ( 'NONE',  ( 8.750000000000000000, 0.0000000000000000000, 3.500000000000000000 ) ) ;
#219 = PRODUCT_RELATED_PRODUCT_CATEGORY ( 'part', '', ( #328 ) ) ;
#220 = VECTOR ( 'NONE', #6, 1000.000000000000000 ) ;
#221 = LINE ( 'NONE', #7, #266 ) ;
#222 = ORIENTED_EDGE ( 'NONE', *, *, #193, .T. ) ;
#223 = SURFACE_STYLE_USAGE ( .BOTH. , #41 ) ;
#224 = CARTESIAN_POINT ( 'NONE',  ( 8.750000000000000000, 0.0000000000000000000, 10.50000000000000000 ) ) ;
#225 =( NAMED_UNIT ( * ) SI_UNIT ( $, .STERADIAN. ) SOLID_ANGLE_UNIT ( ) );
#226 = FACE_OUTER_BOUND ( 'NONE', #257, .T. ) ;
#227 = PRODUCT_CONTEXT ( 'NONE', #101, 'mechanical' ) ;
#228 = VERTEX_POINT ( 'NONE', #98 ) ;
#229 = CARTESIAN_POINT ( 'NONE',  ( 56.25000000000000000, 0.0000000000000000000, 6.999999999999993800 ) ) ;
#230 =( LENGTH_UNIT ( ) NAMED_UNIT ( * ) SI_UNIT ( .MILLI., .METRE. ) );
#231 = EDGE_CURVE ( 'NONE', #303, #228, #136, .T. ) ;
#232 = EDGE_CURVE ( 'NONE', #303, #206, #48, .T. ) ;
#233 = CARTESIAN_POINT ( 'NONE',  ( 56.25000000000000000, 42.00000000000000000, 10.49999999999999300 ) ) ;
#234 =( NAMED_UNIT ( * ) SI_UNIT ( $, .STERADIAN. ) SOLID_ANGLE_UNIT ( ) );
#235 = VECTOR ( 'NONE', #317, 1000.000000000000000 ) ;
#236 = CYLINDRICAL_SURFACE ( 'NONE', #28, 3.500000000000000400 ) ;
#237 = EDGE_LOOP ( 'NONE', ( #111, #344, #110, #345 ) ) ;
#238 = FACE_OUTER_BOUND ( 'NONE', #237, .T. ) ;
#239 = ORIENTED_EDGE ( 'NONE', *, *, #87, .F. ) ;
#240 = MECHANICAL_DESIGN_GEOMETRIC_PRESENTATION_REPRESENTATION (  '', ( #187 ), #261 ) ;
#241 = COLOUR_RGB ( '',0.7921568627450980000, 0.8196078431372548800, 0.9333333333333333500 ) ;
#242 = CIRCLE ( 'NONE', #269, 3.499999999999999600 ) ;
#243 = EDGE_CURVE ( 'NONE', #163, #212, #59, .T. ) ;
#244 = ADVANCED_FACE ( 'NONE', ( #157 ), #304, .F. ) ;
#245 = CIRCLE ( 'NONE', #185, 3.499999999999999600 ) ;
#246 = VECTOR ( 'NONE', #166, 1000.000000000000000 ) ;
#247 = EDGE_LOOP ( 'NONE', ( #174, #281 ) ) ;
#248 = ADVANCED_FACE ( 'NONE', ( #226 ), #318, .T. ) ;
#249 = DIRECTION ( 'NONE',  ( 1.000000000000000000, 0.0000000000000000000, 0.0000000000000000000 ) ) ;
#250 = DIRECTION ( 'NONE',  ( -0.0000000000000000000, -0.0000000000000000000, -1.000000000000000000 ) ) ;
#251 = CARTESIAN_POINT ( 'NONE',  ( 56.25000000000000000, 0.0000000000000000000, 6.999999999999993800 ) ) ;
#252 = ORIENTED_EDGE ( 'NONE', *, *, #52, .T. ) ;
#253 = CARTESIAN_POINT ( 'NONE',  ( 8.750000000000000000, 0.0000000000000000000, 7.000000000000000000 ) ) ;
#254 = DIRECTION ( 'NONE',  ( -0.0000000000000000000, 1.000000000000000000, -0.0000000000000000000 ) ) ;
#255 = CARTESIAN_POINT ( 'NONE',  ( 8.750000000000000000, 0.0000000000000000000, 7.000000000000000000 ) ) ;
#256 = ORIENTED_EDGE ( 'NONE', *, *, #57, .T. ) ;
#257 = EDGE_LOOP ( 'NONE', ( #267, #205, #91, #80 ) ) ;
#258 = DIRECTION ( 'NONE',  ( -0.0000000000000000000, 1.000000000000000000, -0.0000000000000000000 ) ) ;
#259 = DIRECTION ( 'NONE',  ( 0.0000000000000000000, -0.0000000000000000000, -1.000000000000000000 ) ) ;
#260 = DIRECTION ( 'NONE',  ( 0.0000000000000000000, 1.000000000000000000, 0.0000000000000000000 ) ) ;
#261 =( GEOMETRIC_REPRESENTATION_CONTEXT ( 3 ) GLOBAL_UNCERTAINTY_ASSIGNED_CONTEXT ( ( #53 ) ) GLOBAL_UNIT_ASSIGNED_CONTEXT ( ( #64, #282, #234 ) ) REPRESENTATION_CONTEXT ( 'NONE', 'WORKASPACE' ) );
#262 = VECTOR ( 'NONE', #152, 1000.000000000000000 ) ;
#263 = AXIS2_PLACEMENT_3D ( 'NONE', #178, #104, #343 ) ;
#264 = VERTEX_POINT ( 'NONE', #233 ) ;
#265 = CARTESIAN_POINT ( 'NONE',  ( 8.750000000000000000, 0.0000000000000000000, 3.500000000000000000 ) ) ;
#266 = VECTOR ( 'NONE', #61, 1000.000000000000000 ) ;
#267 = ORIENTED_EDGE ( 'NONE', *, *, #75, .F. ) ;
#268 = PRODUCT_DEFINITION_SHAPE ( 'NONE', 'NONE',  #93 ) ;
#269 = AXIS2_PLACEMENT_3D ( 'NONE', #135, #116, #138 ) ;
#270 = ORIENTED_EDGE ( 'NONE', *, *, #162, .F. ) ;
#271 = FACE_OUTER_BOUND ( 'NONE', #289, .T. ) ;
#272 = ORIENTED_EDGE ( 'NONE', *, *, #108, .T. ) ;
#273 = EDGE_CURVE ( 'NONE', #206, #163, #156, .T. ) ;
#274 = DIRECTION ( 'NONE',  ( -1.000000000000000000, 0.0000000000000000000, -0.0000000000000000000 ) ) ;
#275 = DIRECTION ( 'NONE',  ( -1.000000000000000000, -0.0000000000000000000, -0.0000000000000000000 ) ) ;
#276 = PRESENTATION_STYLE_ASSIGNMENT (( #223 ) ) ;
#277 = ORIENTED_EDGE ( 'NONE', *, *, #108, .F. ) ;
#278 = CARTESIAN_POINT ( 'NONE',  ( 0.0000000000000000000, 42.00000000000000000, 0.0000000000000000000 ) ) ;
#279 = DIRECTION ( 'NONE',  ( 0.0000000000000000000, 1.000000000000000000, 0.0000000000000000000 ) ) ;
#280 = CARTESIAN_POINT ( 'NONE',  ( 0.0000000000000000000, 42.00000000000000000, 14.00000000000000000 ) ) ;
#281 = ORIENTED_EDGE ( 'NONE', *, *, #316, .F. ) ;
#282 =( NAMED_UNIT ( * ) PLANE_ANGLE_UNIT ( ) SI_UNIT ( $, .RADIAN. ) );
#283 = FILL_AREA_STYLE ('',( #22 ) ) ;
#284 = AXIS2_PLACEMENT_3D ( 'NONE', #69, #314, #171 ) ;
#285 = DIRECTION ( 'NONE',  ( 0.0000000000000000000, -1.000000000000000000, 0.0000000000000000000 ) ) ;
#286 = DIRECTION ( 'NONE',  ( 0.0000000000000000000, 0.0000000000000000000, 1.000000000000000000 ) ) ;
#287 = SURFACE_SIDE_STYLE ('',( #47 ) ) ;
#288 = COLOUR_RGB ( '',0.7921568627450980000, 0.8196078431372548800, 0.9333333333333333500 ) ;
#289 = EDGE_LOOP ( 'NONE', ( #70, #125, #252, #3 ) ) ;
#290 = DIRECTION ( 'NONE',  ( 1.000000000000000000, 0.0000000000000000000, 0.0000000000000000000 ) ) ;
#291 = DIRECTION ( 'NONE',  ( 0.0000000000000000000, 1.000000000000000000, 0.0000000000000000000 ) ) ;
#292 = CARTESIAN_POINT ( 'NONE',  ( 0.0000000000000000000, 0.0000000000000000000, 0.0000000000000000000 ) ) ;
#293 = VECTOR ( 'NONE', #290, 1000.000000000000000 ) ;
#294 = VERTEX_POINT ( 'NONE', #94 ) ;
#295 = CLOSED_SHELL ( 'NONE', ( #244, #34, #82, #85, #191, #216, #84, #248, #4, #134 ) ) ;
#296 = MANIFOLD_SOLID_BREP ( 'Extrude2', #295 ) ;
#297 = EDGE_CURVE ( 'NONE', #264, #10, #245, .T. ) ;
#298 = VECTOR ( 'NONE', #100, 1000.000000000000000 ) ;
#299 = PRESENTATION_LAYER_ASSIGNMENT (  '', '', ( #143 ) ) ;
#300 = LINE ( 'NONE', #112, #220 ) ;
#301 = DIRECTION ( 'NONE',  ( -0.0000000000000000000, 1.000000000000000000, -0.0000000000000000000 ) ) ;
#302 = CIRCLE ( 'NONE', #49, 3.500000000000000400 ) ;
#303 = VERTEX_POINT ( 'NONE', #280 ) ;
#304 = CYLINDRICAL_SURFACE ( 'NONE', #73, 3.499999999999999600 ) ;
#305 = CARTESIAN_POINT ( 'NONE',  ( 56.25000000000000000, 0.0000000000000000000, 10.49999999999999300 ) ) ;
#306 = DIRECTION ( 'NONE',  ( -0.0000000000000000000, 1.000000000000000000, -0.0000000000000000000 ) ) ;
#307 = AXIS2_PLACEMENT_3D ( 'NONE', #192, #249, #35 ) ;
#308 = ORIENTED_EDGE ( 'NONE', *, *, #341, .F. ) ;
#309 = UNCERTAINTY_MEASURE_WITH_UNIT (LENGTH_MEASURE( 1.000000000000000100E-005 ), #230, 'distance_accuracy_value', 'NONE');
#310 = CARTESIAN_POINT ( 'NONE',  ( 0.0000000000000000000, 0.0000000000000000000, 0.0000000000000000000 ) ) ;
#311 =( NAMED_UNIT ( * ) PLANE_ANGLE_UNIT ( ) SI_UNIT ( $, .RADIAN. ) );
#312 = CARTESIAN_POINT ( 'NONE',  ( 65.00000000000000000, 0.0000000000000000000, 0.0000000000000000000 ) ) ;
#313 = LINE ( 'NONE', #265, #262 ) ;
#314 = DIRECTION ( 'NONE',  ( -1.000000000000000000, 0.0000000000000000000, 0.0000000000000000000 ) ) ;
#315 = VECTOR ( 'NONE', #46, 1000.000000000000000 ) ;
#316 = EDGE_CURVE ( 'NONE', #10, #264, #42, .T. ) ;
#317 = DIRECTION ( 'NONE',  ( -1.000000000000000000, -0.0000000000000000000, -0.0000000000000000000 ) ) ;
#318 = PLANE ( 'NONE',  #183 ) ;
#319 = VECTOR ( 'NONE', #113, 1000.000000000000000 ) ;
#320 = FACE_OUTER_BOUND ( 'NONE', #26, .T. ) ;
#321 = ORIENTED_EDGE ( 'NONE', *, *, #273, .T. ) ;
#322 = FACE_OUTER_BOUND ( 'NONE', #151, .T. ) ;
#323 = EDGE_LOOP ( 'NONE', ( #158, #51 ) ) ;
#324 = ORIENTED_EDGE ( 'NONE', *, *, #207, .F. ) ;
#325 = EDGE_CURVE ( 'NONE', #86, #340, #313, .T. ) ;
#326 = DIRECTION ( 'NONE',  ( -0.0000000000000000000, -1.000000000000000000, -0.0000000000000000000 ) ) ;
#327 = DIRECTION ( 'NONE',  ( 0.0000000000000000000, 1.000000000000000000, 0.0000000000000000000 ) ) ;
#328 = PRODUCT ( 'Rallonges', 'Rallonges', '', ( #227 ) ) ;
#329 = CYLINDRICAL_SURFACE ( 'NONE', #170, 3.499999999999999600 ) ;
#330 = FACE_OUTER_BOUND ( 'NONE', #63, .T. ) ;
#331 = PLANE ( 'NONE',  #307 ) ;
#332 = DIRECTION ( 'NONE',  ( 0.0000000000000000000, 0.0000000000000000000, 1.000000000000000000 ) ) ;
#333 =( LENGTH_UNIT ( ) NAMED_UNIT ( * ) SI_UNIT ( .MILLI., .METRE. ) );
#334 = CARTESIAN_POINT ( 'NONE',  ( 0.0000000000000000000, 0.0000000000000000000, 14.00000000000000000 ) ) ;
#335 = FACE_OUTER_BOUND ( 'NONE', #200, .T. ) ;
#336 = FILL_AREA_STYLE_COLOUR ( '', #288 ) ;
#337 = DIRECTION ( 'NONE',  ( 0.0000000000000000000, 1.000000000000000000, 0.0000000000000000000 ) ) ;
#338 = CIRCLE ( 'NONE', #346, 3.500000000000000400 ) ;
#339 = DIRECTION ( 'NONE',  ( 0.0000000000000000000, 0.0000000000000000000, -1.000000000000000000 ) ) ;
#340 = VERTEX_POINT ( 'NONE', #102 ) ;
#341 = EDGE_CURVE ( 'NONE', #86, #189, #338, .T. ) ;
#342 = AXIS2_PLACEMENT_3D ( 'NONE', #89, #279, #217 ) ;
#343 = DIRECTION ( 'NONE',  ( 0.0000000000000000000, 0.0000000000000000000, 1.000000000000000000 ) ) ;
#344 = ORIENTED_EDGE ( 'NONE', *, *, #67, .F. ) ;
#345 = ORIENTED_EDGE ( 'NONE', *, *, #103, .T. ) ;
#346 = AXIS2_PLACEMENT_3D ( 'NONE', #255, #260, #117 ) ;
#347 = LINE ( 'NONE', #194, #16 ) ;
#348 = ORIENTED_EDGE ( 'NONE', *, *, #40, .F. ) ;
#349 = DIRECTION ( 'NONE',  ( -0.0000000000000000000, 1.000000000000000000, -0.0000000000000000000 ) ) ;
#350 = AXIS2_PLACEMENT_3D ( 'NONE', #159, #349, #32 ) ;
ENDSEC;
END-ISO-10303-21;
