ISO-10303-21;
HEADER;
FILE_DESCRIPTION (( 'STEP AP214' ),
    '1' );
FILE_NAME ('Rallonges.STEP',
    '2016-08-23T12:20:02',
    ( '' ),
    ( '' ),
    'SwSTEP 2.0',
    'SolidWorks 2016',
    '' );
FILE_SCHEMA (( 'AUTOMOTIVE_DESIGN' ));
ENDSEC;

DATA;
#1 = CARTESIAN_POINT ( 'NONE',  ( 8.750000000000000000, 40.00000000000000000, 10.50000000000000000 ) ) ;
#2 = CARTESIAN_POINT ( 'NONE',  ( 56.25000000000000000, 0.0000000000000000000, 10.49999999999999300 ) ) ;
#3 = PLANE ( 'NONE',  #273 ) ;
#4 = CYLINDRICAL_SURFACE ( 'NONE', #334, 3.499999999999999600 ) ;
#5 = DIRECTION ( 'NONE',  ( 0.0000000000000000000, 1.000000000000000000, 0.0000000000000000000 ) ) ;
#6 = ORIENTED_EDGE ( 'NONE', *, *, #208, .T. ) ;
#7 = PRESENTATION_STYLE_ASSIGNMENT (( #143 ) ) ;
#8 = EDGE_CURVE ( 'NONE', #236, #328, #149, .T. ) ;
#9 = CARTESIAN_POINT ( 'NONE',  ( 0.0000000000000000000, 40.00000000000000000, 14.00000000000000000 ) ) ;
#10 = CARTESIAN_POINT ( 'NONE',  ( 0.0000000000000000000, 0.0000000000000000000, 0.0000000000000000000 ) ) ;
#11 = EDGE_LOOP ( 'NONE', ( #35, #228, #333, #183 ) ) ;
#12 = CARTESIAN_POINT ( 'NONE',  ( 0.0000000000000000000, 0.0000000000000000000, 14.00000000000000000 ) ) ;
#13 = DIRECTION ( 'NONE',  ( 1.000000000000000000, 0.0000000000000000000, 0.0000000000000000000 ) ) ;
#14 = ORIENTED_EDGE ( 'NONE', *, *, #283, .F. ) ;
#15 = VERTEX_POINT ( 'NONE', #212 ) ;
#16 = PRESENTATION_LAYER_ASSIGNMENT (  '', '', ( #278 ) ) ;
#17 = LINE ( 'NONE', #167, #108 ) ;
#18 = EDGE_CURVE ( 'NONE', #311, #236, #71, .T. ) ;
#19 = ORIENTED_EDGE ( 'NONE', *, *, #330, .F. ) ;
#20 = AXIS2_PLACEMENT_3D ( 'NONE', #327, #147, #282 ) ;
#21 = PRODUCT_DEFINITION_SHAPE ( 'NONE', 'NONE',  #300 ) ;
#22 = ADVANCED_FACE ( 'NONE', ( #323, #307, #238 ), #213, .F. ) ;
#23 = AXIS2_PLACEMENT_3D ( 'NONE', #295, #138, #194 ) ;
#24 = FILL_AREA_STYLE ('',( #324 ) ) ;
#25 = FACE_OUTER_BOUND ( 'NONE', #155, .T. ) ;
#26 = PLANE ( 'NONE',  #219 ) ;
#27 = CARTESIAN_POINT ( 'NONE',  ( 0.0000000000000000000, 0.0000000000000000000, 14.00000000000000000 ) ) ;
#28 = ORIENTED_EDGE ( 'NONE', *, *, #224, .T. ) ;
#29 = VERTEX_POINT ( 'NONE', #55 ) ;
#30 = EDGE_CURVE ( 'NONE', #154, #29, #84, .T. ) ;
#31 = PRODUCT_RELATED_PRODUCT_CATEGORY ( 'part', '', ( #322 ) ) ;
#32 = DIRECTION ( 'NONE',  ( 0.0000000000000000000, -0.0000000000000000000, -1.000000000000000000 ) ) ;
#33 = EDGE_CURVE ( 'NONE', #136, #159, #177, .T. ) ;
#34 = CARTESIAN_POINT ( 'NONE',  ( 56.25000000000000000, 0.0000000000000000000, 6.999999999999993800 ) ) ;
#35 = ORIENTED_EDGE ( 'NONE', *, *, #157, .F. ) ;
#36 = DIRECTION ( 'NONE',  ( 0.0000000000000000000, 1.000000000000000000, 0.0000000000000000000 ) ) ;
#37 = PLANE ( 'NONE',  #45 ) ;
#38 = EDGE_CURVE ( 'NONE', #163, #15, #272, .T. ) ;
#39 = AXIS2_PLACEMENT_3D ( 'NONE', #345, #115, #218 ) ;
#40 = APPLICATION_PROTOCOL_DEFINITION ( 'draft international standard', 'automotive_design', 1998, #203 ) ;
#41 = EDGE_LOOP ( 'NONE', ( #73, #249, #142, #87 ) ) ;
#42 = LINE ( 'NONE', #306, #320 ) ;
#43 = PRODUCT_DEFINITION_CONTEXT ( 'detailed design', #287, 'design' ) ;
#44 = CARTESIAN_POINT ( 'NONE',  ( 0.0000000000000000000, 40.00000000000000000, 14.00000000000000000 ) ) ;
#45 = AXIS2_PLACEMENT_3D ( 'NONE', #230, #124, #303 ) ;
#46 = VERTEX_POINT ( 'NONE', #298 ) ;
#47 = FACE_BOUND ( 'NONE', #265, .T. ) ;
#48 = UNCERTAINTY_MEASURE_WITH_UNIT (LENGTH_MEASURE( 1.000000000000000100E-005 ), #150, 'distance_accuracy_value', 'NONE');
#49 = PRODUCT_DEFINITION_FORMATION_WITH_SPECIFIED_SOURCE ( 'ANY', '', #322, .NOT_KNOWN. ) ;
#50 = CARTESIAN_POINT ( 'NONE',  ( 56.25000000000000000, 0.0000000000000000000, 3.499999999999994200 ) ) ;
#51 = ORIENTED_EDGE ( 'NONE', *, *, #317, .F. ) ;
#52 = ADVANCED_FACE ( 'NONE', ( #264 ), #188, .F. ) ;
#53 = LINE ( 'NONE', #242, #285 ) ;
#54 = ADVANCED_FACE ( 'NONE', ( #100 ), #221, .F. ) ;
#55 = CARTESIAN_POINT ( 'NONE',  ( 0.0000000000000000000, 0.0000000000000000000, 0.0000000000000000000 ) ) ;
#56 = ADVANCED_FACE ( 'NONE', ( #258 ), #26, .T. ) ;
#57 = CARTESIAN_POINT ( 'NONE',  ( 8.750000000000000000, 0.0000000000000000000, 7.000000000000000000 ) ) ;
#58 = PLANE ( 'NONE',  #185 ) ;
#59 = VECTOR ( 'NONE', #5, 1000.000000000000000 ) ;
#60 = DIRECTION ( 'NONE',  ( 0.0000000000000000000, 0.0000000000000000000, 1.000000000000000000 ) ) ;
#61 = COLOUR_RGB ( '',0.7921568627450980000, 0.8196078431372548800, 0.9333333333333333500 ) ;
#62 = DIRECTION ( 'NONE',  ( 0.0000000000000000000, 0.0000000000000000000, -1.000000000000000000 ) ) ;
#63 = CIRCLE ( 'NONE', #20, 3.499999999999999600 ) ;
#64 = CARTESIAN_POINT ( 'NONE',  ( 56.25000000000000000, 0.0000000000000000000, 6.999999999999993800 ) ) ;
#65 = ORIENTED_EDGE ( 'NONE', *, *, #8, .F. ) ;
#66 = CLOSED_SHELL ( 'NONE', ( #267, #110, #89, #22, #162, #214, #114, #56, #54, #52 ) ) ;
#67 = PLANE ( 'NONE',  #75 ) ;
#68 = CARTESIAN_POINT ( 'NONE',  ( 0.0000000000000000000, 40.00000000000000000, 14.00000000000000000 ) ) ;
#69 = LINE ( 'NONE', #10, #292 ) ;
#70 = STYLED_ITEM ( 'NONE', ( #7 ), #83 ) ;
#71 = LINE ( 'NONE', #50, #209 ) ;
#72 =( NAMED_UNIT ( * ) PLANE_ANGLE_UNIT ( ) SI_UNIT ( $, .RADIAN. ) );
#73 = ORIENTED_EDGE ( 'NONE', *, *, #18, .F. ) ;
#74 = FACE_OUTER_BOUND ( 'NONE', #210, .T. ) ;
#75 = AXIS2_PLACEMENT_3D ( 'NONE', #68, #329, #32 ) ;
#76 =( NAMED_UNIT ( * ) SI_UNIT ( $, .STERADIAN. ) SOLID_ANGLE_UNIT ( ) );
#77 = VECTOR ( 'NONE', #281, 1000.000000000000000 ) ;
#78 = FILL_AREA_STYLE ('',( #206 ) ) ;
#79 = EDGE_CURVE ( 'NONE', #274, #318, #17, .T. ) ;
#80 = AXIS2_PLACEMENT_3D ( 'NONE', #270, #94, #127 ) ;
#81 = EDGE_LOOP ( 'NONE', ( #104, #215, #255, #294 ) ) ;
#82 = LINE ( 'NONE', #12, #139 ) ;
#83 = MANIFOLD_SOLID_BREP ( 'Extrude2', #66 ) ;
#84 = LINE ( 'NONE', #266, #341 ) ;
#85 = CARTESIAN_POINT ( 'NONE',  ( 0.0000000000000000000, 0.0000000000000000000, 14.00000000000000000 ) ) ;
#86 = SURFACE_STYLE_FILL_AREA ( #78 ) ;
#87 = ORIENTED_EDGE ( 'NONE', *, *, #178, .T. ) ;
#88 = DIRECTION ( 'NONE',  ( -0.0000000000000000000, 1.000000000000000000, -0.0000000000000000000 ) ) ;
#89 = ADVANCED_FACE ( 'NONE', ( #25 ), #3, .F. ) ;
#90 = ORIENTED_EDGE ( 'NONE', *, *, #33, .T. ) ;
#91 =( GEOMETRIC_REPRESENTATION_CONTEXT ( 3 ) GLOBAL_UNCERTAINTY_ASSIGNED_CONTEXT ( ( #48 ) ) GLOBAL_UNIT_ASSIGNED_CONTEXT ( ( #150, #72, #76 ) ) REPRESENTATION_CONTEXT ( 'NONE', 'WORKASPACE' ) );
#92 = PRESENTATION_LAYER_ASSIGNMENT (  '', '', ( #70 ) ) ;
#93 =( LENGTH_UNIT ( ) NAMED_UNIT ( * ) SI_UNIT ( .MILLI., .METRE. ) );
#94 = DIRECTION ( 'NONE',  ( 0.0000000000000000000, 1.000000000000000000, 0.0000000000000000000 ) ) ;
#95 = CARTESIAN_POINT ( 'NONE',  ( 0.0000000000000000000, 40.00000000000000000, 14.00000000000000000 ) ) ;
#96 = ORIENTED_EDGE ( 'NONE', *, *, #187, .T. ) ;
#97 = CARTESIAN_POINT ( 'NONE',  ( 8.750000000000000000, 0.0000000000000000000, 3.500000000000000000 ) ) ;
#98 = DIRECTION ( 'NONE',  ( 0.0000000000000000000, 0.0000000000000000000, 1.000000000000000000 ) ) ;
#99 = CARTESIAN_POINT ( 'NONE',  ( 0.0000000000000000000, 0.0000000000000000000, 14.00000000000000000 ) ) ;
#100 = FACE_OUTER_BOUND ( 'NONE', #222, .T. ) ;
#101 = SURFACE_SIDE_STYLE ('',( #86 ) ) ;
#102 = VECTOR ( 'NONE', #118, 1000.000000000000000 ) ;
#103 = EDGE_CURVE ( 'NONE', #274, #46, #53, .T. ) ;
#104 = ORIENTED_EDGE ( 'NONE', *, *, #231, .F. ) ;
#105 = EDGE_CURVE ( 'NONE', #191, #328, #166, .T. ) ;
#106 =( NAMED_UNIT ( * ) SI_UNIT ( $, .STERADIAN. ) SOLID_ANGLE_UNIT ( ) );
#107 = UNCERTAINTY_MEASURE_WITH_UNIT (LENGTH_MEASURE( 1.000000000000000100E-005 ), #260, 'distance_accuracy_value', 'NONE');
#108 = VECTOR ( 'NONE', #299, 1000.000000000000000 ) ;
#109 = SHAPE_DEFINITION_REPRESENTATION ( #21, #152 ) ;
#110 = ADVANCED_FACE ( 'NONE', ( #135 ), #314, .F. ) ;
#111 = ORIENTED_EDGE ( 'NONE', *, *, #30, .F. ) ;
#112 = VERTEX_POINT ( 'NONE', #226 ) ;
#113 = LINE ( 'NONE', #95, #216 ) ;
#114 = ADVANCED_FACE ( 'NONE', ( #74 ), #58, .F. ) ;
#115 = DIRECTION ( 'NONE',  ( 0.0000000000000000000, 1.000000000000000000, 0.0000000000000000000 ) ) ;
#116 = ORIENTED_EDGE ( 'NONE', *, *, #317, .T. ) ;
#117 = CARTESIAN_POINT ( 'NONE',  ( 8.750000000000000000, 40.00000000000000000, 3.500000000000000000 ) ) ;
#118 = DIRECTION ( 'NONE',  ( -0.0000000000000000000, 1.000000000000000000, -0.0000000000000000000 ) ) ;
#119 = SURFACE_SIDE_STYLE ('',( #297 ) ) ;
#120 = ORIENTED_EDGE ( 'NONE', *, *, #171, .F. ) ;
#121 = AXIS2_PLACEMENT_3D ( 'NONE', #257, #180, #182 ) ;
#122 = CIRCLE ( 'NONE', #263, 3.500000000000000400 ) ;
#123 = DIRECTION ( 'NONE',  ( 0.0000000000000000000, 0.0000000000000000000, 1.000000000000000000 ) ) ;
#124 = DIRECTION ( 'NONE',  ( -1.000000000000000000, 0.0000000000000000000, 0.0000000000000000000 ) ) ;
#125 = DIRECTION ( 'NONE',  ( -0.0000000000000000000, -1.000000000000000000, -0.0000000000000000000 ) ) ;
#126 = ORIENTED_EDGE ( 'NONE', *, *, #208, .F. ) ;
#127 = DIRECTION ( 'NONE',  ( 0.0000000000000000000, 0.0000000000000000000, 1.000000000000000000 ) ) ;
#128 = DIRECTION ( 'NONE',  ( -0.0000000000000000000, -0.0000000000000000000, -1.000000000000000000 ) ) ;
#129 = VERTEX_POINT ( 'NONE', #296 ) ;
#130 =( NAMED_UNIT ( * ) PLANE_ANGLE_UNIT ( ) SI_UNIT ( $, .RADIAN. ) );
#131 = CARTESIAN_POINT ( 'NONE',  ( 65.00000000000000000, 0.0000000000000000000, 14.00000000000000000 ) ) ;
#132 = EDGE_LOOP ( 'NONE', ( #28, #200 ) ) ;
#133 = EDGE_CURVE ( 'NONE', #159, #136, #259, .T. ) ;
#134 = ORIENTED_EDGE ( 'NONE', *, *, #168, .T. ) ;
#135 = FACE_OUTER_BOUND ( 'NONE', #288, .T. ) ;
#136 = VERTEX_POINT ( 'NONE', #1 ) ;
#137 = DIRECTION ( 'NONE',  ( -0.0000000000000000000, -0.0000000000000000000, -1.000000000000000000 ) ) ;
#138 = DIRECTION ( 'NONE',  ( 0.0000000000000000000, 1.000000000000000000, 0.0000000000000000000 ) ) ;
#139 = VECTOR ( 'NONE', #13, 1000.000000000000000 ) ;
#140 = CARTESIAN_POINT ( 'NONE',  ( 0.0000000000000000000, 0.0000000000000000000, 14.00000000000000000 ) ) ;
#141 = ORIENTED_EDGE ( 'NONE', *, *, #330, .T. ) ;
#142 = ORIENTED_EDGE ( 'NONE', *, *, #105, .T. ) ;
#143 = SURFACE_STYLE_USAGE ( .BOTH. , #119 ) ;
#144 = DIRECTION ( 'NONE',  ( 0.0000000000000000000, 0.0000000000000000000, 1.000000000000000000 ) ) ;
#145 = VECTOR ( 'NONE', #128, 1000.000000000000000 ) ;
#146 = CARTESIAN_POINT ( 'NONE',  ( 65.00000000000000000, 40.00000000000000000, 0.0000000000000000000 ) ) ;
#147 = DIRECTION ( 'NONE',  ( 0.0000000000000000000, 1.000000000000000000, 0.0000000000000000000 ) ) ;
#148 = DIRECTION ( 'NONE',  ( 0.0000000000000000000, 0.0000000000000000000, 1.000000000000000000 ) ) ;
#149 = CIRCLE ( 'NONE', #39, 3.499999999999999600 ) ;
#150 =( LENGTH_UNIT ( ) NAMED_UNIT ( * ) SI_UNIT ( .MILLI., .METRE. ) );
#151 = ORIENTED_EDGE ( 'NONE', *, *, #168, .F. ) ;
#152 = ADVANCED_BREP_SHAPE_REPRESENTATION ( 'Rallonges', ( #83, #121 ), #91 ) ;
#153 = LINE ( 'NONE', #97, #77 ) ;
#154 = VERTEX_POINT ( 'NONE', #140 ) ;
#155 = EDGE_LOOP ( 'NONE', ( #342, #111, #234, #290 ) ) ;
#156 = SURFACE_STYLE_USAGE ( .BOTH. , #101 ) ;
#157 = EDGE_CURVE ( 'NONE', #311, #191, #161, .T. ) ;
#158 = AXIS2_PLACEMENT_3D ( 'NONE', #305, #179, #98 ) ;
#159 = VERTEX_POINT ( 'NONE', #117 ) ;
#160 = ORIENTED_EDGE ( 'NONE', *, *, #313, .F. ) ;
#161 = CIRCLE ( 'NONE', #217, 3.499999999999999600 ) ;
#162 = ADVANCED_FACE ( 'NONE', ( #343 ), #37, .F. ) ;
#163 = VERTEX_POINT ( 'NONE', #146 ) ;
#164 = DIRECTION ( 'NONE',  ( 1.000000000000000000, 0.0000000000000000000, 0.0000000000000000000 ) ) ;
#165 = ORIENTED_EDGE ( 'NONE', *, *, #205, .T. ) ;
#166 = LINE ( 'NONE', #2, #102 ) ;
#167 = CARTESIAN_POINT ( 'NONE',  ( 65.00000000000000000, 0.0000000000000000000, 14.00000000000000000 ) ) ;
#168 = EDGE_CURVE ( 'NONE', #46, #172, #113, .T. ) ;
#169 = CARTESIAN_POINT ( 'NONE',  ( 0.0000000000000000000, 0.0000000000000000000, 14.00000000000000000 ) ) ;
#170 =( NAMED_UNIT ( * ) SI_UNIT ( $, .STERADIAN. ) SOLID_ANGLE_UNIT ( ) );
#171 = EDGE_CURVE ( 'NONE', #46, #163, #223, .T. ) ;
#172 = VERTEX_POINT ( 'NONE', #9 ) ;
#173 = CARTESIAN_POINT ( 'NONE',  ( 65.00000000000000000, 0.0000000000000000000, 0.0000000000000000000 ) ) ;
#174 = DIRECTION ( 'NONE',  ( -0.0000000000000000000, -0.0000000000000000000, -1.000000000000000000 ) ) ;
#175 = CARTESIAN_POINT ( 'NONE',  ( 65.00000000000000000, 40.00000000000000000, 14.00000000000000000 ) ) ;
#176 = EDGE_CURVE ( 'NONE', #112, #129, #193, .T. ) ;
#177 = CIRCLE ( 'NONE', #23, 3.500000000000000400 ) ;
#178 = EDGE_CURVE ( 'NONE', #328, #236, #339, .T. ) ;
#179 = DIRECTION ( 'NONE',  ( 0.0000000000000000000, 1.000000000000000000, 0.0000000000000000000 ) ) ;
#180 = DIRECTION ( 'NONE',  ( 0.0000000000000000000, 0.0000000000000000000, 1.000000000000000000 ) ) ;
#181 = AXIS2_PLACEMENT_3D ( 'NONE', #271, #244, #60 ) ;
#182 = DIRECTION ( 'NONE',  ( 1.000000000000000000, 0.0000000000000000000, 0.0000000000000000000 ) ) ;
#183 = ORIENTED_EDGE ( 'NONE', *, *, #105, .F. ) ;
#184 = CARTESIAN_POINT ( 'NONE',  ( 65.00000000000000000, 0.0000000000000000000, 0.0000000000000000000 ) ) ;
#185 = AXIS2_PLACEMENT_3D ( 'NONE', #27, #225, #246 ) ;
#186 = ORIENTED_EDGE ( 'NONE', *, *, #103, .T. ) ;
#187 = EDGE_CURVE ( 'NONE', #172, #154, #269, .T. ) ;
#188 = CYLINDRICAL_SURFACE ( 'NONE', #181, 3.499999999999999600 ) ;
#189 = ORIENTED_EDGE ( 'NONE', *, *, #133, .F. ) ;
#190 = ORIENTED_EDGE ( 'NONE', *, *, #33, .F. ) ;
#191 = VERTEX_POINT ( 'NONE', #280 ) ;
#192 = DIRECTION ( 'NONE',  ( -0.0000000000000000000, 1.000000000000000000, -0.0000000000000000000 ) ) ;
#193 = CIRCLE ( 'NONE', #250, 3.500000000000000400 ) ;
#194 = DIRECTION ( 'NONE',  ( 0.0000000000000000000, 0.0000000000000000000, 1.000000000000000000 ) ) ;
#195 = DIRECTION ( 'NONE',  ( -1.000000000000000000, -0.0000000000000000000, -0.0000000000000000000 ) ) ;
#196 = ORIENTED_EDGE ( 'NONE', *, *, #79, .T. ) ;
#197 = MECHANICAL_DESIGN_GEOMETRIC_PRESENTATION_REPRESENTATION (  '', ( #70 ), #336 ) ;
#198 = CARTESIAN_POINT ( 'NONE',  ( 8.750000000000000000, 0.0000000000000000000, 7.000000000000000000 ) ) ;
#199 = CARTESIAN_POINT ( 'NONE',  ( 56.25000000000000000, 40.00000000000000000, 3.499999999999994200 ) ) ;
#200 = ORIENTED_EDGE ( 'NONE', *, *, #157, .T. ) ;
#201 = DIRECTION ( 'NONE',  ( 0.0000000000000000000, 0.0000000000000000000, 1.000000000000000000 ) ) ;
#202 = VECTOR ( 'NONE', #284, 1000.000000000000000 ) ;
#203 = APPLICATION_CONTEXT ( 'automotive_design' ) ;
#204 = VECTOR ( 'NONE', #195, 1000.000000000000000 ) ;
#205 = EDGE_CURVE ( 'NONE', #29, #318, #42, .T. ) ;
#206 = FILL_AREA_STYLE_COLOUR ( '', #346 ) ;
#207 = ORIENTED_EDGE ( 'NONE', *, *, #30, .T. ) ;
#208 = EDGE_CURVE ( 'NONE', #129, #112, #122, .T. ) ;
#209 = VECTOR ( 'NONE', #316, 1000.000000000000000 ) ;
#210 = EDGE_LOOP ( 'NONE', ( #96, #141, #186, #134 ) ) ;
#211 = AXIS2_PLACEMENT_3D ( 'NONE', #198, #192, #349 ) ;
#212 = CARTESIAN_POINT ( 'NONE',  ( 0.0000000000000000000, 40.00000000000000000, 0.0000000000000000000 ) ) ;
#213 = PLANE ( 'NONE',  #340 ) ;
#214 = ADVANCED_FACE ( 'NONE', ( #348, #47, #350 ), #67, .F. ) ;
#215 = ORIENTED_EDGE ( 'NONE', *, *, #38, .F. ) ;
#216 = VECTOR ( 'NONE', #232, 1000.000000000000000 ) ;
#217 = AXIS2_PLACEMENT_3D ( 'NONE', #34, #326, #308 ) ;
#218 = DIRECTION ( 'NONE',  ( 0.0000000000000000000, 0.0000000000000000000, 1.000000000000000000 ) ) ;
#219 = AXIS2_PLACEMENT_3D ( 'NONE', #243, #62, #321 ) ;
#220 = CARTESIAN_POINT ( 'NONE',  ( 0.0000000000000000000, 40.00000000000000000, 0.0000000000000000000 ) ) ;
#221 = CYLINDRICAL_SURFACE ( 'NONE', #211, 3.500000000000000400 ) ;
#222 = EDGE_LOOP ( 'NONE', ( #14, #261, #116, #90 ) ) ;
#223 = LINE ( 'NONE', #175, #275 ) ;
#224 = EDGE_CURVE ( 'NONE', #191, #311, #63, .T. ) ;
#225 = DIRECTION ( 'NONE',  ( 0.0000000000000000000, 0.0000000000000000000, -1.000000000000000000 ) ) ;
#226 = CARTESIAN_POINT ( 'NONE',  ( 8.750000000000000000, 0.0000000000000000000, 10.50000000000000000 ) ) ;
#227 = ORIENTED_EDGE ( 'NONE', *, *, #171, .T. ) ;
#228 = ORIENTED_EDGE ( 'NONE', *, *, #18, .T. ) ;
#229 = CARTESIAN_POINT ( 'NONE',  ( 8.750000000000000000, 0.0000000000000000000, 7.000000000000000000 ) ) ;
#230 = CARTESIAN_POINT ( 'NONE',  ( 65.00000000000000000, 0.0000000000000000000, 14.00000000000000000 ) ) ;
#231 = EDGE_CURVE ( 'NONE', #15, #29, #69, .T. ) ;
#232 = DIRECTION ( 'NONE',  ( -1.000000000000000000, -0.0000000000000000000, -0.0000000000000000000 ) ) ;
#233 = EDGE_CURVE ( 'NONE', #318, #163, #301, .T. ) ;
#234 = ORIENTED_EDGE ( 'NONE', *, *, #187, .F. ) ;
#235 = CARTESIAN_POINT ( 'NONE',  ( 56.25000000000000000, 40.00000000000000000, 10.49999999999999300 ) ) ;
#236 = VERTEX_POINT ( 'NONE', #199 ) ;
#237 = ORIENTED_EDGE ( 'NONE', *, *, #103, .F. ) ;
#238 = FACE_OUTER_BOUND ( 'NONE', #338, .T. ) ;
#239 = UNCERTAINTY_MEASURE_WITH_UNIT (LENGTH_MEASURE( 1.000000000000000100E-005 ), #93, 'distance_accuracy_value', 'NONE');
#240 = ORIENTED_EDGE ( 'NONE', *, *, #178, .F. ) ;
#241 = ORIENTED_EDGE ( 'NONE', *, *, #38, .T. ) ;
#242 = CARTESIAN_POINT ( 'NONE',  ( 65.00000000000000000, 0.0000000000000000000, 14.00000000000000000 ) ) ;
#243 = CARTESIAN_POINT ( 'NONE',  ( 0.0000000000000000000, 0.0000000000000000000, 0.0000000000000000000 ) ) ;
#244 = DIRECTION ( 'NONE',  ( -0.0000000000000000000, 1.000000000000000000, -0.0000000000000000000 ) ) ;
#245 =( GEOMETRIC_REPRESENTATION_CONTEXT ( 3 ) GLOBAL_UNCERTAINTY_ASSIGNED_CONTEXT ( ( #107 ) ) GLOBAL_UNIT_ASSIGNED_CONTEXT ( ( #260, #130, #106 ) ) REPRESENTATION_CONTEXT ( 'NONE', 'WORKASPACE' ) );
#246 = DIRECTION ( 'NONE',  ( -1.000000000000000000, 0.0000000000000000000, -0.0000000000000000000 ) ) ;
#247 = ORIENTED_EDGE ( 'NONE', *, *, #283, .T. ) ;
#248 = DIRECTION ( 'NONE',  ( -0.0000000000000000000, -1.000000000000000000, -0.0000000000000000000 ) ) ;
#249 = ORIENTED_EDGE ( 'NONE', *, *, #224, .F. ) ;
#250 = AXIS2_PLACEMENT_3D ( 'NONE', #254, #253, #148 ) ;
#251 = DIRECTION ( 'NONE',  ( -0.0000000000000000000, 1.000000000000000000, -0.0000000000000000000 ) ) ;
#252 = LINE ( 'NONE', #279, #202 ) ;
#253 = DIRECTION ( 'NONE',  ( 0.0000000000000000000, 1.000000000000000000, 0.0000000000000000000 ) ) ;
#254 = CARTESIAN_POINT ( 'NONE',  ( 8.750000000000000000, 0.0000000000000000000, 7.000000000000000000 ) ) ;
#255 = ORIENTED_EDGE ( 'NONE', *, *, #233, .F. ) ;
#256 = DIRECTION ( 'NONE',  ( 1.000000000000000000, 0.0000000000000000000, 0.0000000000000000000 ) ) ;
#257 = CARTESIAN_POINT ( 'NONE',  ( 0.0000000000000000000, 0.0000000000000000000, 0.0000000000000000000 ) ) ;
#258 = FACE_OUTER_BOUND ( 'NONE', #81, .T. ) ;
#259 = CIRCLE ( 'NONE', #80, 3.500000000000000400 ) ;
#260 =( LENGTH_UNIT ( ) NAMED_UNIT ( * ) SI_UNIT ( .MILLI., .METRE. ) );
#261 = ORIENTED_EDGE ( 'NONE', *, *, #176, .F. ) ;
#262 = VECTOR ( 'NONE', #125, 1000.000000000000000 ) ;
#263 = AXIS2_PLACEMENT_3D ( 'NONE', #229, #36, #123 ) ;
#264 = FACE_OUTER_BOUND ( 'NONE', #41, .T. ) ;
#265 = EDGE_LOOP ( 'NONE', ( #190, #189 ) ) ;
#266 = CARTESIAN_POINT ( 'NONE',  ( 0.0000000000000000000, 0.0000000000000000000, 14.00000000000000000 ) ) ;
#267 = ADVANCED_FACE ( 'NONE', ( #315 ), #4, .F. ) ;
#268 = ORIENTED_EDGE ( 'NONE', *, *, #176, .T. ) ;
#269 = LINE ( 'NONE', #99, #262 ) ;
#270 = CARTESIAN_POINT ( 'NONE',  ( 8.750000000000000000, 40.00000000000000000, 7.000000000000000000 ) ) ;
#271 = CARTESIAN_POINT ( 'NONE',  ( 56.25000000000000000, 0.0000000000000000000, 6.999999999999993800 ) ) ;
#272 = LINE ( 'NONE', #220, #204 ) ;
#273 = AXIS2_PLACEMENT_3D ( 'NONE', #169, #164, #319 ) ;
#274 = VERTEX_POINT ( 'NONE', #131 ) ;
#275 = VECTOR ( 'NONE', #174, 1000.000000000000000 ) ;
#276 =( NAMED_UNIT ( * ) PLANE_ANGLE_UNIT ( ) SI_UNIT ( $, .RADIAN. ) );
#277 = AXIS2_PLACEMENT_3D ( 'NONE', #57, #88, #144 ) ;
#278 = STYLED_ITEM ( 'NONE', ( #331 ), #152 ) ;
#279 = CARTESIAN_POINT ( 'NONE',  ( 8.750000000000000000, 0.0000000000000000000, 10.50000000000000000 ) ) ;
#280 = CARTESIAN_POINT ( 'NONE',  ( 56.25000000000000000, 0.0000000000000000000, 10.49999999999999300 ) ) ;
#281 = DIRECTION ( 'NONE',  ( -0.0000000000000000000, 1.000000000000000000, -0.0000000000000000000 ) ) ;
#282 = DIRECTION ( 'NONE',  ( 0.0000000000000000000, 0.0000000000000000000, 1.000000000000000000 ) ) ;
#283 = EDGE_CURVE ( 'NONE', #129, #159, #153, .T. ) ;
#284 = DIRECTION ( 'NONE',  ( -0.0000000000000000000, 1.000000000000000000, -0.0000000000000000000 ) ) ;
#285 = VECTOR ( 'NONE', #302, 1000.000000000000000 ) ;
#286 = APPLICATION_PROTOCOL_DEFINITION ( 'draft international standard', 'automotive_design', 1998, #287 ) ;
#287 = APPLICATION_CONTEXT ( 'automotive_design' ) ;
#288 = EDGE_LOOP ( 'NONE', ( #126, #247, #304, #51 ) ) ;
#289 = ORIENTED_EDGE ( 'NONE', *, *, #79, .F. ) ;
#290 = ORIENTED_EDGE ( 'NONE', *, *, #313, .T. ) ;
#291 = DIRECTION ( 'NONE',  ( 0.0000000000000000000, 1.000000000000000000, 0.0000000000000000000 ) ) ;
#292 = VECTOR ( 'NONE', #248, 1000.000000000000000 ) ;
#293 = EDGE_LOOP ( 'NONE', ( #240, #65 ) ) ;
#294 = ORIENTED_EDGE ( 'NONE', *, *, #205, .F. ) ;
#295 = CARTESIAN_POINT ( 'NONE',  ( 8.750000000000000000, 40.00000000000000000, 7.000000000000000000 ) ) ;
#296 = CARTESIAN_POINT ( 'NONE',  ( 8.750000000000000000, 0.0000000000000000000, 3.500000000000000000 ) ) ;
#297 = SURFACE_STYLE_FILL_AREA ( #24 ) ;
#298 = CARTESIAN_POINT ( 'NONE',  ( 65.00000000000000000, 40.00000000000000000, 14.00000000000000000 ) ) ;
#299 = DIRECTION ( 'NONE',  ( -0.0000000000000000000, -0.0000000000000000000, -1.000000000000000000 ) ) ;
#300 = PRODUCT_DEFINITION ( 'UNKNOWN', '', #49, #43 ) ;
#301 = LINE ( 'NONE', #173, #59 ) ;
#302 = DIRECTION ( 'NONE',  ( 0.0000000000000000000, 1.000000000000000000, 0.0000000000000000000 ) ) ;
#303 = DIRECTION ( 'NONE',  ( 0.0000000000000000000, 0.0000000000000000000, 1.000000000000000000 ) ) ;
#304 = ORIENTED_EDGE ( 'NONE', *, *, #133, .T. ) ;
#305 = CARTESIAN_POINT ( 'NONE',  ( 56.25000000000000000, 40.00000000000000000, 6.999999999999993800 ) ) ;
#306 = CARTESIAN_POINT ( 'NONE',  ( 0.0000000000000000000, 0.0000000000000000000, 0.0000000000000000000 ) ) ;
#307 = FACE_BOUND ( 'NONE', #310, .T. ) ;
#308 = DIRECTION ( 'NONE',  ( 0.0000000000000000000, 0.0000000000000000000, 1.000000000000000000 ) ) ;
#309 = PRODUCT_CONTEXT ( 'NONE', #203, 'mechanical' ) ;
#310 = EDGE_LOOP ( 'NONE', ( #268, #6 ) ) ;
#311 = VERTEX_POINT ( 'NONE', #335 ) ;
#312 = EDGE_LOOP ( 'NONE', ( #332, #120, #237, #196 ) ) ;
#313 = EDGE_CURVE ( 'NONE', #172, #15, #337, .T. ) ;
#314 = CYLINDRICAL_SURFACE ( 'NONE', #277, 3.500000000000000400 ) ;
#315 = FACE_OUTER_BOUND ( 'NONE', #11, .T. ) ;
#316 = DIRECTION ( 'NONE',  ( -0.0000000000000000000, 1.000000000000000000, -0.0000000000000000000 ) ) ;
#317 = EDGE_CURVE ( 'NONE', #112, #136, #252, .T. ) ;
#318 = VERTEX_POINT ( 'NONE', #184 ) ;
#319 = DIRECTION ( 'NONE',  ( 0.0000000000000000000, 0.0000000000000000000, -1.000000000000000000 ) ) ;
#320 = VECTOR ( 'NONE', #256, 1000.000000000000000 ) ;
#321 = DIRECTION ( 'NONE',  ( -1.000000000000000000, 0.0000000000000000000, -0.0000000000000000000 ) ) ;
#322 = PRODUCT ( 'Rallonges', 'Rallonges', '', ( #309 ) ) ;
#323 = FACE_BOUND ( 'NONE', #132, .T. ) ;
#324 = FILL_AREA_STYLE_COLOUR ( '', #61 ) ;
#325 = MECHANICAL_DESIGN_GEOMETRIC_PRESENTATION_REPRESENTATION (  '', ( #278 ), #245 ) ;
#326 = DIRECTION ( 'NONE',  ( 0.0000000000000000000, 1.000000000000000000, 0.0000000000000000000 ) ) ;
#327 = CARTESIAN_POINT ( 'NONE',  ( 56.25000000000000000, 0.0000000000000000000, 6.999999999999993800 ) ) ;
#328 = VERTEX_POINT ( 'NONE', #235 ) ;
#329 = DIRECTION ( 'NONE',  ( 0.0000000000000000000, -1.000000000000000000, 0.0000000000000000000 ) ) ;
#330 = EDGE_CURVE ( 'NONE', #154, #274, #82, .T. ) ;
#331 = PRESENTATION_STYLE_ASSIGNMENT (( #156 ) ) ;
#332 = ORIENTED_EDGE ( 'NONE', *, *, #233, .T. ) ;
#333 = ORIENTED_EDGE ( 'NONE', *, *, #8, .T. ) ;
#334 = AXIS2_PLACEMENT_3D ( 'NONE', #64, #251, #201 ) ;
#335 = CARTESIAN_POINT ( 'NONE',  ( 56.25000000000000000, 0.0000000000000000000, 3.499999999999994200 ) ) ;
#336 =( GEOMETRIC_REPRESENTATION_CONTEXT ( 3 ) GLOBAL_UNCERTAINTY_ASSIGNED_CONTEXT ( ( #239 ) ) GLOBAL_UNIT_ASSIGNED_CONTEXT ( ( #93, #276, #170 ) ) REPRESENTATION_CONTEXT ( 'NONE', 'WORKASPACE' ) );
#337 = LINE ( 'NONE', #44, #145 ) ;
#338 = EDGE_LOOP ( 'NONE', ( #165, #289, #19, #207 ) ) ;
#339 = CIRCLE ( 'NONE', #158, 3.499999999999999600 ) ;
#340 = AXIS2_PLACEMENT_3D ( 'NONE', #85, #291, #344 ) ;
#341 = VECTOR ( 'NONE', #137, 1000.000000000000000 ) ;
#342 = ORIENTED_EDGE ( 'NONE', *, *, #231, .T. ) ;
#343 = FACE_OUTER_BOUND ( 'NONE', #312, .T. ) ;
#344 = DIRECTION ( 'NONE',  ( 0.0000000000000000000, -0.0000000000000000000, 1.000000000000000000 ) ) ;
#345 = CARTESIAN_POINT ( 'NONE',  ( 56.25000000000000000, 40.00000000000000000, 6.999999999999993800 ) ) ;
#346 = COLOUR_RGB ( '',0.7921568627450980000, 0.8196078431372548800, 0.9333333333333333500 ) ;
#347 = EDGE_LOOP ( 'NONE', ( #241, #160, #151, #227 ) ) ;
#348 = FACE_BOUND ( 'NONE', #293, .T. ) ;
#349 = DIRECTION ( 'NONE',  ( 0.0000000000000000000, 0.0000000000000000000, 1.000000000000000000 ) ) ;
#350 = FACE_OUTER_BOUND ( 'NONE', #347, .T. ) ;
ENDSEC;
END-ISO-10303-21;
