 0
SECTION
 2
ENTITIES
  0
POLYLINE
 8
Layer0
 66
     1
10
0.0
 20
 0.0
 30
0.0
70
    64
71
4
72
   1
  0
VERTEX
  8
Layer0
10
10.979200819559749
20
3.0
30
-16.061221072718872
 70
     192
  0
VERTEX
  8
Layer0
10
10.979200819559749
20
0.0
30
19.938779331065547
 70
     192
  0
VERTEX
  8
Layer0
10
10.979200819559749
20
0.0
30
-16.061221072718872
 70
     192
  0
VERTEX
  8
Layer0
10
10.979200819559749
20
3.0
30
19.938779331065547
 70
     192
  0
VERTEX
  8
Layer0
10
0.0
 20
 0.0
 30
0.0
 70
     128
 71
-1
 72
2
 73
3
  0
VERTEX
  8
Layer0
10
0.0
 20
 0.0
 30
0.0
 70
     128
 71
-2
 72
1
 73
4
  0
SEQEND
  0
POLYLINE
 8
Layer0
 66
     1
10
0.0
 20
 0.0
 30
0.0
70
    64
71
4
72
   1
  0
VERTEX
  8
Layer0
10
-11.020799180440251
20
3.0
30
19.938779331065547
 70
     192
  0
VERTEX
  8
Layer0
10
-11.020799180440251
20
0.0
30
-34.06122107271888
 70
     192
  0
VERTEX
  8
Layer0
10
-11.020799180440251
20
0.0
30
19.938779331065547
 70
     192
  0
VERTEX
  8
Layer0
10
-11.020799180440251
20
3.0
30
-34.06122107271888
 70
     192
  0
VERTEX
  8
Layer0
10
0.0
 20
 0.0
 30
0.0
 70
     128
 71
-1
 72
2
 73
3
  0
VERTEX
  8
Layer0
10
0.0
 20
 0.0
 30
0.0
 70
     128
 71
-2
 72
1
 73
4
  0
SEQEND
  0
POLYLINE
 8
Layer0
 66
     1
10
0.0
 20
 0.0
 30
0.0
70
    64
71
222
72
   1
  0
VERTEX
  8
Layer0
10
-7.890272988220199
20
3.0
30
2.0813090659073
 70
     192
  0
VERTEX
  8
Layer0
10
7.979200819559746
20
3.0
30
2.0727539272811106
 70
     192
  0
VERTEX
  8
Layer0
10
-8.02079918044025
20
3.0
30
2.0727539272811106
 70
     192
  0
VERTEX
  8
Layer0
10
7.848674627339693
20
3.0
30
2.0813090659073
 70
     192
  0
VERTEX
  8
Layer0
10
-7.761980135337731
20
3.0
30
2.1068281009920424
 70
     192
  0
VERTEX
  8
Layer0
10
7.720381774457224
20
3.0
30
2.1068281009920424
 70
     192
  0
VERTEX
  8
Layer0
10
-7.638115748075161
20
3.0
30
2.1488743947698232
 70
     192
  0
VERTEX
  8
Layer0
10
7.5965173871946545
20
3.0
30
2.1488743947698232
 70
     192
  0
VERTEX
  8
Layer0
10
-7.520799180440251
20
3.0
30
2.2067285234966714
 70
     192
  0
VERTEX
  8
Layer0
10
7.479200819559745
20
3.0
30
2.2067285234966727
 70
     192
  0
VERTEX
  8
Layer0
10
-7.412037751431529
20
3.0
30
2.2794005869898744
 70
     192
  0
VERTEX
  8
Layer0
10
7.370439390551025
20
3.0
30
2.2794005869898757
 70
     192
  0
VERTEX
  8
Layer0
10
-7.3136923992537035
20
3.0
30
2.3656471460945623
 70
     192
  0
VERTEX
  8
Layer0
10
7.272094038373198
20
3.0
30
2.365647146094564
 70
     192
  0
VERTEX
  8
Layer0
10
-7.227445840149016
20
3.0
30
2.4639924982723898
 70
     192
  0
VERTEX
  8
Layer0
10
7.18584747926851
20
3.0
30
2.4639924982723898
 70
     192
  0
VERTEX
  8
Layer0
10
-7.154773776655813
20
3.0
30
2.5727539272811097
 70
     192
  0
VERTEX
  8
Layer0
10
7.113175415775307
20
3.0
30
2.572753927281111
 70
     192
  0
VERTEX
  8
Layer0
10
-7.096919647928964
20
3.0
30
2.6900704949160192
 70
     192
  0
VERTEX
  8
Layer0
10
7.055321287048458
20
3.0
30
2.690070494916021
 70
     192
  0
VERTEX
  8
Layer0
10
-7.054873354151183
20
3.0
30
2.813934882178589
 70
     192
  0
VERTEX
  8
Layer0
10
7.013274993270678
20
3.0
30
2.8139348821785903
 70
     192
  0
VERTEX
  8
Layer0
10
-7.0293543190664405
20
3.0
30
2.9422277350610577
 70
     192
  0
VERTEX
  8
Layer0
10
6.987755958185935
20
3.0
30
2.942227735061059
 70
     192
  0
VERTEX
  8
Layer0
10
-7.0207991804402505
20
3.0
30
3.07275392728111
 70
     192
  0
VERTEX
  8
Layer0
10
6.979200819559746
20
3.0
30
3.07275392728111
 70
     192
  0
VERTEX
  8
Layer0
10
-7.0293543190664405
20
3.0
30
3.2032801195011618
 70
     192
  0
VERTEX
  8
Layer0
10
6.987755958185935
20
3.0
30
3.2032801195011618
 70
     192
  0
VERTEX
  8
Layer0
10
-7.054873354151183
20
3.0
30
3.3315729723836305
 70
     192
  0
VERTEX
  8
Layer0
10
7.013274993270678
20
3.0
30
3.331572972383632
 70
     192
  0
VERTEX
  8
Layer0
10
-7.096919647928964
20
3.0
30
3.4554373596462
 70
     192
  0
VERTEX
  8
Layer0
10
7.055321287048458
20
3.0
30
3.4554373596462
 70
     192
  0
VERTEX
  8
Layer0
10
-7.154773776655811
20
3.0
30
3.5727539272811093
 70
     192
  0
VERTEX
  8
Layer0
10
7.113175415775307
20
3.0
30
3.5727539272811106
 70
     192
  0
VERTEX
  8
Layer0
10
-7.227445840149015
20
3.0
30
3.6815153562898297
 70
     192
  0
VERTEX
  8
Layer0
10
7.185847479268511
20
3.0
30
3.681515356289831
 70
     192
  0
VERTEX
  8
Layer0
10
-7.313692399253703
20
3.0
30
3.779860708467658
 70
     192
  0
VERTEX
  8
Layer0
10
7.272094038373198
20
3.0
30
3.779860708467658
 70
     192
  0
VERTEX
  8
Layer0
10
-7.412037751431529
20
3.0
30
3.8661072675723465
 70
     192
  0
VERTEX
  8
Layer0
10
7.370439390551025
20
3.0
30
3.8661072675723465
 70
     192
  0
VERTEX
  8
Layer0
10
-7.52079918044025
20
3.0
30
3.9387793310655494
 70
     192
  0
VERTEX
  8
Layer0
10
7.479200819559747
20
3.0
30
3.9387793310655494
 70
     192
  0
VERTEX
  8
Layer0
10
-2.9133434240296765
20
3.0
30
13.99157933703015
 70
     192
  0
VERTEX
  8
Layer0
10
-3.4679991744756506
20
3.0
30
14.546235087476123
 70
     192
  0
VERTEX
  8
Layer0
10
-3.917913497470223
20
3.0
30
15.188779331065552
 70
     192
  0
VERTEX
  8
Layer0
10
-7.520799180440249
20
3.0
30
22.43877933106555
 70
     192
  0
VERTEX
  8
Layer0
10
-2.2707991804402496
20
3.0
30
13.541665014035576
 70
     192
  0
VERTEX
  8
Layer0
10
-1.559889825405759
20
3.0
30
13.210162537528964
 70
     192
  0
VERTEX
  8
Layer0
10
-0.8022159799414359
20
3.0
30
13.007144442510615
 70
     192
  0
VERTEX
  8
Layer0
10
-0.020799180440249334
20
3.0
30
12.93877933106555
 70
     192
  0
VERTEX
  8
Layer0
10
-4.249415973976837
20
3.0
30
15.89968868610004
 70
     192
  0
VERTEX
  8
Layer0
10
-4.452434068995185
20
3.0
30
16.657362531564363
 70
     192
  0
VERTEX
  8
Layer0
10
-4.520799180440249
20
3.0
30
17.438779331065554
 70
     192
  0
VERTEX
  8
Layer0
10
-4.520799180440249
20
3.0
30
22.43877933106555
 70
     192
  0
VERTEX
  8
Layer0
10
-7.492259416128342
20
3.0
30
23.092447401672988
 70
     192
  0
VERTEX
  8
Layer0
10
-4.452434068995185
20
3.0
30
23.220196130566737
 70
     192
  0
VERTEX
  8
Layer0
10
-7.406857328031808
20
3.0
30
23.741140663567528
 70
     192
  0
VERTEX
  8
Layer0
10
-4.249415973976836
20
3.0
30
23.977869976031062
 70
     192
  0
VERTEX
  8
Layer0
10
-7.2652428776082605
20
3.0
30
24.379922169334453
 70
     192
  0
VERTEX
  8
Layer0
10
-3.9179134974702214
20
3.0
30
24.68877933106555
 70
     192
  0
VERTEX
  8
Layer0
10
-7.068493836334563
20
3.0
30
25.003930406008063
 70
     192
  0
VERTEX
  8
Layer0
10
-3.4679991744756498
20
3.0
30
25.331323574654977
 70
     192
  0
VERTEX
  8
Layer0
10
-6.818107583215124
20
3.0
30
25.608416294120797
 70
     192
  0
VERTEX
  8
Layer0
10
-2.913343424029676
20
3.0
30
25.88597932510095
 70
     192
  0
VERTEX
  8
Layer0
10
-6.515989708823539
20
3.0
30
26.188779331065547
 70
     192
  0
VERTEX
  8
Layer0
10
-2.270799180440249
20
3.0
30
26.335893648095524
 70
     192
  0
VERTEX
  8
Layer0
10
-6.164439512607688
20
3.0
30
26.74060260369839
 70
     192
  0
VERTEX
  8
Layer0
10
-1.559889825405756
20
3.0
30
26.66739612460214
 70
     192
  0
VERTEX
  8
Layer0
10
-0.8022159799414338
20
3.0
30
26.870414219620486
 70
     192
  0
VERTEX
  8
Layer0
10
-5.766132503832585
20
3.0
30
27.259686403714593
 70
     192
  0
VERTEX
  8
Layer0
10
-0.020799180440248234
20
3.0
30
26.938779331065554
 70
     192
  0
VERTEX
  8
Layer0
10
3.8763151365897253
20
3.0
30
15.188779331065552
 70
     192
  0
VERTEX
  8
Layer0
10
7.479200819559747
20
3.0
30
22.438779331065568
 70
     192
  0
VERTEX
  8
Layer0
10
3.4264008135951523
20
3.0
30
14.546235087476123
 70
     192
  0
VERTEX
  8
Layer0
10
2.8717450631491777
20
3.0
30
13.991579337030148
 70
     192
  0
VERTEX
  8
Layer0
10
2.22920081955975
20
3.0
30
13.541665014035575
 70
     192
  0
VERTEX
  8
Layer0
10
1.5182914645252603
20
3.0
30
13.210162537528964
 70
     192
  0
VERTEX
  8
Layer0
10
0.7606176190609373
20
3.0
30
13.007144442510615
 70
     192
  0
VERTEX
  8
Layer0
10
4.207817613096339
20
3.0
30
15.89968868610004
 70
     192
  0
VERTEX
  8
Layer0
10
4.410835708114687
20
3.0
30
16.65736253156436
 70
     192
  0
VERTEX
  8
Layer0
10
4.479200819559751
20
3.0
30
17.438779331065554
 70
     192
  0
VERTEX
  8
Layer0
10
4.479200819559751
20
3.0
30
22.43877933106555
 70
     192
  0
VERTEX
  8
Layer0
10
4.410835708114687
20
3.0
30
23.220196130566734
 70
     192
  0
VERTEX
  8
Layer0
10
7.450661055247835
20
3.0
30
23.092447401673
 70
     192
  0
VERTEX
  8
Layer0
10
7.365258967151304
20
3.0
30
23.741140663567542
 70
     192
  0
VERTEX
  8
Layer0
10
4.207817613096339
20
3.0
30
23.977869976031055
 70
     192
  0
VERTEX
  8
Layer0
10
7.223644516727753
20
3.0
30
24.37992216933447
 70
     192
  0
VERTEX
  8
Layer0
10
3.876315136589726
20
3.0
30
24.68877933106555
 70
     192
  0
VERTEX
  8
Layer0
10
7.026895475454055
20
3.0
30
25.003930406008074
 70
     192
  0
VERTEX
  8
Layer0
10
3.4264008135951527
20
3.0
30
25.331323574654977
 70
     192
  0
VERTEX
  8
Layer0
10
6.7765092223346155
20
3.0
30
25.608416294120808
 70
     192
  0
VERTEX
  8
Layer0
10
2.8717450631491794
20
3.0
30
25.88597932510095
 70
     192
  0
VERTEX
  8
Layer0
10
6.474391347943029
20
3.0
30
26.18877933106556
 70
     192
  0
VERTEX
  8
Layer0
10
2.229200819559753
20
3.0
30
26.335893648095524
 70
     192
  0
VERTEX
  8
Layer0
10
6.122841151727179
20
3.0
30
26.740602603698406
 70
     192
  0
VERTEX
  8
Layer0
10
1.518291464525263
20
3.0
30
26.66739612460214
 70
     192
  0
VERTEX
  8
Layer0
10
0.7606176190609375
20
3.0
30
26.870414219620486
 70
     192
  0
VERTEX
  8
Layer0
10
5.724534142952074
20
3.0
30
27.259686403714603
 70
     192
  0
VERTEX
  8
Layer0
10
-5.324100039339355
20
3.0
30
27.742080189964653
 70
     192
  0
VERTEX
  8
Layer0
10
5.282501678458845
20
3.0
30
27.742080189964664
 70
     192
  0
VERTEX
  8
Layer0
10
-4.841706253089295
20
3.0
30
28.18411265445788
 70
     192
  0
VERTEX
  8
Layer0
10
4.800107892208784
20
3.0
30
28.184112654457888
 70
     192
  0
VERTEX
  8
Layer0
10
-4.322622453073096
20
3.0
30
28.582419663232983
 70
     192
  0
VERTEX
  8
Layer0
10
4.2810240921925855
20
3.0
30
28.58241966323299
 70
     192
  0
VERTEX
  8
Layer0
10
-3.7707991804402505
20
3.0
30
28.933969859448833
 70
     192
  0
VERTEX
  8
Layer0
10
3.72920081955974
20
3.0
30
28.93396985944884
 70
     192
  0
VERTEX
  8
Layer0
10
-3.1904361434954964
20
3.0
30
29.23608773384042
 70
     192
  0
VERTEX
  8
Layer0
10
3.1488377826149865
20
3.0
30
29.236087733840428
 70
     192
  0
VERTEX
  8
Layer0
10
-2.5859502553827682
20
3.0
30
29.48647398695986
 70
     192
  0
VERTEX
  8
Layer0
10
2.544351894502255
20
3.0
30
29.48647398695986
 70
     192
  0
VERTEX
  8
Layer0
10
-1.9619420187091594
20
3.0
30
29.683223028233563
 70
     192
  0
VERTEX
  8
Layer0
10
1.9203436578286466
20
3.0
30
29.683223028233563
 70
     192
  0
VERTEX
  8
Layer0
10
-1.3231605129422321
20
3.0
30
29.824837478657106
 70
     192
  0
VERTEX
  8
Layer0
10
1.2815621520617193
20
3.0
30
29.824837478657106
 70
     192
  0
VERTEX
  8
Layer0
10
-0.6744672510476919
20
3.0
30
29.910239566753642
 70
     192
  0
VERTEX
  8
Layer0
10
0.6328688901671787
20
3.0
30
29.910239566753642
 70
     192
  0
VERTEX
  8
Layer0
10
-0.02079918044025663
20
3.0
30
29.938779331065547
 70
     192
  0
VERTEX
  8
Layer0
10
-0.9795123506644995
20
3.0
30
-45.019362751728075
 70
     192
  0
VERTEX
  8
Layer0
10
0.9379139897839779
20
3.0
30
-45.01936275172808
 70
     192
  0
VERTEX
  8
Layer0
10
-0.020799180440260998
20
3.0
30
-45.06122107271888
 70
     192
  0
VERTEX
  8
Layer0
10
1.8893307738959708
20
3.0
30
-44.89410635585317
 70
     192
  0
VERTEX
  8
Layer0
10
-1.9309291347764925
20
3.0
30
-44.89410635585317
 70
     192
  0
VERTEX
  8
Layer0
10
2.8262103156874647
20
3.0
30
-44.686405161898634
 70
     192
  0
VERTEX
  8
Layer0
10
-2.8678086765679858
20
3.0
30
-44.68640516189863
 70
     192
  0
VERTEX
  8
Layer0
10
3.741422396142091
20
3.0
30
-44.397839901363874
 70
     192
  0
VERTEX
  8
Layer0
10
-3.783020757022612
20
3.0
30
-44.397839901363874
 70
     192
  0
VERTEX
  8
Layer0
10
-4.669600059587949
20
3.0
30
-44.03060673012203
 70
     192
  0
VERTEX
  8
Layer0
10
4.628001698707431
20
3.0
30
-44.03060673012203
 70
     192
  0
VERTEX
  8
Layer0
10
-5.520799180440254
20
3.0
30
-43.5875005143477
 70
     192
  0
VERTEX
  8
Layer0
10
5.479200819559735
20
3.0
30
-43.58750051434771
 70
     192
  0
VERTEX
  8
Layer0
10
6.288541619421243
20
3.0
30
-43.071893559897795
 70
     192
  0
VERTEX
  8
Layer0
10
-6.330139980301761
20
3.0
30
-43.07189355989779
 70
     192
  0
VERTEX
  8
Layer0
10
7.049864526111669
20
3.0
30
-42.487709947027646
 70
     192
  0
VERTEX
  8
Layer0
10
-7.091462886992185
20
3.0
30
-42.48770994702764
 70
     192
  0
VERTEX
  8
Layer0
10
7.7573754126117604
20
3.0
30
-41.83939566577091
 70
     192
  0
VERTEX
  8
Layer0
10
-0.02079918044025088
20
3.0
30
-42.06122107271887
 70
     192
  0
VERTEX
  8
Layer0
10
0.7606176190609361
20
3.0
30
-41.99285596127381
 70
     192
  0
VERTEX
  8
Layer0
10
1.5182914645252594
20
3.0
30
-41.78983786625546
 70
     192
  0
VERTEX
  8
Layer0
10
8.405689693868494
20
3.0
30
-41.13188477927083
 70
     192
  0
VERTEX
  8
Layer0
10
2.2292008195597504
20
3.0
30
-41.458335389748854
 70
     192
  0
VERTEX
  8
Layer0
10
2.8717450631491777
20
3.0
30
-41.00842106675428
 70
     192
  0
VERTEX
  8
Layer0
10
8.989873306738648
20
3.0
30
-40.3705618725804
 70
     192
  0
VERTEX
  8
Layer0
10
3.4264008135951523
20
3.0
30
-40.4537653163083
 70
     192
  0
VERTEX
  8
Layer0
10
3.8763151365897253
20
3.0
30
-39.81122107271887
 70
     192
  0
VERTEX
  8
Layer0
10
9.505480261188563
20
3.0
30
-39.561221072718894
 70
     192
  0
VERTEX
  8
Layer0
10
4.207817613096339
20
3.0
30
-39.100311717684384
 70
     192
  0
VERTEX
  8
Layer0
10
9.94858647696289
20
3.0
30
-38.710021951866594
 70
     192
  0
VERTEX
  8
Layer0
10
4.410835708114688
20
3.0
30
-38.34263787222006
 70
     192
  0
VERTEX
  8
Layer0
10
10.315819648204734
20
3.0
30
-37.823442649301256
 70
     192
  0
VERTEX
  8
Layer0
10
4.479200819559752
20
3.0
30
-37.56122107271887
 70
     192
  0
VERTEX
  8
Layer0
10
10.604384908739494
20
3.0
30
-36.908230568846626
 70
     192
  0
VERTEX
  8
Layer0
10
4.4792008195597495
20
3.0
30
-32.56122107271887
 70
     192
  0
VERTEX
  8
Layer0
10
10.812086102694032
20
3.0
30
-35.971351027055135
 70
     192
  0
VERTEX
  8
Layer0
10
10.937342498568947
20
3.0
30
-35.019934242943144
 70
     192
  0
VERTEX
  8
Layer0
10
10.979200819559749
20
3.0
30
-34.06122107271891
 70
     192
  0
VERTEX
  8
Layer0
10
10.979200819559749
20
3.0
30
-22.06122107271888
 70
     192
  0
VERTEX
  8
Layer0
10
4.410835708114686
20
3.0
30
-31.779804273217685
 70
     192
  0
VERTEX
  8
Layer0
10
4.207817613096337
20
3.0
30
-31.022130427753364
 70
     192
  0
VERTEX
  8
Layer0
10
3.876315136589724
20
3.0
30
-30.31122107271887
 70
     192
  0
VERTEX
  8
Layer0
10
3.426400813595151
20
3.0
30
-29.668676829129442
 70
     192
  0
VERTEX
  8
Layer0
10
2.8717450631491777
20
3.0
30
-29.11402107868347
 70
     192
  0
VERTEX
  8
Layer0
10
2.2292008195597512
20
3.0
30
-28.6641067556889
 70
     192
  0
VERTEX
  8
Layer0
10
1.5182914645252612
20
3.0
30
-28.33260427918228
 70
     192
  0
VERTEX
  8
Layer0
10
0.7606176190609356
20
3.0
30
-28.129586184163934
 70
     192
  0
VERTEX
  8
Layer0
10
-0.020799180440250056
20
3.0
30
-28.061221072718865
 70
     192
  0
VERTEX
  8
Layer0
10
-7.798973773492273
20
3.0
30
-41.8393956657709
 70
     192
  0
VERTEX
  8
Layer0
10
-0.802215979941438
20
3.0
30
-41.99285596127381
 70
     192
  0
VERTEX
  8
Layer0
10
-1.559889825405764
20
3.0
30
-41.78983786625546
 70
     192
  0
VERTEX
  8
Layer0
10
-8.44728805474901
20
3.0
30
-41.13188477927081
 70
     192
  0
VERTEX
  8
Layer0
10
-2.2707991804402545
20
3.0
30
-41.45833538974885
 70
     192
  0
VERTEX
  8
Layer0
10
-2.9133434240296814
20
3.0
30
-41.00842106675428
 70
     192
  0
VERTEX
  8
Layer0
10
-9.031471667619162
20
3.0
30
-40.37056187258038
 70
     192
  0
VERTEX
  8
Layer0
10
-3.4679991744756546
20
3.0
30
-40.4537653163083
 70
     192
  0
VERTEX
  8
Layer0
10
-3.917913497470227
20
3.0
30
-39.81122107271887
 70
     192
  0
VERTEX
  8
Layer0
10
-9.547078622069076
20
3.0
30
-39.56122107271888
 70
     192
  0
VERTEX
  8
Layer0
10
-4.249415973976842
20
3.0
30
-39.10031171768438
 70
     192
  0
VERTEX
  8
Layer0
10
-9.990184837843401
20
3.0
30
-38.71002195186657
 70
     192
  0
VERTEX
  8
Layer0
10
-4.45243406899519
20
3.0
30
-38.34263787222005
 70
     192
  0
VERTEX
  8
Layer0
10
-10.357418009085245
20
3.0
30
-37.823442649301235
 70
     192
  0
VERTEX
  8
Layer0
10
-4.520799180440254
20
3.0
30
-37.56122107271887
 70
     192
  0
VERTEX
  8
Layer0
10
-10.645983269620004
20
3.0
30
-36.908230568846605
 70
     192
  0
VERTEX
  8
Layer0
10
-4.520799180440251
20
3.0
30
-32.56122107271887
 70
     192
  0
VERTEX
  8
Layer0
10
-10.85368446357454
20
3.0
30
-35.971351027055114
 70
     192
  0
VERTEX
  8
Layer0
10
-10.978940859449452
20
3.0
30
-35.019934242943116
 70
     192
  0
VERTEX
  8
Layer0
10
-11.020799180440251
20
3.0
30
-34.06122107271888
 70
     192
  0
VERTEX
  8
Layer0
10
-9.01224404181406
20
3.0
30
2.942227735061059
 70
     192
  0
VERTEX
  8
Layer0
10
-11.020799180440251
20
3.0
30
19.938779331065547
 70
     192
  0
VERTEX
  8
Layer0
10
-4.452434068995188
20
3.0
30
-31.77980427321768
 70
     192
  0
VERTEX
  8
Layer0
10
-4.249415973976838
20
3.0
30
-31.022130427753357
 70
     192
  0
VERTEX
  8
Layer0
10
-3.9179134974702237
20
3.0
30
-30.31122107271887
 70
     192
  0
VERTEX
  8
Layer0
10
-3.467999174475652
20
3.0
30
-29.668676829129442
 70
     192
  0
VERTEX
  8
Layer0
10
-2.913343424029678
20
3.0
30
-29.11402107868347
 70
     192
  0
VERTEX
  8
Layer0
10
-8.986725006729317
20
3.0
30
2.8139348821785903
 70
     192
  0
VERTEX
  8
Layer0
10
-2.270799180440251
20
3.0
30
-28.6641067556889
 70
     192
  0
VERTEX
  8
Layer0
10
-1.5598898254057578
20
3.0
30
-28.33260427918228
 70
     192
  0
VERTEX
  8
Layer0
10
-0.8022159799414356
20
3.0
30
-28.129586184163934
 70
     192
  0
VERTEX
  8
Layer0
10
-8.944678712951537
20
3.0
30
2.690070494916021
 70
     192
  0
VERTEX
  8
Layer0
10
-8.886824584224689
20
3.0
30
2.572753927281111
 70
     192
  0
VERTEX
  8
Layer0
10
-8.814152520731486
20
3.0
30
2.4639924982723898
 70
     192
  0
VERTEX
  8
Layer0
10
-8.727905961626798
20
3.0
30
2.3656471460945623
 70
     192
  0
VERTEX
  8
Layer0
10
10.979200819559749
20
3.0
30
-16.061221072718872
 70
     192
  0
VERTEX
  8
Layer0
10
-8.629560609448971
20
3.0
30
2.2794005869898757
 70
     192
  0
VERTEX
  8
Layer0
10
-8.520799180440251
20
3.0
30
2.2067285234966714
 70
     192
  0
VERTEX
  8
Layer0
10
-8.40348261280534
20
3.0
30
2.1488743947698232
 70
     192
  0
VERTEX
  8
Layer0
10
-8.279618225542771
20
3.0
30
2.1068281009920424
 70
     192
  0
VERTEX
  8
Layer0
10
-8.151325372660303
20
3.0
30
2.0813090659073
 70
     192
  0
VERTEX
  8
Layer0
10
-9.02079918044025
20
3.0
30
3.07275392728111
 70
     192
  0
VERTEX
  8
Layer0
10
-9.02079918044025
20
3.0
30
19.938779331065547
 70
     192
  0
VERTEX
  8
Layer0
10
8.970645680933556
20
3.0
30
2.9422277350610577
 70
     192
  0
VERTEX
  8
Layer0
10
10.979200819559749
20
3.0
30
19.938779331065547
 70
     192
  0
VERTEX
  8
Layer0
10
8.945126645848813
20
3.0
30
2.813934882178589
 70
     192
  0
VERTEX
  8
Layer0
10
8.903080352071033
20
3.0
30
2.6900704949160192
 70
     192
  0
VERTEX
  8
Layer0
10
8.845226223344184
20
3.0
30
2.5727539272811097
 70
     192
  0
VERTEX
  8
Layer0
10
8.77255415985098
20
3.0
30
2.4639924982723898
 70
     192
  0
VERTEX
  8
Layer0
10
8.686307600746293
20
3.0
30
2.3656471460945623
 70
     192
  0
VERTEX
  8
Layer0
10
8.587962248568465
20
3.0
30
2.2794005869898744
 70
     192
  0
VERTEX
  8
Layer0
10
8.479200819559745
20
3.0
30
2.2067285234966714
 70
     192
  0
VERTEX
  8
Layer0
10
8.361884251924835
20
3.0
30
2.1488743947698232
 70
     192
  0
VERTEX
  8
Layer0
10
8.238019864662265
20
3.0
30
2.1068281009920424
 70
     192
  0
VERTEX
  8
Layer0
10
8.109727011779796
20
3.0
30
2.0813090659073
 70
     192
  0
VERTEX
  8
Layer0
10
8.979200819559745
20
3.0
30
3.07275392728111
 70
     192
  0
VERTEX
  8
Layer0
10
8.979200819559745
20
3.0
30
19.938779331065547
 70
     192
  0
VERTEX
  8
Layer0
10
0.0
 20
 0.0
 30
0.0
 70
     128
 71
-1
 72
-2
 73
3
  0
VERTEX
  8
Layer0
10
0.0
 20
 0.0
 30
0.0
 70
     128
 71
-2
 72
-1
 73
4
  0
VERTEX
  8
Layer0
10
0.0
 20
 0.0
 30
0.0
 70
     128
 71
-4
 72
1
 73
-5
  0
VERTEX
  8
Layer0
10
0.0
 20
 0.0
 30
0.0
 70
     128
 71
-4
 72
-5
 73
6
  0
VERTEX
  8
Layer0
10
0.0
 20
 0.0
 30
0.0
 70
     128
 71
-6
 72
5
 73
-7
  0
VERTEX
  8
Layer0
10
0.0
 20
 0.0
 30
0.0
 70
     128
 71
-6
 72
-7
 73
8
  0
VERTEX
  8
Layer0
10
0.0
 20
 0.0
 30
0.0
 70
     128
 71
-8
 72
7
 73
-9
  0
VERTEX
  8
Layer0
10
0.0
 20
 0.0
 30
0.0
 70
     128
 71
-8
 72
-9
 73
10
  0
VERTEX
  8
Layer0
10
0.0
 20
 0.0
 30
0.0
 70
     128
 71
-10
 72
9
 73
-11
  0
VERTEX
  8
Layer0
10
0.0
 20
 0.0
 30
0.0
 70
     128
 71
-10
 72
-11
 73
12
  0
VERTEX
  8
Layer0
10
0.0
 20
 0.0
 30
0.0
 70
     128
 71
-12
 72
11
 73
-13
  0
VERTEX
  8
Layer0
10
0.0
 20
 0.0
 30
0.0
 70
     128
 71
-12
 72
-13
 73
14
  0
VERTEX
  8
Layer0
10
0.0
 20
 0.0
 30
0.0
 70
     128
 71
-14
 72
13
 73
-15
  0
VERTEX
  8
Layer0
10
0.0
 20
 0.0
 30
0.0
 70
     128
 71
-14
 72
-15
 73
16
  0
VERTEX
  8
Layer0
10
0.0
 20
 0.0
 30
0.0
 70
     128
 71
-16
 72
15
 73
-17
  0
VERTEX
  8
Layer0
10
0.0
 20
 0.0
 30
0.0
 70
     128
 71
-16
 72
-17
 73
18
  0
VERTEX
  8
Layer0
10
0.0
 20
 0.0
 30
0.0
 70
     128
 71
-18
 72
17
 73
-19
  0
VERTEX
  8
Layer0
10
0.0
 20
 0.0
 30
0.0
 70
     128
 71
-18
 72
-19
 73
20
  0
VERTEX
  8
Layer0
10
0.0
 20
 0.0
 30
0.0
 70
     128
 71
-20
 72
19
 73
-21
  0
VERTEX
  8
Layer0
10
0.0
 20
 0.0
 30
0.0
 70
     128
 71
-20
 72
-21
 73
22
  0
VERTEX
  8
Layer0
10
0.0
 20
 0.0
 30
0.0
 70
     128
 71
-22
 72
21
 73
-23
  0
VERTEX
  8
Layer0
10
0.0
 20
 0.0
 30
0.0
 70
     128
 71
-22
 72
-23
 73
24
  0
VERTEX
  8
Layer0
10
0.0
 20
 0.0
 30
0.0
 70
     128
 71
-24
 72
23
 73
-25
  0
VERTEX
  8
Layer0
10
0.0
 20
 0.0
 30
0.0
 70
     128
 71
-24
 72
-25
 73
26
  0
VERTEX
  8
Layer0
10
0.0
 20
 0.0
 30
0.0
 70
     128
 71
-26
 72
25
 73
-27
  0
VERTEX
  8
Layer0
10
0.0
 20
 0.0
 30
0.0
 70
     128
 71
-26
 72
-27
 73
28
  0
VERTEX
  8
Layer0
10
0.0
 20
 0.0
 30
0.0
 70
     128
 71
-28
 72
27
 73
-29
  0
VERTEX
  8
Layer0
10
0.0
 20
 0.0
 30
0.0
 70
     128
 71
-28
 72
-29
 73
30
  0
VERTEX
  8
Layer0
10
0.0
 20
 0.0
 30
0.0
 70
     128
 71
-30
 72
29
 73
-31
  0
VERTEX
  8
Layer0
10
0.0
 20
 0.0
 30
0.0
 70
     128
 71
-30
 72
-31
 73
32
  0
VERTEX
  8
Layer0
10
0.0
 20
 0.0
 30
0.0
 70
     128
 71
-32
 72
31
 73
-33
  0
VERTEX
  8
Layer0
10
0.0
 20
 0.0
 30
0.0
 70
     128
 71
-32
 72
-33
 73
34
  0
VERTEX
  8
Layer0
10
0.0
 20
 0.0
 30
0.0
 70
     128
 71
-34
 72
33
 73
-35
  0
VERTEX
  8
Layer0
10
0.0
 20
 0.0
 30
0.0
 70
     128
 71
-34
 72
-35
 73
36
  0
VERTEX
  8
Layer0
10
0.0
 20
 0.0
 30
0.0
 70
     128
 71
-36
 72
35
 73
-37
  0
VERTEX
  8
Layer0
10
0.0
 20
 0.0
 30
0.0
 70
     128
 71
-36
 72
-37
 73
38
  0
VERTEX
  8
Layer0
10
0.0
 20
 0.0
 30
0.0
 70
     128
 71
-38
 72
37
 73
-39
  0
VERTEX
  8
Layer0
10
0.0
 20
 0.0
 30
0.0
 70
     128
 71
-38
 72
-39
 73
40
  0
VERTEX
  8
Layer0
10
0.0
 20
 0.0
 30
0.0
 70
     128
 71
-40
 72
39
 73
-41
  0
VERTEX
  8
Layer0
10
0.0
 20
 0.0
 30
0.0
 70
     128
 71
-40
 72
-41
 73
42
  0
VERTEX
  8
Layer0
10
0.0
 20
 0.0
 30
0.0
 70
     128
 71
-42
 72
-41
 73
-43
  0
VERTEX
  8
Layer0
10
0.0
 20
 0.0
 30
0.0
 70
     128
 71
-43
 72
-41
 73
44
  0
VERTEX
  8
Layer0
10
0.0
 20
 0.0
 30
0.0
 70
     128
 71
-44
 72
-41
 73
45
  0
VERTEX
  8
Layer0
10
0.0
 20
 0.0
 30
0.0
 70
     128
 71
-45
 72
41
 73
-46
  0
VERTEX
  8
Layer0
10
0.0
 20
 0.0
 30
0.0
 70
     128
 71
-42
 72
43
 73
-47
  0
VERTEX
  8
Layer0
10
0.0
 20
 0.0
 30
0.0
 70
     128
 71
-42
 72
47
 73
-48
  0
VERTEX
  8
Layer0
10
0.0
 20
 0.0
 30
0.0
 70
     128
 71
-42
 72
48
 73
-49
  0
VERTEX
  8
Layer0
10
0.0
 20
 0.0
 30
0.0
 70
     128
 71
-42
 72
49
 73
-50
  0
VERTEX
  8
Layer0
10
0.0
 20
 0.0
 30
0.0
 70
     128
 71
-45
 72
-46
 73
51
  0
VERTEX
  8
Layer0
10
0.0
 20
 0.0
 30
0.0
 70
     128
 71
-51
 72
-46
 73
52
  0
VERTEX
  8
Layer0
10
0.0
 20
 0.0
 30
0.0
 70
     128
 71
-52
 72
-46
 73
53
  0
VERTEX
  8
Layer0
10
0.0
 20
 0.0
 30
0.0
 70
     128
 71
-53
 72
-46
 73
54
  0
VERTEX
  8
Layer0
10
0.0
 20
 0.0
 30
0.0
 70
     128
 71
-54
 72
46
 73
-55
  0
VERTEX
  8
Layer0
10
0.0
 20
 0.0
 30
0.0
 70
     128
 71
-54
 72
-55
 73
56
  0
VERTEX
  8
Layer0
10
0.0
 20
 0.0
 30
0.0
 70
     128
 71
-56
 72
55
 73
-57
  0
VERTEX
  8
Layer0
10
0.0
 20
 0.0
 30
0.0
 70
     128
 71
-56
 72
-57
 73
58
  0
VERTEX
  8
Layer0
10
0.0
 20
 0.0
 30
0.0
 70
     128
 71
-58
 72
57
 73
-59
  0
VERTEX
  8
Layer0
10
0.0
 20
 0.0
 30
0.0
 70
     128
 71
-58
 72
-59
 73
60
  0
VERTEX
  8
Layer0
10
0.0
 20
 0.0
 30
0.0
 70
     128
 71
-60
 72
59
 73
-61
  0
VERTEX
  8
Layer0
10
0.0
 20
 0.0
 30
0.0
 70
     128
 71
-60
 72
-61
 73
62
  0
VERTEX
  8
Layer0
10
0.0
 20
 0.0
 30
0.0
 70
     128
 71
-62
 72
61
 73
-63
  0
VERTEX
  8
Layer0
10
0.0
 20
 0.0
 30
0.0
 70
     128
 71
-62
 72
-63
 73
64
  0
VERTEX
  8
Layer0
10
0.0
 20
 0.0
 30
0.0
 70
     128
 71
-64
 72
63
 73
-65
  0
VERTEX
  8
Layer0
10
0.0
 20
 0.0
 30
0.0
 70
     128
 71
-64
 72
-65
 73
66
  0
VERTEX
  8
Layer0
10
0.0
 20
 0.0
 30
0.0
 70
     128
 71
-66
 72
65
 73
-67
  0
VERTEX
  8
Layer0
10
0.0
 20
 0.0
 30
0.0
 70
     128
 71
-66
 72
-67
 73
68
  0
VERTEX
  8
Layer0
10
0.0
 20
 0.0
 30
0.0
 70
     128
 71
-68
 72
-67
 73
69
  0
VERTEX
  8
Layer0
10
0.0
 20
 0.0
 30
0.0
 70
     128
 71
-69
 72
67
 73
-70
  0
VERTEX
  8
Layer0
10
0.0
 20
 0.0
 30
0.0
 70
     128
 71
-69
 72
-70
 73
71
  0
VERTEX
  8
Layer0
10
0.0
 20
 0.0
 30
0.0
 70
     128
 71
-42
 72
-72
 73
73
  0
VERTEX
  8
Layer0
10
0.0
 20
 0.0
 30
0.0
 70
     128
 71
-72
 72
-42
 73
74
  0
VERTEX
  8
Layer0
10
0.0
 20
 0.0
 30
0.0
 70
     128
 71
-74
 72
-42
 73
75
  0
VERTEX
  8
Layer0
10
0.0
 20
 0.0
 30
0.0
 70
     128
 71
-75
 72
-42
 73
76
  0
VERTEX
  8
Layer0
10
0.0
 20
 0.0
 30
0.0
 70
     128
 71
-76
 72
-42
 73
77
  0
VERTEX
  8
Layer0
10
0.0
 20
 0.0
 30
0.0
 70
     128
 71
-77
 72
-42
 73
78
  0
VERTEX
  8
Layer0
10
0.0
 20
 0.0
 30
0.0
 70
     128
 71
-78
 72
-42
 73
50
  0
VERTEX
  8
Layer0
10
0.0
 20
 0.0
 30
0.0
 70
     128
 71
-73
 72
72
 73
-79
  0
VERTEX
  8
Layer0
10
0.0
 20
 0.0
 30
0.0
 70
     128
 71
-73
 72
79
 73
-80
  0
VERTEX
  8
Layer0
10
0.0
 20
 0.0
 30
0.0
 70
     128
 71
-73
 72
80
 73
-81
  0
VERTEX
  8
Layer0
10
0.0
 20
 0.0
 30
0.0
 70
     128
 71
-73
 72
81
 73
-82
  0
VERTEX
  8
Layer0
10
0.0
 20
 0.0
 30
0.0
 70
     128
 71
-73
 72
82
 73
-83
  0
VERTEX
  8
Layer0
10
0.0
 20
 0.0
 30
0.0
 70
     128
 71
-73
 72
-83
 73
84
  0
VERTEX
  8
Layer0
10
0.0
 20
 0.0
 30
0.0
 70
     128
 71
-84
 72
-83
 73
85
  0
VERTEX
  8
Layer0
10
0.0
 20
 0.0
 30
0.0
 70
     128
 71
-85
 72
83
 73
-86
  0
VERTEX
  8
Layer0
10
0.0
 20
 0.0
 30
0.0
 70
     128
 71
-85
 72
-86
 73
87
  0
VERTEX
  8
Layer0
10
0.0
 20
 0.0
 30
0.0
 70
     128
 71
-87
 72
86
 73
-88
  0
VERTEX
  8
Layer0
10
0.0
 20
 0.0
 30
0.0
 70
     128
 71
-87
 72
-88
 73
89
  0
VERTEX
  8
Layer0
10
0.0
 20
 0.0
 30
0.0
 70
     128
 71
-89
 72
88
 73
-90
  0
VERTEX
  8
Layer0
10
0.0
 20
 0.0
 30
0.0
 70
     128
 71
-89
 72
-90
 73
91
  0
VERTEX
  8
Layer0
10
0.0
 20
 0.0
 30
0.0
 70
     128
 71
-91
 72
90
 73
-92
  0
VERTEX
  8
Layer0
10
0.0
 20
 0.0
 30
0.0
 70
     128
 71
-91
 72
-92
 73
93
  0
VERTEX
  8
Layer0
10
0.0
 20
 0.0
 30
0.0
 70
     128
 71
-93
 72
92
 73
-94
  0
VERTEX
  8
Layer0
10
0.0
 20
 0.0
 30
0.0
 70
     128
 71
-93
 72
-94
 73
95
  0
VERTEX
  8
Layer0
10
0.0
 20
 0.0
 30
0.0
 70
     128
 71
-95
 72
94
 73
-96
  0
VERTEX
  8
Layer0
10
0.0
 20
 0.0
 30
0.0
 70
     128
 71
-95
 72
96
 73
-97
  0
VERTEX
  8
Layer0
10
0.0
 20
 0.0
 30
0.0
 70
     128
 71
-95
 72
-97
 73
98
  0
VERTEX
  8
Layer0
10
0.0
 20
 0.0
 30
0.0
 70
     128
 71
-98
 72
97
 73
-71
  0
VERTEX
  8
Layer0
10
0.0
 20
 0.0
 30
0.0
 70
     128
 71
-98
 72
-71
 73
-70
  0
VERTEX
  8
Layer0
10
0.0
 20
 0.0
 30
0.0
 70
     128
 71
-98
 72
70
 73
-99
  0
VERTEX
  8
Layer0
10
0.0
 20
 0.0
 30
0.0
 70
     128
 71
-98
 72
-99
 73
100
  0
VERTEX
  8
Layer0
10
0.0
 20
 0.0
 30
0.0
 70
     128
 71
-100
 72
99
 73
-101
  0
VERTEX
  8
Layer0
10
0.0
 20
 0.0
 30
0.0
 70
     128
 71
-100
 72
-101
 73
102
  0
VERTEX
  8
Layer0
10
0.0
 20
 0.0
 30
0.0
 70
     128
 71
-102
 72
101
 73
-103
  0
VERTEX
  8
Layer0
10
0.0
 20
 0.0
 30
0.0
 70
     128
 71
-102
 72
-103
 73
104
  0
VERTEX
  8
Layer0
10
0.0
 20
 0.0
 30
0.0
 70
     128
 71
-104
 72
103
 73
-105
  0
VERTEX
  8
Layer0
10
0.0
 20
 0.0
 30
0.0
 70
     128
 71
-104
 72
-105
 73
106
  0
VERTEX
  8
Layer0
10
0.0
 20
 0.0
 30
0.0
 70
     128
 71
-106
 72
105
 73
-107
  0
VERTEX
  8
Layer0
10
0.0
 20
 0.0
 30
0.0
 70
     128
 71
-106
 72
-107
 73
108
  0
VERTEX
  8
Layer0
10
0.0
 20
 0.0
 30
0.0
 70
     128
 71
-108
 72
107
 73
-109
  0
VERTEX
  8
Layer0
10
0.0
 20
 0.0
 30
0.0
 70
     128
 71
-108
 72
-109
 73
110
  0
VERTEX
  8
Layer0
10
0.0
 20
 0.0
 30
0.0
 70
     128
 71
-110
 72
109
 73
-111
  0
VERTEX
  8
Layer0
10
0.0
 20
 0.0
 30
0.0
 70
     128
 71
-110
 72
-111
 73
112
  0
VERTEX
  8
Layer0
10
0.0
 20
 0.0
 30
0.0
 70
     128
 71
-112
 72
111
 73
-113
  0
VERTEX
  8
Layer0
10
0.0
 20
 0.0
 30
0.0
 70
     128
 71
-112
 72
-113
 73
114
  0
VERTEX
  8
Layer0
10
0.0
 20
 0.0
 30
0.0
 70
     128
 71
-114
 72
113
 73
-115
  0
VERTEX
  8
Layer0
10
0.0
 20
 0.0
 30
0.0
 70
     128
 71
-114
 72
-115
 73
116
  0
VERTEX
  8
Layer0
10
0.0
 20
 0.0
 30
0.0
 70
     128
 71
-116
 72
115
 73
117
  0
VERTEX
  8
Layer0
10
0.0
 20
 0.0
 30
0.0
 70
     128
 71
-118
 72
119
 73
120
  0
VERTEX
  8
Layer0
10
0.0
 20
 0.0
 30
0.0
 70
     128
 71
-119
 72
-118
 73
121
  0
VERTEX
  8
Layer0
10
0.0
 20
 0.0
 30
0.0
 70
     128
 71
-121
 72
118
 73
-122
  0
VERTEX
  8
Layer0
10
0.0
 20
 0.0
 30
0.0
 70
     128
 71
-121
 72
-122
 73
123
  0
VERTEX
  8
Layer0
10
0.0
 20
 0.0
 30
0.0
 70
     128
 71
-123
 72
122
 73
-124
  0
VERTEX
  8
Layer0
10
0.0
 20
 0.0
 30
0.0
 70
     128
 71
-123
 72
-124
 73
125
  0
VERTEX
  8
Layer0
10
0.0
 20
 0.0
 30
0.0
 70
     128
 71
-125
 72
124
 73
-126
  0
VERTEX
  8
Layer0
10
0.0
 20
 0.0
 30
0.0
 70
     128
 71
-125
 72
126
 73
-127
  0
VERTEX
  8
Layer0
10
0.0
 20
 0.0
 30
0.0
 70
     128
 71
-125
 72
-127
 73
128
  0
VERTEX
  8
Layer0
10
0.0
 20
 0.0
 30
0.0
 70
     128
 71
-128
 72
127
 73
-129
  0
VERTEX
  8
Layer0
10
0.0
 20
 0.0
 30
0.0
 70
     128
 71
-128
 72
-129
 73
130
  0
VERTEX
  8
Layer0
10
0.0
 20
 0.0
 30
0.0
 70
     128
 71
-130
 72
-129
 73
131
  0
VERTEX
  8
Layer0
10
0.0
 20
 0.0
 30
0.0
 70
     128
 71
-131
 72
129
 73
-132
  0
VERTEX
  8
Layer0
10
0.0
 20
 0.0
 30
0.0
 70
     128
 71
-131
 72
-132
 73
133
  0
VERTEX
  8
Layer0
10
0.0
 20
 0.0
 30
0.0
 70
     128
 71
-133
 72
132
 73
-134
  0
VERTEX
  8
Layer0
10
0.0
 20
 0.0
 30
0.0
 70
     128
 71
-133
 72
-134
 73
135
  0
VERTEX
  8
Layer0
10
0.0
 20
 0.0
 30
0.0
 70
     128
 71
-135
 72
-134
 73
-136
  0
VERTEX
  8
Layer0
10
0.0
 20
 0.0
 30
0.0
 70
     128
 71
-135
 72
136
 73
-137
  0
VERTEX
  8
Layer0
10
0.0
 20
 0.0
 30
0.0
 70
     128
 71
-135
 72
137
 73
-138
  0
VERTEX
  8
Layer0
10
0.0
 20
 0.0
 30
0.0
 70
     128
 71
-135
 72
-138
 73
139
  0
VERTEX
  8
Layer0
10
0.0
 20
 0.0
 30
0.0
 70
     128
 71
-139
 72
138
 73
-140
  0
VERTEX
  8
Layer0
10
0.0
 20
 0.0
 30
0.0
 70
     128
 71
-139
 72
140
 73
-141
  0
VERTEX
  8
Layer0
10
0.0
 20
 0.0
 30
0.0
 70
     128
 71
-139
 72
-141
 73
142
  0
VERTEX
  8
Layer0
10
0.0
 20
 0.0
 30
0.0
 70
     128
 71
-142
 72
141
 73
-143
  0
VERTEX
  8
Layer0
10
0.0
 20
 0.0
 30
0.0
 70
     128
 71
-142
 72
143
 73
-144
  0
VERTEX
  8
Layer0
10
0.0
 20
 0.0
 30
0.0
 70
     128
 71
-142
 72
-144
 73
145
  0
VERTEX
  8
Layer0
10
0.0
 20
 0.0
 30
0.0
 70
     128
 71
-145
 72
144
 73
-146
  0
VERTEX
  8
Layer0
10
0.0
 20
 0.0
 30
0.0
 70
     128
 71
-145
 72
-146
 73
147
  0
VERTEX
  8
Layer0
10
0.0
 20
 0.0
 30
0.0
 70
     128
 71
-147
 72
146
 73
-148
  0
VERTEX
  8
Layer0
10
0.0
 20
 0.0
 30
0.0
 70
     128
 71
-147
 72
-148
 73
149
  0
VERTEX
  8
Layer0
10
0.0
 20
 0.0
 30
0.0
 70
     128
 71
-149
 72
148
 73
-150
  0
VERTEX
  8
Layer0
10
0.0
 20
 0.0
 30
0.0
 70
     128
 71
-149
 72
-150
 73
151
  0
VERTEX
  8
Layer0
10
0.0
 20
 0.0
 30
0.0
 70
     128
 71
-151
 72
150
 73
-152
  0
VERTEX
  8
Layer0
10
0.0
 20
 0.0
 30
0.0
 70
     128
 71
-151
 72
-152
 73
153
  0
VERTEX
  8
Layer0
10
0.0
 20
 0.0
 30
0.0
 70
     128
 71
-153
 72
-152
 73
154
  0
VERTEX
  8
Layer0
10
0.0
 20
 0.0
 30
0.0
 70
     128
 71
-154
 72
-152
 73
155
  0
VERTEX
  8
Layer0
10
0.0
 20
 0.0
 30
0.0
 70
     128
 71
-155
 72
-152
 73
156
  0
VERTEX
  8
Layer0
10
0.0
 20
 0.0
 30
0.0
 70
     128
 71
-156
 72
152
 73
-157
  0
VERTEX
  8
Layer0
10
0.0
 20
 0.0
 30
0.0
 70
     128
 71
-156
 72
157
 73
-158
  0
VERTEX
  8
Layer0
10
0.0
 20
 0.0
 30
0.0
 70
     128
 71
-156
 72
158
 73
-159
  0
VERTEX
  8
Layer0
10
0.0
 20
 0.0
 30
0.0
 70
     128
 71
-156
 72
159
 73
-160
  0
VERTEX
  8
Layer0
10
0.0
 20
 0.0
 30
0.0
 70
     128
 71
-156
 72
160
 73
-161
  0
VERTEX
  8
Layer0
10
0.0
 20
 0.0
 30
0.0
 70
     128
 71
-156
 72
161
 73
-162
  0
VERTEX
  8
Layer0
10
0.0
 20
 0.0
 30
0.0
 70
     128
 71
-156
 72
162
 73
-163
  0
VERTEX
  8
Layer0
10
0.0
 20
 0.0
 30
0.0
 70
     128
 71
-156
 72
163
 73
-164
  0
VERTEX
  8
Layer0
10
0.0
 20
 0.0
 30
0.0
 70
     128
 71
-156
 72
164
 73
-165
  0
VERTEX
  8
Layer0
10
0.0
 20
 0.0
 30
0.0
 70
     128
 71
-166
 72
-136
 73
134
  0
VERTEX
  8
Layer0
10
0.0
 20
 0.0
 30
0.0
 70
     128
 71
-136
 72
-166
 73
167
  0
VERTEX
  8
Layer0
10
0.0
 20
 0.0
 30
0.0
 70
     128
 71
-167
 72
-166
 73
168
  0
VERTEX
  8
Layer0
10
0.0
 20
 0.0
 30
0.0
 70
     128
 71
-168
 72
166
 73
-169
  0
VERTEX
  8
Layer0
10
0.0
 20
 0.0
 30
0.0
 70
     128
 71
-168
 72
-169
 73
170
  0
VERTEX
  8
Layer0
10
0.0
 20
 0.0
 30
0.0
 70
     128
 71
-170
 72
-169
 73
171
  0
VERTEX
  8
Layer0
10
0.0
 20
 0.0
 30
0.0
 70
     128
 71
-171
 72
169
 73
-172
  0
VERTEX
  8
Layer0
10
0.0
 20
 0.0
 30
0.0
 70
     128
 71
-171
 72
-172
 73
173
  0
VERTEX
  8
Layer0
10
0.0
 20
 0.0
 30
0.0
 70
     128
 71
-173
 72
-172
 73
174
  0
VERTEX
  8
Layer0
10
0.0
 20
 0.0
 30
0.0
 70
     128
 71
-174
 72
172
 73
-175
  0
VERTEX
  8
Layer0
10
0.0
 20
 0.0
 30
0.0
 70
     128
 71
-174
 72
-175
 73
176
  0
VERTEX
  8
Layer0
10
0.0
 20
 0.0
 30
0.0
 70
     128
 71
-176
 72
175
 73
-177
  0
VERTEX
  8
Layer0
10
0.0
 20
 0.0
 30
0.0
 70
     128
 71
-176
 72
-177
 73
178
  0
VERTEX
  8
Layer0
10
0.0
 20
 0.0
 30
0.0
 70
     128
 71
-178
 72
177
 73
-179
  0
VERTEX
  8
Layer0
10
0.0
 20
 0.0
 30
0.0
 70
     128
 71
-178
 72
-179
 73
180
  0
VERTEX
  8
Layer0
10
0.0
 20
 0.0
 30
0.0
 70
     128
 71
-180
 72
179
 73
-181
  0
VERTEX
  8
Layer0
10
0.0
 20
 0.0
 30
0.0
 70
     128
 71
-180
 72
-181
 73
182
  0
VERTEX
  8
Layer0
10
0.0
 20
 0.0
 30
0.0
 70
     128
 71
-182
 72
181
 73
-183
  0
VERTEX
  8
Layer0
10
0.0
 20
 0.0
 30
0.0
 70
     128
 71
-182
 72
183
 73
-184
  0
VERTEX
  8
Layer0
10
0.0
 20
 0.0
 30
0.0
 70
     128
 71
-182
 72
184
 73
-185
  0
VERTEX
  8
Layer0
10
0.0
 20
 0.0
 30
0.0
 70
     128
 71
-182
 72
-185
 73
-186
  0
VERTEX
  8
Layer0
10
0.0
 20
 0.0
 30
0.0
 70
     128
 71
-186
 72
185
 73
-187
  0
VERTEX
  8
Layer0
10
0.0
 20
 0.0
 30
0.0
 70
     128
 71
-182
 72
-186
 73
188
  0
VERTEX
  8
Layer0
10
0.0
 20
 0.0
 30
0.0
 70
     128
 71
-188
 72
-186
 73
189
  0
VERTEX
  8
Layer0
10
0.0
 20
 0.0
 30
0.0
 70
     128
 71
-189
 72
-186
 73
190
  0
VERTEX
  8
Layer0
10
0.0
 20
 0.0
 30
0.0
 70
     128
 71
-190
 72
-186
 73
191
  0
VERTEX
  8
Layer0
10
0.0
 20
 0.0
 30
0.0
 70
     128
 71
-191
 72
-186
 73
192
  0
VERTEX
  8
Layer0
10
0.0
 20
 0.0
 30
0.0
 70
     128
 71
-192
 72
186
 73
-193
  0
VERTEX
  8
Layer0
10
0.0
 20
 0.0
 30
0.0
 70
     128
 71
-192
 72
-193
 73
194
  0
VERTEX
  8
Layer0
10
0.0
 20
 0.0
 30
0.0
 70
     128
 71
-194
 72
-193
 73
195
  0
VERTEX
  8
Layer0
10
0.0
 20
 0.0
 30
0.0
 70
     128
 71
-195
 72
-193
 73
196
  0
VERTEX
  8
Layer0
10
0.0
 20
 0.0
 30
0.0
 70
     128
 71
-196
 72
-193
 73
165
  0
VERTEX
  8
Layer0
10
0.0
 20
 0.0
 30
0.0
 70
     128
 71
-165
 72
193
 73
-197
  0
VERTEX
  8
Layer0
10
0.0
 20
 0.0
 30
0.0
 70
     128
 71
-165
 72
197
 73
-198
  0
VERTEX
  8
Layer0
10
0.0
 20
 0.0
 30
0.0
 70
     128
 71
-165
 72
198
 73
-199
  0
VERTEX
  8
Layer0
10
0.0
 20
 0.0
 30
0.0
 70
     128
 71
-165
 72
-199
 73
-156
  0
VERTEX
  8
Layer0
10
0.0
 20
 0.0
 30
0.0
 70
     128
 71
-156
 72
199
 73
-200
  0
VERTEX
  8
Layer0
10
0.0
 20
 0.0
 30
0.0
 70
     128
 71
-156
 72
-200
 73
201
  0
VERTEX
  8
Layer0
10
0.0
 20
 0.0
 30
0.0
 70
     128
 71
-201
 72
200
 73
-202
  0
VERTEX
  8
Layer0
10
0.0
 20
 0.0
 30
0.0
 70
     128
 71
-201
 72
202
 73
-203
  0
VERTEX
  8
Layer0
10
0.0
 20
 0.0
 30
0.0
 70
     128
 71
-201
 72
203
 73
-204
  0
VERTEX
  8
Layer0
10
0.0
 20
 0.0
 30
0.0
 70
     128
 71
-201
 72
204
 73
-205
  0
VERTEX
  8
Layer0
10
0.0
 20
 0.0
 30
0.0
 70
     128
 71
-201
 72
205
 73
-206
  0
VERTEX
  8
Layer0
10
0.0
 20
 0.0
 30
0.0
 70
     128
 71
-201
 72
206
 73
-3
  0
VERTEX
  8
Layer0
10
0.0
 20
 0.0
 30
0.0
 70
     128
 71
-186
 72
-187
 73
207
  0
VERTEX
  8
Layer0
10
0.0
 20
 0.0
 30
0.0
 70
     128
 71
-207
 72
187
 73
208
  0
VERTEX
  8
Layer0
10
0.0
 20
 0.0
 30
0.0
 70
     128
 71
-201
 72
-209
 73
210
  0
VERTEX
  8
Layer0
10
0.0
 20
 0.0
 30
0.0
 70
     128
 71
-209
 72
-201
 73
211
  0
VERTEX
  8
Layer0
10
0.0
 20
 0.0
 30
0.0
 70
     128
 71
-211
 72
-201
 73
212
  0
VERTEX
  8
Layer0
10
0.0
 20
 0.0
 30
0.0
 70
     128
 71
-212
 72
-201
 73
213
  0
VERTEX
  8
Layer0
10
0.0
 20
 0.0
 30
0.0
 70
     128
 71
-213
 72
-201
 73
214
  0
VERTEX
  8
Layer0
10
0.0
 20
 0.0
 30
0.0
 70
     128
 71
-214
 72
-201
 73
215
  0
VERTEX
  8
Layer0
10
0.0
 20
 0.0
 30
0.0
 70
     128
 71
-215
 72
-201
 73
216
  0
VERTEX
  8
Layer0
10
0.0
 20
 0.0
 30
0.0
 70
     128
 71
-216
 72
-201
 73
217
  0
VERTEX
  8
Layer0
10
0.0
 20
 0.0
 30
0.0
 70
     128
 71
-217
 72
-201
 73
218
  0
VERTEX
  8
Layer0
10
0.0
 20
 0.0
 30
0.0
 70
     128
 71
-218
 72
-201
 73
219
  0
VERTEX
  8
Layer0
10
0.0
 20
 0.0
 30
0.0
 70
     128
 71
-219
 72
-201
 73
220
  0
VERTEX
  8
Layer0
10
0.0
 20
 0.0
 30
0.0
 70
     128
 71
-220
 72
-201
 73
2
  0
VERTEX
  8
Layer0
10
0.0
 20
 0.0
 30
0.0
 70
     128
 71
-2
 72
-201
 73
-3
  0
VERTEX
  8
Layer0
10
0.0
 20
 0.0
 30
0.0
 70
     128
 71
-210
 72
209
 73
-221
  0
VERTEX
  8
Layer0
10
0.0
 20
 0.0
 30
0.0
 70
     128
 71
-210
 72
221
 73
222
  0
SEQEND
  0
POLYLINE
 8
Layer0
 66
     1
10
0.0
 20
 0.0
 30
0.0
70
    64
71
4
72
   1
  0
VERTEX
  8
Layer0
10
-0.802215979941438
20
0.0
30
-41.99285596127381
 70
     192
  0
VERTEX
  8
Layer0
10
-1.559889825405764
20
3.0
30
-41.78983786625546
 70
     192
  0
VERTEX
  8
Layer0
10
-1.559889825405764
20
0.0
30
-41.78983786625546
 70
     192
  0
VERTEX
  8
Layer0
10
-0.802215979941438
20
3.0
30
-41.99285596127381
 70
     192
  0
VERTEX
  8
Layer0
10
0.0
 20
 0.0
 30
0.0
 70
     128
 71
-1
 72
2
 73
3
  0
VERTEX
  8
Layer0
10
0.0
 20
 0.0
 30
0.0
 70
     128
 71
-2
 72
1
 73
4
  0
SEQEND
  0
POLYLINE
 8
Layer0
 66
     1
10
0.0
 20
 0.0
 30
0.0
70
    64
71
4
72
   1
  0
VERTEX
  8
Layer0
10
-0.02079918044025088
20
0.0
30
-42.06122107271887
 70
     192
  0
VERTEX
  8
Layer0
10
-0.802215979941438
20
3.0
30
-41.99285596127381
 70
     192
  0
VERTEX
  8
Layer0
10
-0.802215979941438
20
0.0
30
-41.99285596127381
 70
     192
  0
VERTEX
  8
Layer0
10
-0.02079918044025088
20
3.0
30
-42.06122107271887
 70
     192
  0
VERTEX
  8
Layer0
10
0.0
 20
 0.0
 30
0.0
 70
     128
 71
-1
 72
2
 73
3
  0
VERTEX
  8
Layer0
10
0.0
 20
 0.0
 30
0.0
 70
     128
 71
-2
 72
1
 73
4
  0
SEQEND
  0
POLYLINE
 8
Layer0
 66
     1
10
0.0
 20
 0.0
 30
0.0
70
    64
71
4
72
   1
  0
VERTEX
  8
Layer0
10
-8.02079918044025
20
0.0
30
2.0727539272811106
 70
     192
  0
VERTEX
  8
Layer0
10
-8.151325372660303
20
3.0
30
2.0813090659073
 70
     192
  0
VERTEX
  8
Layer0
10
-8.151325372660303
20
0.0
30
2.0813090659073
 70
     192
  0
VERTEX
  8
Layer0
10
-8.02079918044025
20
3.0
30
2.0727539272811106
 70
     192
  0
VERTEX
  8
Layer0
10
0.0
 20
 0.0
 30
0.0
 70
     128
 71
-1
 72
2
 73
3
  0
VERTEX
  8
Layer0
10
0.0
 20
 0.0
 30
0.0
 70
     128
 71
-2
 72
1
 73
4
  0
SEQEND
  0
POLYLINE
 8
Layer0
 66
     1
10
0.0
 20
 0.0
 30
0.0
70
    64
71
4
72
   1
  0
VERTEX
  8
Layer0
10
-7.890272988220199
20
0.0
30
2.0813090659073
 70
     192
  0
VERTEX
  8
Layer0
10
-8.02079918044025
20
3.0
30
2.0727539272811106
 70
     192
  0
VERTEX
  8
Layer0
10
-8.02079918044025
20
0.0
30
2.0727539272811106
 70
     192
  0
VERTEX
  8
Layer0
10
-7.890272988220199
20
3.0
30
2.0813090659073
 70
     192
  0
VERTEX
  8
Layer0
10
0.0
 20
 0.0
 30
0.0
 70
     128
 71
-1
 72
2
 73
3
  0
VERTEX
  8
Layer0
10
0.0
 20
 0.0
 30
0.0
 70
     128
 71
-2
 72
1
 73
4
  0
SEQEND
  0
POLYLINE
 8
Layer0
 66
     1
10
0.0
 20
 0.0
 30
0.0
70
    64
71
4
72
   1
  0
VERTEX
  8
Layer0
10
-7.761980135337731
20
0.0
30
2.1068281009920424
 70
     192
  0
VERTEX
  8
Layer0
10
-7.890272988220199
20
3.0
30
2.0813090659073
 70
     192
  0
VERTEX
  8
Layer0
10
-7.890272988220199
20
0.0
30
2.0813090659073
 70
     192
  0
VERTEX
  8
Layer0
10
-7.761980135337731
20
3.0
30
2.1068281009920424
 70
     192
  0
VERTEX
  8
Layer0
10
0.0
 20
 0.0
 30
0.0
 70
     128
 71
-1
 72
2
 73
3
  0
VERTEX
  8
Layer0
10
0.0
 20
 0.0
 30
0.0
 70
     128
 71
-2
 72
1
 73
4
  0
SEQEND
  0
POLYLINE
 8
Layer0
 66
     1
10
0.0
 20
 0.0
 30
0.0
70
    64
71
4
72
   1
  0
VERTEX
  8
Layer0
10
-7.638115748075161
20
0.0
30
2.1488743947698232
 70
     192
  0
VERTEX
  8
Layer0
10
-7.761980135337731
20
3.0
30
2.1068281009920424
 70
     192
  0
VERTEX
  8
Layer0
10
-7.761980135337731
20
0.0
30
2.1068281009920424
 70
     192
  0
VERTEX
  8
Layer0
10
-7.638115748075161
20
3.0
30
2.1488743947698232
 70
     192
  0
VERTEX
  8
Layer0
10
0.0
 20
 0.0
 30
0.0
 70
     128
 71
-1
 72
2
 73
3
  0
VERTEX
  8
Layer0
10
0.0
 20
 0.0
 30
0.0
 70
     128
 71
-2
 72
1
 73
4
  0
SEQEND
  0
POLYLINE
 8
Layer0
 66
     1
10
0.0
 20
 0.0
 30
0.0
70
    64
71
4
72
   1
  0
VERTEX
  8
Layer0
10
-7.520799180440251
20
0.0
30
2.2067285234966714
 70
     192
  0
VERTEX
  8
Layer0
10
-7.638115748075161
20
3.0
30
2.1488743947698232
 70
     192
  0
VERTEX
  8
Layer0
10
-7.638115748075161
20
0.0
30
2.1488743947698232
 70
     192
  0
VERTEX
  8
Layer0
10
-7.520799180440251
20
3.0
30
2.2067285234966714
 70
     192
  0
VERTEX
  8
Layer0
10
0.0
 20
 0.0
 30
0.0
 70
     128
 71
-1
 72
2
 73
3
  0
VERTEX
  8
Layer0
10
0.0
 20
 0.0
 30
0.0
 70
     128
 71
-2
 72
1
 73
4
  0
SEQEND
  0
POLYLINE
 8
Layer0
 66
     1
10
0.0
 20
 0.0
 30
0.0
70
    64
71
4
72
   1
  0
VERTEX
  8
Layer0
10
-7.412037751431529
20
0.0
30
2.2794005869898744
 70
     192
  0
VERTEX
  8
Layer0
10
-7.520799180440251
20
3.0
30
2.2067285234966714
 70
     192
  0
VERTEX
  8
Layer0
10
-7.520799180440251
20
0.0
30
2.2067285234966714
 70
     192
  0
VERTEX
  8
Layer0
10
-7.412037751431529
20
3.0
30
2.2794005869898744
 70
     192
  0
VERTEX
  8
Layer0
10
0.0
 20
 0.0
 30
0.0
 70
     128
 71
-1
 72
2
 73
3
  0
VERTEX
  8
Layer0
10
0.0
 20
 0.0
 30
0.0
 70
     128
 71
-2
 72
1
 73
4
  0
SEQEND
  0
POLYLINE
 8
Layer0
 66
     1
10
0.0
 20
 0.0
 30
0.0
70
    64
71
4
72
   1
  0
VERTEX
  8
Layer0
10
-7.3136923992537035
20
0.0
30
2.3656471460945623
 70
     192
  0
VERTEX
  8
Layer0
10
-7.412037751431529
20
3.0
30
2.2794005869898744
 70
     192
  0
VERTEX
  8
Layer0
10
-7.412037751431529
20
0.0
30
2.2794005869898744
 70
     192
  0
VERTEX
  8
Layer0
10
-7.3136923992537035
20
3.0
30
2.3656471460945623
 70
     192
  0
VERTEX
  8
Layer0
10
0.0
 20
 0.0
 30
0.0
 70
     128
 71
-1
 72
2
 73
3
  0
VERTEX
  8
Layer0
10
0.0
 20
 0.0
 30
0.0
 70
     128
 71
-2
 72
1
 73
4
  0
SEQEND
  0
POLYLINE
 8
Layer0
 66
     1
10
0.0
 20
 0.0
 30
0.0
70
    64
71
4
72
   1
  0
VERTEX
  8
Layer0
10
-7.227445840149016
20
3.0
30
2.4639924982723898
 70
     192
  0
VERTEX
  8
Layer0
10
-7.3136923992537035
20
0.0
30
2.3656471460945623
 70
     192
  0
VERTEX
  8
Layer0
10
-7.227445840149016
20
0.0
30
2.4639924982723898
 70
     192
  0
VERTEX
  8
Layer0
10
-7.3136923992537035
20
3.0
30
2.3656471460945623
 70
     192
  0
VERTEX
  8
Layer0
10
0.0
 20
 0.0
 30
0.0
 70
     128
 71
-1
 72
2
 73
3
  0
VERTEX
  8
Layer0
10
0.0
 20
 0.0
 30
0.0
 70
     128
 71
-2
 72
1
 73
4
  0
SEQEND
  0
POLYLINE
 8
Layer0
 66
     1
10
0.0
 20
 0.0
 30
0.0
70
    64
71
4
72
   1
  0
VERTEX
  8
Layer0
10
3.1488377826149865
20
0.0
30
29.236087733840428
 70
     192
  0
VERTEX
  8
Layer0
10
2.544351894502255
20
3.0
30
29.48647398695986
 70
     192
  0
VERTEX
  8
Layer0
10
2.544351894502255
20
0.0
30
29.48647398695986
 70
     192
  0
VERTEX
  8
Layer0
10
3.1488377826149865
20
3.0
30
29.236087733840428
 70
     192
  0
VERTEX
  8
Layer0
10
0.0
 20
 0.0
 30
0.0
 70
     128
 71
-1
 72
2
 73
3
  0
VERTEX
  8
Layer0
10
0.0
 20
 0.0
 30
0.0
 70
     128
 71
-2
 72
1
 73
4
  0
SEQEND
  0
POLYLINE
 8
Layer0
 66
     1
10
0.0
 20
 0.0
 30
0.0
70
    64
71
4
72
   1
  0
VERTEX
  8
Layer0
10
1.5182914645252603
20
0.0
30
13.210162537528964
 70
     192
  0
VERTEX
  8
Layer0
10
0.7606176190609373
20
3.0
30
13.007144442510615
 70
     192
  0
VERTEX
  8
Layer0
10
0.7606176190609373
20
0.0
30
13.007144442510615
 70
     192
  0
VERTEX
  8
Layer0
10
1.5182914645252603
20
3.0
30
13.210162537528964
 70
     192
  0
VERTEX
  8
Layer0
10
0.0
 20
 0.0
 30
0.0
 70
     128
 71
-1
 72
2
 73
3
  0
VERTEX
  8
Layer0
10
0.0
 20
 0.0
 30
0.0
 70
     128
 71
-2
 72
1
 73
4
  0
SEQEND
  0
POLYLINE
 8
Layer0
 66
     1
10
0.0
 20
 0.0
 30
0.0
70
    64
71
4
72
   1
  0
VERTEX
  8
Layer0
10
0.7606176190609373
20
0.0
30
13.007144442510615
 70
     192
  0
VERTEX
  8
Layer0
10
-0.020799180440249334
20
3.0
30
12.93877933106555
 70
     192
  0
VERTEX
  8
Layer0
10
-0.020799180440249334
20
0.0
30
12.93877933106555
 70
     192
  0
VERTEX
  8
Layer0
10
0.7606176190609373
20
3.0
30
13.007144442510615
 70
     192
  0
VERTEX
  8
Layer0
10
0.0
 20
 0.0
 30
0.0
 70
     128
 71
-1
 72
2
 73
3
  0
VERTEX
  8
Layer0
10
0.0
 20
 0.0
 30
0.0
 70
     128
 71
-2
 72
1
 73
4
  0
SEQEND
  0
POLYLINE
 8
Layer0
 66
     1
10
0.0
 20
 0.0
 30
0.0
70
    64
71
4
72
   1
  0
VERTEX
  8
Layer0
10
-0.020799180440249334
20
0.0
30
12.93877933106555
 70
     192
  0
VERTEX
  8
Layer0
10
-0.8022159799414359
20
3.0
30
13.007144442510615
 70
     192
  0
VERTEX
  8
Layer0
10
-0.8022159799414359
20
0.0
30
13.007144442510615
 70
     192
  0
VERTEX
  8
Layer0
10
-0.020799180440249334
20
3.0
30
12.93877933106555
 70
     192
  0
VERTEX
  8
Layer0
10
0.0
 20
 0.0
 30
0.0
 70
     128
 71
-1
 72
2
 73
3
  0
VERTEX
  8
Layer0
10
0.0
 20
 0.0
 30
0.0
 70
     128
 71
-2
 72
1
 73
4
  0
SEQEND
  0
POLYLINE
 8
Layer0
 66
     1
10
0.0
 20
 0.0
 30
0.0
70
    64
71
4
72
   1
  0
VERTEX
  8
Layer0
10
-5.324100039339355
20
3.0
30
27.742080189964653
 70
     192
  0
VERTEX
  8
Layer0
10
-5.766132503832585
20
0.0
30
27.259686403714593
 70
     192
  0
VERTEX
  8
Layer0
10
-5.324100039339355
20
0.0
30
27.742080189964653
 70
     192
  0
VERTEX
  8
Layer0
10
-5.766132503832585
20
3.0
30
27.259686403714593
 70
     192
  0
VERTEX
  8
Layer0
10
0.0
 20
 0.0
 30
0.0
 70
     128
 71
-1
 72
2
 73
3
  0
VERTEX
  8
Layer0
10
0.0
 20
 0.0
 30
0.0
 70
     128
 71
-2
 72
1
 73
4
  0
SEQEND
  0
POLYLINE
 8
Layer0
 66
     1
10
0.0
 20
 0.0
 30
0.0
70
    64
71
4
72
   1
  0
VERTEX
  8
Layer0
10
-0.8022159799414359
20
0.0
30
13.007144442510615
 70
     192
  0
VERTEX
  8
Layer0
10
-1.559889825405759
20
3.0
30
13.210162537528964
 70
     192
  0
VERTEX
  8
Layer0
10
-1.559889825405759
20
0.0
30
13.210162537528964
 70
     192
  0
VERTEX
  8
Layer0
10
-0.8022159799414359
20
3.0
30
13.007144442510615
 70
     192
  0
VERTEX
  8
Layer0
10
0.0
 20
 0.0
 30
0.0
 70
     128
 71
-1
 72
2
 73
3
  0
VERTEX
  8
Layer0
10
0.0
 20
 0.0
 30
0.0
 70
     128
 71
-2
 72
1
 73
4
  0
SEQEND
  0
POLYLINE
 8
Layer0
 66
     1
10
0.0
 20
 0.0
 30
0.0
70
    64
71
4
72
   1
  0
VERTEX
  8
Layer0
10
-1.559889825405759
20
0.0
30
13.210162537528964
 70
     192
  0
VERTEX
  8
Layer0
10
-2.2707991804402496
20
3.0
30
13.541665014035576
 70
     192
  0
VERTEX
  8
Layer0
10
-2.2707991804402496
20
0.0
30
13.541665014035576
 70
     192
  0
VERTEX
  8
Layer0
10
-1.559889825405759
20
3.0
30
13.210162537528964
 70
     192
  0
VERTEX
  8
Layer0
10
0.0
 20
 0.0
 30
0.0
 70
     128
 71
-1
 72
2
 73
3
  0
VERTEX
  8
Layer0
10
0.0
 20
 0.0
 30
0.0
 70
     128
 71
-2
 72
1
 73
4
  0
SEQEND
  0
POLYLINE
 8
Layer0
 66
     1
10
0.0
 20
 0.0
 30
0.0
70
    64
71
4
72
   1
  0
VERTEX
  8
Layer0
10
-2.2707991804402496
20
0.0
30
13.541665014035576
 70
     192
  0
VERTEX
  8
Layer0
10
-2.9133434240296765
20
3.0
30
13.99157933703015
 70
     192
  0
VERTEX
  8
Layer0
10
-2.9133434240296765
20
0.0
30
13.99157933703015
 70
     192
  0
VERTEX
  8
Layer0
10
-2.2707991804402496
20
3.0
30
13.541665014035576
 70
     192
  0
VERTEX
  8
Layer0
10
0.0
 20
 0.0
 30
0.0
 70
     128
 71
-1
 72
2
 73
3
  0
VERTEX
  8
Layer0
10
0.0
 20
 0.0
 30
0.0
 70
     128
 71
-2
 72
1
 73
4
  0
SEQEND
  0
POLYLINE
 8
Layer0
 66
     1
10
0.0
 20
 0.0
 30
0.0
70
    64
71
4
72
   1
  0
VERTEX
  8
Layer0
10
-2.9133434240296765
20
3.0
30
13.99157933703015
 70
     192
  0
VERTEX
  8
Layer0
10
-3.4679991744756506
20
0.0
30
14.546235087476123
 70
     192
  0
VERTEX
  8
Layer0
10
-2.9133434240296765
20
0.0
30
13.99157933703015
 70
     192
  0
VERTEX
  8
Layer0
10
-3.4679991744756506
20
3.0
30
14.546235087476123
 70
     192
  0
VERTEX
  8
Layer0
10
0.0
 20
 0.0
 30
0.0
 70
     128
 71
-1
 72
2
 73
3
  0
VERTEX
  8
Layer0
10
0.0
 20
 0.0
 30
0.0
 70
     128
 71
-2
 72
1
 73
4
  0
SEQEND
  0
POLYLINE
 8
Layer0
 66
     1
10
0.0
 20
 0.0
 30
0.0
70
    64
71
4
72
   1
  0
VERTEX
  8
Layer0
10
3.72920081955974
20
0.0
30
28.93396985944884
 70
     192
  0
VERTEX
  8
Layer0
10
3.1488377826149865
20
3.0
30
29.236087733840428
 70
     192
  0
VERTEX
  8
Layer0
10
3.1488377826149865
20
0.0
30
29.236087733840428
 70
     192
  0
VERTEX
  8
Layer0
10
3.72920081955974
20
3.0
30
28.93396985944884
 70
     192
  0
VERTEX
  8
Layer0
10
0.0
 20
 0.0
 30
0.0
 70
     128
 71
-1
 72
2
 73
3
  0
VERTEX
  8
Layer0
10
0.0
 20
 0.0
 30
0.0
 70
     128
 71
-2
 72
1
 73
4
  0
SEQEND
  0
POLYLINE
 8
Layer0
 66
     1
10
0.0
 20
 0.0
 30
0.0
70
    64
71
4
72
   1
  0
VERTEX
  8
Layer0
10
-3.4679991744756506
20
3.0
30
14.546235087476123
 70
     192
  0
VERTEX
  8
Layer0
10
-3.917913497470223
20
0.0
30
15.188779331065552
 70
     192
  0
VERTEX
  8
Layer0
10
-3.4679991744756506
20
0.0
30
14.546235087476123
 70
     192
  0
VERTEX
  8
Layer0
10
-3.917913497470223
20
3.0
30
15.188779331065552
 70
     192
  0
VERTEX
  8
Layer0
10
0.0
 20
 0.0
 30
0.0
 70
     128
 71
-1
 72
2
 73
3
  0
VERTEX
  8
Layer0
10
0.0
 20
 0.0
 30
0.0
 70
     128
 71
-2
 72
1
 73
4
  0
SEQEND
  0
POLYLINE
 8
Layer0
 66
     1
10
0.0
 20
 0.0
 30
0.0
70
    64
71
4
72
   1
  0
VERTEX
  8
Layer0
10
-3.917913497470223
20
3.0
30
15.188779331065552
 70
     192
  0
VERTEX
  8
Layer0
10
-4.249415973976837
20
0.0
30
15.89968868610004
 70
     192
  0
VERTEX
  8
Layer0
10
-3.917913497470223
20
0.0
30
15.188779331065552
 70
     192
  0
VERTEX
  8
Layer0
10
-4.249415973976837
20
3.0
30
15.89968868610004
 70
     192
  0
VERTEX
  8
Layer0
10
0.0
 20
 0.0
 30
0.0
 70
     128
 71
-1
 72
2
 73
3
  0
VERTEX
  8
Layer0
10
0.0
 20
 0.0
 30
0.0
 70
     128
 71
-2
 72
1
 73
4
  0
SEQEND
  0
POLYLINE
 8
Layer0
 66
     1
10
0.0
 20
 0.0
 30
0.0
70
    64
71
4
72
   1
  0
VERTEX
  8
Layer0
10
-0.6744672510476919
20
0.0
30
29.910239566753642
 70
     192
  0
VERTEX
  8
Layer0
10
-1.3231605129422321
20
3.0
30
29.824837478657106
 70
     192
  0
VERTEX
  8
Layer0
10
-1.3231605129422321
20
0.0
30
29.824837478657106
 70
     192
  0
VERTEX
  8
Layer0
10
-0.6744672510476919
20
3.0
30
29.910239566753642
 70
     192
  0
VERTEX
  8
Layer0
10
0.0
 20
 0.0
 30
0.0
 70
     128
 71
-1
 72
2
 73
3
  0
VERTEX
  8
Layer0
10
0.0
 20
 0.0
 30
0.0
 70
     128
 71
-2
 72
1
 73
4
  0
SEQEND
  0
POLYLINE
 8
Layer0
 66
     1
10
0.0
 20
 0.0
 30
0.0
70
    64
71
4
72
   1
  0
VERTEX
  8
Layer0
10
-4.249415973976837
20
3.0
30
15.89968868610004
 70
     192
  0
VERTEX
  8
Layer0
10
-4.452434068995185
20
0.0
30
16.657362531564363
 70
     192
  0
VERTEX
  8
Layer0
10
-4.249415973976837
20
0.0
30
15.89968868610004
 70
     192
  0
VERTEX
  8
Layer0
10
-4.452434068995185
20
3.0
30
16.657362531564363
 70
     192
  0
VERTEX
  8
Layer0
10
0.0
 20
 0.0
 30
0.0
 70
     128
 71
-1
 72
2
 73
3
  0
VERTEX
  8
Layer0
10
0.0
 20
 0.0
 30
0.0
 70
     128
 71
-2
 72
1
 73
4
  0
SEQEND
  0
POLYLINE
 8
Layer0
 66
     1
10
0.0
 20
 0.0
 30
0.0
70
    64
71
4
72
   1
  0
VERTEX
  8
Layer0
10
-4.452434068995185
20
3.0
30
16.657362531564363
 70
     192
  0
VERTEX
  8
Layer0
10
-4.520799180440249
20
0.0
30
17.438779331065554
 70
     192
  0
VERTEX
  8
Layer0
10
-4.452434068995185
20
0.0
30
16.657362531564363
 70
     192
  0
VERTEX
  8
Layer0
10
-4.520799180440249
20
3.0
30
17.438779331065554
 70
     192
  0
VERTEX
  8
Layer0
10
0.0
 20
 0.0
 30
0.0
 70
     128
 71
-1
 72
2
 73
3
  0
VERTEX
  8
Layer0
10
0.0
 20
 0.0
 30
0.0
 70
     128
 71
-2
 72
1
 73
4
  0
SEQEND
  0
POLYLINE
 8
Layer0
 66
     1
10
0.0
 20
 0.0
 30
0.0
70
    64
71
4
72
   1
  0
VERTEX
  8
Layer0
10
-4.520799180440249
20
3.0
30
17.438779331065554
 70
     192
  0
VERTEX
  8
Layer0
10
-4.520799180440249
20
0.0
30
22.43877933106555
 70
     192
  0
VERTEX
  8
Layer0
10
-4.520799180440249
20
0.0
30
17.438779331065554
 70
     192
  0
VERTEX
  8
Layer0
10
-4.520799180440249
20
3.0
30
22.43877933106555
 70
     192
  0
VERTEX
  8
Layer0
10
0.0
 20
 0.0
 30
0.0
 70
     128
 71
-1
 72
2
 73
3
  0
VERTEX
  8
Layer0
10
0.0
 20
 0.0
 30
0.0
 70
     128
 71
-2
 72
1
 73
4
  0
SEQEND
  0
POLYLINE
 8
Layer0
 66
     1
10
0.0
 20
 0.0
 30
0.0
70
    64
71
4
72
   1
  0
VERTEX
  8
Layer0
10
-4.520799180440249
20
3.0
30
22.43877933106555
 70
     192
  0
VERTEX
  8
Layer0
10
-4.452434068995185
20
0.0
30
23.220196130566737
 70
     192
  0
VERTEX
  8
Layer0
10
-4.520799180440249
20
0.0
30
22.43877933106555
 70
     192
  0
VERTEX
  8
Layer0
10
-4.452434068995185
20
3.0
30
23.220196130566737
 70
     192
  0
VERTEX
  8
Layer0
10
0.0
 20
 0.0
 30
0.0
 70
     128
 71
-1
 72
2
 73
3
  0
VERTEX
  8
Layer0
10
0.0
 20
 0.0
 30
0.0
 70
     128
 71
-2
 72
1
 73
4
  0
SEQEND
  0
POLYLINE
 8
Layer0
 66
     1
10
0.0
 20
 0.0
 30
0.0
70
    64
71
4
72
   1
  0
VERTEX
  8
Layer0
10
-4.452434068995185
20
3.0
30
23.220196130566737
 70
     192
  0
VERTEX
  8
Layer0
10
-4.249415973976836
20
0.0
30
23.977869976031062
 70
     192
  0
VERTEX
  8
Layer0
10
-4.452434068995185
20
0.0
30
23.220196130566737
 70
     192
  0
VERTEX
  8
Layer0
10
-4.249415973976836
20
3.0
30
23.977869976031062
 70
     192
  0
VERTEX
  8
Layer0
10
0.0
 20
 0.0
 30
0.0
 70
     128
 71
-1
 72
2
 73
3
  0
VERTEX
  8
Layer0
10
0.0
 20
 0.0
 30
0.0
 70
     128
 71
-2
 72
1
 73
4
  0
SEQEND
  0
POLYLINE
 8
Layer0
 66
     1
10
0.0
 20
 0.0
 30
0.0
70
    64
71
4
72
   1
  0
VERTEX
  8
Layer0
10
-4.249415973976836
20
3.0
30
23.977869976031062
 70
     192
  0
VERTEX
  8
Layer0
10
-3.9179134974702214
20
0.0
30
24.68877933106555
 70
     192
  0
VERTEX
  8
Layer0
10
-4.249415973976836
20
0.0
30
23.977869976031062
 70
     192
  0
VERTEX
  8
Layer0
10
-3.9179134974702214
20
3.0
30
24.68877933106555
 70
     192
  0
VERTEX
  8
Layer0
10
0.0
 20
 0.0
 30
0.0
 70
     128
 71
-1
 72
2
 73
3
  0
VERTEX
  8
Layer0
10
0.0
 20
 0.0
 30
0.0
 70
     128
 71
-2
 72
1
 73
4
  0
SEQEND
  0
POLYLINE
 8
Layer0
 66
     1
10
0.0
 20
 0.0
 30
0.0
70
    64
71
4
72
   1
  0
VERTEX
  8
Layer0
10
-3.9179134974702214
20
3.0
30
24.68877933106555
 70
     192
  0
VERTEX
  8
Layer0
10
-3.4679991744756498
20
0.0
30
25.331323574654977
 70
     192
  0
VERTEX
  8
Layer0
10
-3.9179134974702214
20
0.0
30
24.68877933106555
 70
     192
  0
VERTEX
  8
Layer0
10
-3.4679991744756498
20
3.0
30
25.331323574654977
 70
     192
  0
VERTEX
  8
Layer0
10
0.0
 20
 0.0
 30
0.0
 70
     128
 71
-1
 72
2
 73
3
  0
VERTEX
  8
Layer0
10
0.0
 20
 0.0
 30
0.0
 70
     128
 71
-2
 72
1
 73
4
  0
SEQEND
  0
POLYLINE
 8
Layer0
 66
     1
10
0.0
 20
 0.0
 30
0.0
70
    64
71
4
72
   1
  0
VERTEX
  8
Layer0
10
-0.02079918044025663
20
0.0
30
29.938779331065547
 70
     192
  0
VERTEX
  8
Layer0
10
-0.6744672510476919
20
3.0
30
29.910239566753642
 70
     192
  0
VERTEX
  8
Layer0
10
-0.6744672510476919
20
0.0
30
29.910239566753642
 70
     192
  0
VERTEX
  8
Layer0
10
-0.02079918044025663
20
3.0
30
29.938779331065547
 70
     192
  0
VERTEX
  8
Layer0
10
0.0
 20
 0.0
 30
0.0
 70
     128
 71
-1
 72
2
 73
3
  0
VERTEX
  8
Layer0
10
0.0
 20
 0.0
 30
0.0
 70
     128
 71
-2
 72
1
 73
4
  0
SEQEND
  0
POLYLINE
 8
Layer0
 66
     1
10
0.0
 20
 0.0
 30
0.0
70
    64
71
4
72
   1
  0
VERTEX
  8
Layer0
10
0.6328688901671787
20
0.0
30
29.910239566753642
 70
     192
  0
VERTEX
  8
Layer0
10
-0.02079918044025663
20
3.0
30
29.938779331065547
 70
     192
  0
VERTEX
  8
Layer0
10
-0.02079918044025663
20
0.0
30
29.938779331065547
 70
     192
  0
VERTEX
  8
Layer0
10
0.6328688901671787
20
3.0
30
29.910239566753642
 70
     192
  0
VERTEX
  8
Layer0
10
0.0
 20
 0.0
 30
0.0
 70
     128
 71
-1
 72
2
 73
3
  0
VERTEX
  8
Layer0
10
0.0
 20
 0.0
 30
0.0
 70
     128
 71
-2
 72
1
 73
4
  0
SEQEND
  0
POLYLINE
 8
Layer0
 66
     1
10
0.0
 20
 0.0
 30
0.0
70
    64
71
4
72
   1
  0
VERTEX
  8
Layer0
10
-2.913343424029676
20
3.0
30
25.88597932510095
 70
     192
  0
VERTEX
  8
Layer0
10
-3.4679991744756498
20
0.0
30
25.331323574654977
 70
     192
  0
VERTEX
  8
Layer0
10
-3.4679991744756498
20
3.0
30
25.331323574654977
 70
     192
  0
VERTEX
  8
Layer0
10
-2.913343424029676
20
0.0
30
25.88597932510095
 70
     192
  0
VERTEX
  8
Layer0
10
0.0
 20
 0.0
 30
0.0
 70
     128
 71
-1
 72
2
 73
3
  0
VERTEX
  8
Layer0
10
0.0
 20
 0.0
 30
0.0
 70
     128
 71
-2
 72
1
 73
4
  0
SEQEND
  0
POLYLINE
 8
Layer0
 66
     1
10
0.0
 20
 0.0
 30
0.0
70
    64
71
4
72
   1
  0
VERTEX
  8
Layer0
10
-1.9619420187091594
20
0.0
30
29.683223028233563
 70
     192
  0
VERTEX
  8
Layer0
10
-2.5859502553827682
20
3.0
30
29.48647398695986
 70
     192
  0
VERTEX
  8
Layer0
10
-2.5859502553827682
20
0.0
30
29.48647398695986
 70
     192
  0
VERTEX
  8
Layer0
10
-1.9619420187091594
20
3.0
30
29.683223028233563
 70
     192
  0
VERTEX
  8
Layer0
10
0.0
 20
 0.0
 30
0.0
 70
     128
 71
-1
 72
2
 73
3
  0
VERTEX
  8
Layer0
10
0.0
 20
 0.0
 30
0.0
 70
     128
 71
-2
 72
1
 73
4
  0
SEQEND
  0
POLYLINE
 8
Layer0
 66
     1
10
0.0
 20
 0.0
 30
0.0
70
    64
71
4
72
   1
  0
VERTEX
  8
Layer0
10
-1.3231605129422321
20
0.0
30
29.824837478657106
 70
     192
  0
VERTEX
  8
Layer0
10
-1.9619420187091594
20
3.0
30
29.683223028233563
 70
     192
  0
VERTEX
  8
Layer0
10
-1.9619420187091594
20
0.0
30
29.683223028233563
 70
     192
  0
VERTEX
  8
Layer0
10
-1.3231605129422321
20
3.0
30
29.824837478657106
 70
     192
  0
VERTEX
  8
Layer0
10
0.0
 20
 0.0
 30
0.0
 70
     128
 71
-1
 72
2
 73
3
  0
VERTEX
  8
Layer0
10
0.0
 20
 0.0
 30
0.0
 70
     128
 71
-2
 72
1
 73
4
  0
SEQEND
  0
POLYLINE
 8
Layer0
 66
     1
10
0.0
 20
 0.0
 30
0.0
70
    64
71
4
72
   1
  0
VERTEX
  8
Layer0
10
-2.270799180440249
20
3.0
30
26.335893648095524
 70
     192
  0
VERTEX
  8
Layer0
10
-2.913343424029676
20
0.0
30
25.88597932510095
 70
     192
  0
VERTEX
  8
Layer0
10
-2.913343424029676
20
3.0
30
25.88597932510095
 70
     192
  0
VERTEX
  8
Layer0
10
-2.270799180440249
20
0.0
30
26.335893648095524
 70
     192
  0
VERTEX
  8
Layer0
10
0.0
 20
 0.0
 30
0.0
 70
     128
 71
-1
 72
2
 73
3
  0
VERTEX
  8
Layer0
10
0.0
 20
 0.0
 30
0.0
 70
     128
 71
-2
 72
1
 73
4
  0
SEQEND
  0
POLYLINE
 8
Layer0
 66
     1
10
0.0
 20
 0.0
 30
0.0
70
    64
71
4
72
   1
  0
VERTEX
  8
Layer0
10
-1.559889825405756
20
3.0
30
26.66739612460214
 70
     192
  0
VERTEX
  8
Layer0
10
-2.270799180440249
20
0.0
30
26.335893648095524
 70
     192
  0
VERTEX
  8
Layer0
10
-2.270799180440249
20
3.0
30
26.335893648095524
 70
     192
  0
VERTEX
  8
Layer0
10
-1.559889825405756
20
0.0
30
26.66739612460214
 70
     192
  0
VERTEX
  8
Layer0
10
0.0
 20
 0.0
 30
0.0
 70
     128
 71
-1
 72
2
 73
3
  0
VERTEX
  8
Layer0
10
0.0
 20
 0.0
 30
0.0
 70
     128
 71
-2
 72
1
 73
4
  0
SEQEND
  0
POLYLINE
 8
Layer0
 66
     1
10
0.0
 20
 0.0
 30
0.0
70
    64
71
4
72
   1
  0
VERTEX
  8
Layer0
10
-0.8022159799414338
20
3.0
30
26.870414219620486
 70
     192
  0
VERTEX
  8
Layer0
10
-1.559889825405756
20
0.0
30
26.66739612460214
 70
     192
  0
VERTEX
  8
Layer0
10
-1.559889825405756
20
3.0
30
26.66739612460214
 70
     192
  0
VERTEX
  8
Layer0
10
-0.8022159799414338
20
0.0
30
26.870414219620486
 70
     192
  0
VERTEX
  8
Layer0
10
0.0
 20
 0.0
 30
0.0
 70
     128
 71
-1
 72
2
 73
3
  0
VERTEX
  8
Layer0
10
0.0
 20
 0.0
 30
0.0
 70
     128
 71
-2
 72
1
 73
4
  0
SEQEND
  0
POLYLINE
 8
Layer0
 66
     1
10
0.0
 20
 0.0
 30
0.0
70
    64
71
4
72
   1
  0
VERTEX
  8
Layer0
10
-3.7707991804402505
20
0.0
30
28.933969859448833
 70
     192
  0
VERTEX
  8
Layer0
10
-4.322622453073096
20
3.0
30
28.582419663232983
 70
     192
  0
VERTEX
  8
Layer0
10
-4.322622453073096
20
0.0
30
28.582419663232983
 70
     192
  0
VERTEX
  8
Layer0
10
-3.7707991804402505
20
3.0
30
28.933969859448833
 70
     192
  0
VERTEX
  8
Layer0
10
0.0
 20
 0.0
 30
0.0
 70
     128
 71
-1
 72
2
 73
3
  0
VERTEX
  8
Layer0
10
0.0
 20
 0.0
 30
0.0
 70
     128
 71
-2
 72
1
 73
4
  0
SEQEND
  0
POLYLINE
 8
Layer0
 66
     1
10
0.0
 20
 0.0
 30
0.0
70
    64
71
4
72
   1
  0
VERTEX
  8
Layer0
10
-5.766132503832585
20
3.0
30
27.259686403714593
 70
     192
  0
VERTEX
  8
Layer0
10
-6.164439512607688
20
0.0
30
26.74060260369839
 70
     192
  0
VERTEX
  8
Layer0
10
-5.766132503832585
20
0.0
30
27.259686403714593
 70
     192
  0
VERTEX
  8
Layer0
10
-6.164439512607688
20
3.0
30
26.74060260369839
 70
     192
  0
VERTEX
  8
Layer0
10
0.0
 20
 0.0
 30
0.0
 70
     128
 71
-1
 72
2
 73
3
  0
VERTEX
  8
Layer0
10
0.0
 20
 0.0
 30
0.0
 70
     128
 71
-2
 72
1
 73
4
  0
SEQEND
  0
POLYLINE
 8
Layer0
 66
     1
10
0.0
 20
 0.0
 30
0.0
70
    64
71
4
72
   1
  0
VERTEX
  8
Layer0
10
-0.020799180440248234
20
3.0
30
26.938779331065554
 70
     192
  0
VERTEX
  8
Layer0
10
-0.8022159799414338
20
0.0
30
26.870414219620486
 70
     192
  0
VERTEX
  8
Layer0
10
-0.8022159799414338
20
3.0
30
26.870414219620486
 70
     192
  0
VERTEX
  8
Layer0
10
-0.020799180440248234
20
0.0
30
26.938779331065554
 70
     192
  0
VERTEX
  8
Layer0
10
0.0
 20
 0.0
 30
0.0
 70
     128
 71
-1
 72
2
 73
3
  0
VERTEX
  8
Layer0
10
0.0
 20
 0.0
 30
0.0
 70
     128
 71
-2
 72
1
 73
4
  0
SEQEND
  0
POLYLINE
 8
Layer0
 66
     1
10
0.0
 20
 0.0
 30
0.0
70
    64
71
4
72
   1
  0
VERTEX
  8
Layer0
10
0.7606176190609375
20
3.0
30
26.870414219620486
 70
     192
  0
VERTEX
  8
Layer0
10
-0.020799180440248234
20
0.0
30
26.938779331065554
 70
     192
  0
VERTEX
  8
Layer0
10
-0.020799180440248234
20
3.0
30
26.938779331065554
 70
     192
  0
VERTEX
  8
Layer0
10
0.7606176190609375
20
0.0
30
26.870414219620486
 70
     192
  0
VERTEX
  8
Layer0
10
0.0
 20
 0.0
 30
0.0
 70
     128
 71
-1
 72
2
 73
3
  0
VERTEX
  8
Layer0
10
0.0
 20
 0.0
 30
0.0
 70
     128
 71
-2
 72
1
 73
4
  0
SEQEND
  0
POLYLINE
 8
Layer0
 66
     1
10
0.0
 20
 0.0
 30
0.0
70
    64
71
4
72
   1
  0
VERTEX
  8
Layer0
10
1.518291464525263
20
3.0
30
26.66739612460214
 70
     192
  0
VERTEX
  8
Layer0
10
0.7606176190609375
20
0.0
30
26.870414219620486
 70
     192
  0
VERTEX
  8
Layer0
10
0.7606176190609375
20
3.0
30
26.870414219620486
 70
     192
  0
VERTEX
  8
Layer0
10
1.518291464525263
20
0.0
30
26.66739612460214
 70
     192
  0
VERTEX
  8
Layer0
10
0.0
 20
 0.0
 30
0.0
 70
     128
 71
-1
 72
2
 73
3
  0
VERTEX
  8
Layer0
10
0.0
 20
 0.0
 30
0.0
 70
     128
 71
-2
 72
1
 73
4
  0
SEQEND
  0
POLYLINE
 8
Layer0
 66
     1
10
0.0
 20
 0.0
 30
0.0
70
    64
71
4
72
   1
  0
VERTEX
  8
Layer0
10
2.229200819559753
20
3.0
30
26.335893648095524
 70
     192
  0
VERTEX
  8
Layer0
10
1.518291464525263
20
0.0
30
26.66739612460214
 70
     192
  0
VERTEX
  8
Layer0
10
1.518291464525263
20
3.0
30
26.66739612460214
 70
     192
  0
VERTEX
  8
Layer0
10
2.229200819559753
20
0.0
30
26.335893648095524
 70
     192
  0
VERTEX
  8
Layer0
10
0.0
 20
 0.0
 30
0.0
 70
     128
 71
-1
 72
2
 73
3
  0
VERTEX
  8
Layer0
10
0.0
 20
 0.0
 30
0.0
 70
     128
 71
-2
 72
1
 73
4
  0
SEQEND
  0
POLYLINE
 8
Layer0
 66
     1
10
0.0
 20
 0.0
 30
0.0
70
    64
71
4
72
   1
  0
VERTEX
  8
Layer0
10
2.8717450631491794
20
3.0
30
25.88597932510095
 70
     192
  0
VERTEX
  8
Layer0
10
2.229200819559753
20
0.0
30
26.335893648095524
 70
     192
  0
VERTEX
  8
Layer0
10
2.229200819559753
20
3.0
30
26.335893648095524
 70
     192
  0
VERTEX
  8
Layer0
10
2.8717450631491794
20
0.0
30
25.88597932510095
 70
     192
  0
VERTEX
  8
Layer0
10
0.0
 20
 0.0
 30
0.0
 70
     128
 71
-1
 72
2
 73
3
  0
VERTEX
  8
Layer0
10
0.0
 20
 0.0
 30
0.0
 70
     128
 71
-2
 72
1
 73
4
  0
SEQEND
  0
POLYLINE
 8
Layer0
 66
     1
10
0.0
 20
 0.0
 30
0.0
70
    64
71
4
72
   1
  0
VERTEX
  8
Layer0
10
3.4264008135951527
20
3.0
30
25.331323574654977
 70
     192
  0
VERTEX
  8
Layer0
10
2.8717450631491794
20
0.0
30
25.88597932510095
 70
     192
  0
VERTEX
  8
Layer0
10
2.8717450631491794
20
3.0
30
25.88597932510095
 70
     192
  0
VERTEX
  8
Layer0
10
3.4264008135951527
20
0.0
30
25.331323574654977
 70
     192
  0
VERTEX
  8
Layer0
10
0.0
 20
 0.0
 30
0.0
 70
     128
 71
-1
 72
2
 73
3
  0
VERTEX
  8
Layer0
10
0.0
 20
 0.0
 30
0.0
 70
     128
 71
-2
 72
1
 73
4
  0
SEQEND
  0
POLYLINE
 8
Layer0
 66
     1
10
0.0
 20
 0.0
 30
0.0
70
    64
71
4
72
   1
  0
VERTEX
  8
Layer0
10
3.4264008135951527
20
3.0
30
25.331323574654977
 70
     192
  0
VERTEX
  8
Layer0
10
3.876315136589726
20
0.0
30
24.68877933106555
 70
     192
  0
VERTEX
  8
Layer0
10
3.4264008135951527
20
0.0
30
25.331323574654977
 70
     192
  0
VERTEX
  8
Layer0
10
3.876315136589726
20
3.0
30
24.68877933106555
 70
     192
  0
VERTEX
  8
Layer0
10
0.0
 20
 0.0
 30
0.0
 70
     128
 71
-1
 72
2
 73
3
  0
VERTEX
  8
Layer0
10
0.0
 20
 0.0
 30
0.0
 70
     128
 71
-2
 72
1
 73
4
  0
SEQEND
  0
POLYLINE
 8
Layer0
 66
     1
10
0.0
 20
 0.0
 30
0.0
70
    64
71
4
72
   1
  0
VERTEX
  8
Layer0
10
3.876315136589726
20
3.0
30
24.68877933106555
 70
     192
  0
VERTEX
  8
Layer0
10
4.207817613096339
20
0.0
30
23.977869976031055
 70
     192
  0
VERTEX
  8
Layer0
10
3.876315136589726
20
0.0
30
24.68877933106555
 70
     192
  0
VERTEX
  8
Layer0
10
4.207817613096339
20
3.0
30
23.977869976031055
 70
     192
  0
VERTEX
  8
Layer0
10
0.0
 20
 0.0
 30
0.0
 70
     128
 71
-1
 72
2
 73
3
  0
VERTEX
  8
Layer0
10
0.0
 20
 0.0
 30
0.0
 70
     128
 71
-2
 72
1
 73
4
  0
SEQEND
  0
POLYLINE
 8
Layer0
 66
     1
10
0.0
 20
 0.0
 30
0.0
70
    64
71
4
72
   1
  0
VERTEX
  8
Layer0
10
-6.818107583215124
20
3.0
30
25.608416294120797
 70
     192
  0
VERTEX
  8
Layer0
10
-7.068493836334563
20
0.0
30
25.003930406008063
 70
     192
  0
VERTEX
  8
Layer0
10
-6.818107583215124
20
0.0
30
25.608416294120797
 70
     192
  0
VERTEX
  8
Layer0
10
-7.068493836334563
20
3.0
30
25.003930406008063
 70
     192
  0
VERTEX
  8
Layer0
10
0.0
 20
 0.0
 30
0.0
 70
     128
 71
-1
 72
2
 73
3
  0
VERTEX
  8
Layer0
10
0.0
 20
 0.0
 30
0.0
 70
     128
 71
-2
 72
1
 73
4
  0
SEQEND
  0
POLYLINE
 8
Layer0
 66
     1
10
0.0
 20
 0.0
 30
0.0
70
    64
71
4
72
   1
  0
VERTEX
  8
Layer0
10
4.207817613096339
20
3.0
30
23.977869976031055
 70
     192
  0
VERTEX
  8
Layer0
10
4.410835708114687
20
0.0
30
23.220196130566734
 70
     192
  0
VERTEX
  8
Layer0
10
4.207817613096339
20
0.0
30
23.977869976031055
 70
     192
  0
VERTEX
  8
Layer0
10
4.410835708114687
20
3.0
30
23.220196130566734
 70
     192
  0
VERTEX
  8
Layer0
10
0.0
 20
 0.0
 30
0.0
 70
     128
 71
-1
 72
2
 73
3
  0
VERTEX
  8
Layer0
10
0.0
 20
 0.0
 30
0.0
 70
     128
 71
-2
 72
1
 73
4
  0
SEQEND
  0
POLYLINE
 8
Layer0
 66
     1
10
0.0
 20
 0.0
 30
0.0
70
    64
71
4
72
   1
  0
VERTEX
  8
Layer0
10
4.410835708114687
20
3.0
30
23.220196130566734
 70
     192
  0
VERTEX
  8
Layer0
10
4.479200819559751
20
0.0
30
22.43877933106555
 70
     192
  0
VERTEX
  8
Layer0
10
4.410835708114687
20
0.0
30
23.220196130566734
 70
     192
  0
VERTEX
  8
Layer0
10
4.479200819559751
20
3.0
30
22.43877933106555
 70
     192
  0
VERTEX
  8
Layer0
10
0.0
 20
 0.0
 30
0.0
 70
     128
 71
-1
 72
2
 73
3
  0
VERTEX
  8
Layer0
10
0.0
 20
 0.0
 30
0.0
 70
     128
 71
-2
 72
1
 73
4
  0
SEQEND
  0
POLYLINE
 8
Layer0
 66
     1
10
0.0
 20
 0.0
 30
0.0
70
    64
71
4
72
   1
  0
VERTEX
  8
Layer0
10
4.479200819559751
20
3.0
30
22.43877933106555
 70
     192
  0
VERTEX
  8
Layer0
10
4.479200819559751
20
0.0
30
17.438779331065554
 70
     192
  0
VERTEX
  8
Layer0
10
4.479200819559751
20
0.0
30
22.43877933106555
 70
     192
  0
VERTEX
  8
Layer0
10
4.479200819559751
20
3.0
30
17.438779331065554
 70
     192
  0
VERTEX
  8
Layer0
10
0.0
 20
 0.0
 30
0.0
 70
     128
 71
-1
 72
2
 73
3
  0
VERTEX
  8
Layer0
10
0.0
 20
 0.0
 30
0.0
 70
     128
 71
-2
 72
1
 73
4
  0
SEQEND
  0
POLYLINE
 8
Layer0
 66
     1
10
0.0
 20
 0.0
 30
0.0
70
    64
71
4
72
   1
  0
VERTEX
  8
Layer0
10
4.479200819559751
20
3.0
30
17.438779331065554
 70
     192
  0
VERTEX
  8
Layer0
10
4.410835708114687
20
0.0
30
16.65736253156436
 70
     192
  0
VERTEX
  8
Layer0
10
4.479200819559751
20
0.0
30
17.438779331065554
 70
     192
  0
VERTEX
  8
Layer0
10
4.410835708114687
20
3.0
30
16.65736253156436
 70
     192
  0
VERTEX
  8
Layer0
10
0.0
 20
 0.0
 30
0.0
 70
     128
 71
-1
 72
2
 73
3
  0
VERTEX
  8
Layer0
10
0.0
 20
 0.0
 30
0.0
 70
     128
 71
-2
 72
1
 73
4
  0
SEQEND
  0
POLYLINE
 8
Layer0
 66
     1
10
0.0
 20
 0.0
 30
0.0
70
    64
71
4
72
   1
  0
VERTEX
  8
Layer0
10
8.979200819559745
20
3.0
30
19.938779331065547
 70
     192
  0
VERTEX
  8
Layer0
10
8.979200819559745
20
0.0
30
3.07275392728111
 70
     192
  0
VERTEX
  8
Layer0
10
8.979200819559745
20
0.0
30
19.938779331065547
 70
     192
  0
VERTEX
  8
Layer0
10
8.979200819559745
20
3.0
30
3.07275392728111
 70
     192
  0
VERTEX
  8
Layer0
10
0.0
 20
 0.0
 30
0.0
 70
     128
 71
-1
 72
2
 73
3
  0
VERTEX
  8
Layer0
10
0.0
 20
 0.0
 30
0.0
 70
     128
 71
-2
 72
1
 73
4
  0
SEQEND
  0
POLYLINE
 8
Layer0
 66
     1
10
0.0
 20
 0.0
 30
0.0
70
    64
71
4
72
   1
  0
VERTEX
  8
Layer0
10
8.979200819559745
20
3.0
30
3.07275392728111
 70
     192
  0
VERTEX
  8
Layer0
10
8.970645680933556
20
0.0
30
2.9422277350610577
 70
     192
  0
VERTEX
  8
Layer0
10
8.979200819559745
20
0.0
30
3.07275392728111
 70
     192
  0
VERTEX
  8
Layer0
10
8.970645680933556
20
3.0
30
2.9422277350610577
 70
     192
  0
VERTEX
  8
Layer0
10
0.0
 20
 0.0
 30
0.0
 70
     128
 71
-1
 72
2
 73
3
  0
VERTEX
  8
Layer0
10
0.0
 20
 0.0
 30
0.0
 70
     128
 71
-2
 72
1
 73
4
  0
SEQEND
  0
POLYLINE
 8
Layer0
 66
     1
10
0.0
 20
 0.0
 30
0.0
70
    64
71
4
72
   1
  0
VERTEX
  8
Layer0
10
8.970645680933556
20
3.0
30
2.9422277350610577
 70
     192
  0
VERTEX
  8
Layer0
10
8.945126645848813
20
0.0
30
2.813934882178589
 70
     192
  0
VERTEX
  8
Layer0
10
8.970645680933556
20
0.0
30
2.9422277350610577
 70
     192
  0
VERTEX
  8
Layer0
10
8.945126645848813
20
3.0
30
2.813934882178589
 70
     192
  0
VERTEX
  8
Layer0
10
0.0
 20
 0.0
 30
0.0
 70
     128
 71
-1
 72
2
 73
3
  0
VERTEX
  8
Layer0
10
0.0
 20
 0.0
 30
0.0
 70
     128
 71
-2
 72
1
 73
4
  0
SEQEND
  0
POLYLINE
 8
Layer0
 66
     1
10
0.0
 20
 0.0
 30
0.0
70
    64
71
4
72
   1
  0
VERTEX
  8
Layer0
10
4.2810240921925855
20
0.0
30
28.58241966323299
 70
     192
  0
VERTEX
  8
Layer0
10
3.72920081955974
20
3.0
30
28.93396985944884
 70
     192
  0
VERTEX
  8
Layer0
10
3.72920081955974
20
0.0
30
28.93396985944884
 70
     192
  0
VERTEX
  8
Layer0
10
4.2810240921925855
20
3.0
30
28.58241966323299
 70
     192
  0
VERTEX
  8
Layer0
10
0.0
 20
 0.0
 30
0.0
 70
     128
 71
-1
 72
2
 73
3
  0
VERTEX
  8
Layer0
10
0.0
 20
 0.0
 30
0.0
 70
     128
 71
-2
 72
1
 73
4
  0
SEQEND
  0
POLYLINE
 8
Layer0
 66
     1
10
0.0
 20
 0.0
 30
0.0
70
    64
71
4
72
   1
  0
VERTEX
  8
Layer0
10
8.945126645848813
20
3.0
30
2.813934882178589
 70
     192
  0
VERTEX
  8
Layer0
10
8.903080352071033
20
0.0
30
2.6900704949160192
 70
     192
  0
VERTEX
  8
Layer0
10
8.945126645848813
20
0.0
30
2.813934882178589
 70
     192
  0
VERTEX
  8
Layer0
10
8.903080352071033
20
3.0
30
2.6900704949160192
 70
     192
  0
VERTEX
  8
Layer0
10
0.0
 20
 0.0
 30
0.0
 70
     128
 71
-1
 72
2
 73
3
  0
VERTEX
  8
Layer0
10
0.0
 20
 0.0
 30
0.0
 70
     128
 71
-2
 72
1
 73
4
  0
SEQEND
  0
POLYLINE
 8
Layer0
 66
     1
10
0.0
 20
 0.0
 30
0.0
70
    64
71
4
72
   1
  0
VERTEX
  8
Layer0
10
1.2815621520617193
20
0.0
30
29.824837478657106
 70
     192
  0
VERTEX
  8
Layer0
10
0.6328688901671787
20
3.0
30
29.910239566753642
 70
     192
  0
VERTEX
  8
Layer0
10
0.6328688901671787
20
0.0
30
29.910239566753642
 70
     192
  0
VERTEX
  8
Layer0
10
1.2815621520617193
20
3.0
30
29.824837478657106
 70
     192
  0
VERTEX
  8
Layer0
10
0.0
 20
 0.0
 30
0.0
 70
     128
 71
-1
 72
2
 73
3
  0
VERTEX
  8
Layer0
10
0.0
 20
 0.0
 30
0.0
 70
     128
 71
-2
 72
1
 73
4
  0
SEQEND
  0
POLYLINE
 8
Layer0
 66
     1
10
0.0
 20
 0.0
 30
0.0
70
    64
71
4
72
   1
  0
VERTEX
  8
Layer0
10
8.903080352071033
20
3.0
30
2.6900704949160192
 70
     192
  0
VERTEX
  8
Layer0
10
8.845226223344184
20
0.0
30
2.5727539272811097
 70
     192
  0
VERTEX
  8
Layer0
10
8.903080352071033
20
0.0
30
2.6900704949160192
 70
     192
  0
VERTEX
  8
Layer0
10
8.845226223344184
20
3.0
30
2.5727539272811097
 70
     192
  0
VERTEX
  8
Layer0
10
0.0
 20
 0.0
 30
0.0
 70
     128
 71
-1
 72
2
 73
3
  0
VERTEX
  8
Layer0
10
0.0
 20
 0.0
 30
0.0
 70
     128
 71
-2
 72
1
 73
4
  0
SEQEND
  0
POLYLINE
 8
Layer0
 66
     1
10
0.0
 20
 0.0
 30
0.0
70
    64
71
4
72
   1
  0
VERTEX
  8
Layer0
10
8.845226223344184
20
3.0
30
2.5727539272811097
 70
     192
  0
VERTEX
  8
Layer0
10
8.77255415985098
20
0.0
30
2.4639924982723898
 70
     192
  0
VERTEX
  8
Layer0
10
8.845226223344184
20
0.0
30
2.5727539272811097
 70
     192
  0
VERTEX
  8
Layer0
10
8.77255415985098
20
3.0
30
2.4639924982723898
 70
     192
  0
VERTEX
  8
Layer0
10
0.0
 20
 0.0
 30
0.0
 70
     128
 71
-1
 72
2
 73
3
  0
VERTEX
  8
Layer0
10
0.0
 20
 0.0
 30
0.0
 70
     128
 71
-2
 72
1
 73
4
  0
SEQEND
  0
POLYLINE
 8
Layer0
 66
     1
10
0.0
 20
 0.0
 30
0.0
70
    64
71
4
72
   1
  0
VERTEX
  8
Layer0
10
8.77255415985098
20
3.0
30
2.4639924982723898
 70
     192
  0
VERTEX
  8
Layer0
10
8.686307600746293
20
0.0
30
2.3656471460945623
 70
     192
  0
VERTEX
  8
Layer0
10
8.77255415985098
20
0.0
30
2.4639924982723898
 70
     192
  0
VERTEX
  8
Layer0
10
8.686307600746293
20
3.0
30
2.3656471460945623
 70
     192
  0
VERTEX
  8
Layer0
10
0.0
 20
 0.0
 30
0.0
 70
     128
 71
-1
 72
2
 73
3
  0
VERTEX
  8
Layer0
10
0.0
 20
 0.0
 30
0.0
 70
     128
 71
-2
 72
1
 73
4
  0
SEQEND
  0
POLYLINE
 8
Layer0
 66
     1
10
0.0
 20
 0.0
 30
0.0
70
    64
71
4
72
   1
  0
VERTEX
  8
Layer0
10
8.686307600746293
20
0.0
30
2.3656471460945623
 70
     192
  0
VERTEX
  8
Layer0
10
8.587962248568465
20
3.0
30
2.2794005869898744
 70
     192
  0
VERTEX
  8
Layer0
10
8.587962248568465
20
0.0
30
2.2794005869898744
 70
     192
  0
VERTEX
  8
Layer0
10
8.686307600746293
20
3.0
30
2.3656471460945623
 70
     192
  0
VERTEX
  8
Layer0
10
0.0
 20
 0.0
 30
0.0
 70
     128
 71
-1
 72
2
 73
3
  0
VERTEX
  8
Layer0
10
0.0
 20
 0.0
 30
0.0
 70
     128
 71
-2
 72
1
 73
4
  0
SEQEND
  0
POLYLINE
 8
Layer0
 66
     1
10
0.0
 20
 0.0
 30
0.0
70
    64
71
4
72
   1
  0
VERTEX
  8
Layer0
10
8.587962248568465
20
0.0
30
2.2794005869898744
 70
     192
  0
VERTEX
  8
Layer0
10
8.479200819559745
20
3.0
30
2.2067285234966714
 70
     192
  0
VERTEX
  8
Layer0
10
8.479200819559745
20
0.0
30
2.2067285234966714
 70
     192
  0
VERTEX
  8
Layer0
10
8.587962248568465
20
3.0
30
2.2794005869898744
 70
     192
  0
VERTEX
  8
Layer0
10
0.0
 20
 0.0
 30
0.0
 70
     128
 71
-1
 72
2
 73
3
  0
VERTEX
  8
Layer0
10
0.0
 20
 0.0
 30
0.0
 70
     128
 71
-2
 72
1
 73
4
  0
SEQEND
  0
POLYLINE
 8
Layer0
 66
     1
10
0.0
 20
 0.0
 30
0.0
70
    64
71
4
72
   1
  0
VERTEX
  8
Layer0
10
8.479200819559745
20
0.0
30
2.2067285234966714
 70
     192
  0
VERTEX
  8
Layer0
10
8.361884251924835
20
3.0
30
2.1488743947698232
 70
     192
  0
VERTEX
  8
Layer0
10
8.361884251924835
20
0.0
30
2.1488743947698232
 70
     192
  0
VERTEX
  8
Layer0
10
8.479200819559745
20
3.0
30
2.2067285234966714
 70
     192
  0
VERTEX
  8
Layer0
10
0.0
 20
 0.0
 30
0.0
 70
     128
 71
-1
 72
2
 73
3
  0
VERTEX
  8
Layer0
10
0.0
 20
 0.0
 30
0.0
 70
     128
 71
-2
 72
1
 73
4
  0
SEQEND
  0
POLYLINE
 8
Layer0
 66
     1
10
0.0
 20
 0.0
 30
0.0
70
    64
71
4
72
   1
  0
VERTEX
  8
Layer0
10
8.361884251924835
20
0.0
30
2.1488743947698232
 70
     192
  0
VERTEX
  8
Layer0
10
8.238019864662265
20
3.0
30
2.1068281009920424
 70
     192
  0
VERTEX
  8
Layer0
10
8.238019864662265
20
0.0
30
2.1068281009920424
 70
     192
  0
VERTEX
  8
Layer0
10
8.361884251924835
20
3.0
30
2.1488743947698232
 70
     192
  0
VERTEX
  8
Layer0
10
0.0
 20
 0.0
 30
0.0
 70
     128
 71
-1
 72
2
 73
3
  0
VERTEX
  8
Layer0
10
0.0
 20
 0.0
 30
0.0
 70
     128
 71
-2
 72
1
 73
4
  0
SEQEND
  0
POLYLINE
 8
Layer0
 66
     1
10
0.0
 20
 0.0
 30
0.0
70
    64
71
4
72
   1
  0
VERTEX
  8
Layer0
10
8.238019864662265
20
0.0
30
2.1068281009920424
 70
     192
  0
VERTEX
  8
Layer0
10
8.109727011779796
20
3.0
30
2.0813090659073
 70
     192
  0
VERTEX
  8
Layer0
10
8.109727011779796
20
0.0
30
2.0813090659073
 70
     192
  0
VERTEX
  8
Layer0
10
8.238019864662265
20
3.0
30
2.1068281009920424
 70
     192
  0
VERTEX
  8
Layer0
10
0.0
 20
 0.0
 30
0.0
 70
     128
 71
-1
 72
2
 73
3
  0
VERTEX
  8
Layer0
10
0.0
 20
 0.0
 30
0.0
 70
     128
 71
-2
 72
1
 73
4
  0
SEQEND
  0
POLYLINE
 8
Layer0
 66
     1
10
0.0
 20
 0.0
 30
0.0
70
    64
71
4
72
   1
  0
VERTEX
  8
Layer0
10
-4.841706253089295
20
0.0
30
28.18411265445788
 70
     192
  0
VERTEX
  8
Layer0
10
-5.324100039339355
20
3.0
30
27.742080189964653
 70
     192
  0
VERTEX
  8
Layer0
10
-5.324100039339355
20
0.0
30
27.742080189964653
 70
     192
  0
VERTEX
  8
Layer0
10
-4.841706253089295
20
3.0
30
28.18411265445788
 70
     192
  0
VERTEX
  8
Layer0
10
0.0
 20
 0.0
 30
0.0
 70
     128
 71
-1
 72
2
 73
3
  0
VERTEX
  8
Layer0
10
0.0
 20
 0.0
 30
0.0
 70
     128
 71
-2
 72
1
 73
4
  0
SEQEND
  0
POLYLINE
 8
Layer0
 66
     1
10
0.0
 20
 0.0
 30
0.0
70
    64
71
4
72
   1
  0
VERTEX
  8
Layer0
10
-4.322622453073096
20
0.0
30
28.582419663232983
 70
     192
  0
VERTEX
  8
Layer0
10
-4.841706253089295
20
3.0
30
28.18411265445788
 70
     192
  0
VERTEX
  8
Layer0
10
-4.841706253089295
20
0.0
30
28.18411265445788
 70
     192
  0
VERTEX
  8
Layer0
10
-4.322622453073096
20
3.0
30
28.582419663232983
 70
     192
  0
VERTEX
  8
Layer0
10
0.0
 20
 0.0
 30
0.0
 70
     128
 71
-1
 72
2
 73
3
  0
VERTEX
  8
Layer0
10
0.0
 20
 0.0
 30
0.0
 70
     128
 71
-2
 72
1
 73
4
  0
SEQEND
  0
POLYLINE
 8
Layer0
 66
     1
10
0.0
 20
 0.0
 30
0.0
70
    64
71
4
72
   1
  0
VERTEX
  8
Layer0
10
-6.515989708823539
20
3.0
30
26.188779331065547
 70
     192
  0
VERTEX
  8
Layer0
10
-6.818107583215124
20
0.0
30
25.608416294120797
 70
     192
  0
VERTEX
  8
Layer0
10
-6.515989708823539
20
0.0
30
26.188779331065547
 70
     192
  0
VERTEX
  8
Layer0
10
-6.818107583215124
20
3.0
30
25.608416294120797
 70
     192
  0
VERTEX
  8
Layer0
10
0.0
 20
 0.0
 30
0.0
 70
     128
 71
-1
 72
2
 73
3
  0
VERTEX
  8
Layer0
10
0.0
 20
 0.0
 30
0.0
 70
     128
 71
-2
 72
1
 73
4
  0
SEQEND
  0
POLYLINE
 8
Layer0
 66
     1
10
0.0
 20
 0.0
 30
0.0
70
    64
71
4
72
   1
  0
VERTEX
  8
Layer0
10
-6.164439512607688
20
3.0
30
26.74060260369839
 70
     192
  0
VERTEX
  8
Layer0
10
-6.515989708823539
20
0.0
30
26.188779331065547
 70
     192
  0
VERTEX
  8
Layer0
10
-6.164439512607688
20
0.0
30
26.74060260369839
 70
     192
  0
VERTEX
  8
Layer0
10
-6.515989708823539
20
3.0
30
26.188779331065547
 70
     192
  0
VERTEX
  8
Layer0
10
0.0
 20
 0.0
 30
0.0
 70
     128
 71
-1
 72
2
 73
3
  0
VERTEX
  8
Layer0
10
0.0
 20
 0.0
 30
0.0
 70
     128
 71
-2
 72
1
 73
4
  0
SEQEND
  0
POLYLINE
 8
Layer0
 66
     1
10
0.0
 20
 0.0
 30
0.0
70
    64
71
4
72
   1
  0
VERTEX
  8
Layer0
10
4.800107892208784
20
0.0
30
28.184112654457888
 70
     192
  0
VERTEX
  8
Layer0
10
4.2810240921925855
20
3.0
30
28.58241966323299
 70
     192
  0
VERTEX
  8
Layer0
10
4.2810240921925855
20
0.0
30
28.58241966323299
 70
     192
  0
VERTEX
  8
Layer0
10
4.800107892208784
20
3.0
30
28.184112654457888
 70
     192
  0
VERTEX
  8
Layer0
10
0.0
 20
 0.0
 30
0.0
 70
     128
 71
-1
 72
2
 73
3
  0
VERTEX
  8
Layer0
10
0.0
 20
 0.0
 30
0.0
 70
     128
 71
-2
 72
1
 73
4
  0
SEQEND
  0
POLYLINE
 8
Layer0
 66
     1
10
0.0
 20
 0.0
 30
0.0
70
    64
71
4
72
   1
  0
VERTEX
  8
Layer0
10
8.109727011779796
20
0.0
30
2.0813090659073
 70
     192
  0
VERTEX
  8
Layer0
10
7.979200819559746
20
3.0
30
2.0727539272811106
 70
     192
  0
VERTEX
  8
Layer0
10
7.979200819559746
20
0.0
30
2.0727539272811106
 70
     192
  0
VERTEX
  8
Layer0
10
8.109727011779796
20
3.0
30
2.0813090659073
 70
     192
  0
VERTEX
  8
Layer0
10
0.0
 20
 0.0
 30
0.0
 70
     128
 71
-1
 72
2
 73
3
  0
VERTEX
  8
Layer0
10
0.0
 20
 0.0
 30
0.0
 70
     128
 71
-2
 72
1
 73
4
  0
SEQEND
  0
POLYLINE
 8
Layer0
 66
     1
10
0.0
 20
 0.0
 30
0.0
70
    64
71
4
72
   1
  0
VERTEX
  8
Layer0
10
1.9203436578286466
20
0.0
30
29.683223028233563
 70
     192
  0
VERTEX
  8
Layer0
10
1.2815621520617193
20
3.0
30
29.824837478657106
 70
     192
  0
VERTEX
  8
Layer0
10
1.2815621520617193
20
0.0
30
29.824837478657106
 70
     192
  0
VERTEX
  8
Layer0
10
1.9203436578286466
20
3.0
30
29.683223028233563
 70
     192
  0
VERTEX
  8
Layer0
10
0.0
 20
 0.0
 30
0.0
 70
     128
 71
-1
 72
2
 73
3
  0
VERTEX
  8
Layer0
10
0.0
 20
 0.0
 30
0.0
 70
     128
 71
-2
 72
1
 73
4
  0
SEQEND
  0
POLYLINE
 8
Layer0
 66
     1
10
0.0
 20
 0.0
 30
0.0
70
    64
71
4
72
   1
  0
VERTEX
  8
Layer0
10
2.544351894502255
20
0.0
30
29.48647398695986
 70
     192
  0
VERTEX
  8
Layer0
10
1.9203436578286466
20
3.0
30
29.683223028233563
 70
     192
  0
VERTEX
  8
Layer0
10
1.9203436578286466
20
0.0
30
29.683223028233563
 70
     192
  0
VERTEX
  8
Layer0
10
2.544351894502255
20
3.0
30
29.48647398695986
 70
     192
  0
VERTEX
  8
Layer0
10
0.0
 20
 0.0
 30
0.0
 70
     128
 71
-1
 72
2
 73
3
  0
VERTEX
  8
Layer0
10
0.0
 20
 0.0
 30
0.0
 70
     128
 71
-2
 72
1
 73
4
  0
SEQEND
  0
POLYLINE
 8
Layer0
 66
     1
10
0.0
 20
 0.0
 30
0.0
70
    64
71
4
72
   1
  0
VERTEX
  8
Layer0
10
7.979200819559746
20
0.0
30
2.0727539272811106
 70
     192
  0
VERTEX
  8
Layer0
10
7.848674627339693
20
3.0
30
2.0813090659073
 70
     192
  0
VERTEX
  8
Layer0
10
7.848674627339693
20
0.0
30
2.0813090659073
 70
     192
  0
VERTEX
  8
Layer0
10
7.979200819559746
20
3.0
30
2.0727539272811106
 70
     192
  0
VERTEX
  8
Layer0
10
0.0
 20
 0.0
 30
0.0
 70
     128
 71
-1
 72
2
 73
3
  0
VERTEX
  8
Layer0
10
0.0
 20
 0.0
 30
0.0
 70
     128
 71
-2
 72
1
 73
4
  0
SEQEND
  0
POLYLINE
 8
Layer0
 66
     1
10
0.0
 20
 0.0
 30
0.0
70
    64
71
4
72
   1
  0
VERTEX
  8
Layer0
10
7.848674627339693
20
0.0
30
2.0813090659073
 70
     192
  0
VERTEX
  8
Layer0
10
7.720381774457224
20
3.0
30
2.1068281009920424
 70
     192
  0
VERTEX
  8
Layer0
10
7.720381774457224
20
0.0
30
2.1068281009920424
 70
     192
  0
VERTEX
  8
Layer0
10
7.848674627339693
20
3.0
30
2.0813090659073
 70
     192
  0
VERTEX
  8
Layer0
10
0.0
 20
 0.0
 30
0.0
 70
     128
 71
-1
 72
2
 73
3
  0
VERTEX
  8
Layer0
10
0.0
 20
 0.0
 30
0.0
 70
     128
 71
-2
 72
1
 73
4
  0
SEQEND
  0
POLYLINE
 8
Layer0
 66
     1
10
0.0
 20
 0.0
 30
0.0
70
    64
71
4
72
   1
  0
VERTEX
  8
Layer0
10
7.720381774457224
20
0.0
30
2.1068281009920424
 70
     192
  0
VERTEX
  8
Layer0
10
7.5965173871946545
20
3.0
30
2.1488743947698232
 70
     192
  0
VERTEX
  8
Layer0
10
7.5965173871946545
20
0.0
30
2.1488743947698232
 70
     192
  0
VERTEX
  8
Layer0
10
7.720381774457224
20
3.0
30
2.1068281009920424
 70
     192
  0
VERTEX
  8
Layer0
10
0.0
 20
 0.0
 30
0.0
 70
     128
 71
-1
 72
2
 73
3
  0
VERTEX
  8
Layer0
10
0.0
 20
 0.0
 30
0.0
 70
     128
 71
-2
 72
1
 73
4
  0
SEQEND
  0
POLYLINE
 8
Layer0
 66
     1
10
0.0
 20
 0.0
 30
0.0
70
    64
71
4
72
   1
  0
VERTEX
  8
Layer0
10
7.5965173871946545
20
0.0
30
2.1488743947698232
 70
     192
  0
VERTEX
  8
Layer0
10
7.479200819559745
20
3.0
30
2.2067285234966727
 70
     192
  0
VERTEX
  8
Layer0
10
7.479200819559745
20
0.0
30
2.2067285234966727
 70
     192
  0
VERTEX
  8
Layer0
10
7.5965173871946545
20
3.0
30
2.1488743947698232
 70
     192
  0
VERTEX
  8
Layer0
10
0.0
 20
 0.0
 30
0.0
 70
     128
 71
-1
 72
2
 73
3
  0
VERTEX
  8
Layer0
10
0.0
 20
 0.0
 30
0.0
 70
     128
 71
-2
 72
1
 73
4
  0
SEQEND
  0
POLYLINE
 8
Layer0
 66
     1
10
0.0
 20
 0.0
 30
0.0
70
    64
71
4
72
   1
  0
VERTEX
  8
Layer0
10
7.479200819559745
20
0.0
30
2.2067285234966727
 70
     192
  0
VERTEX
  8
Layer0
10
7.370439390551025
20
3.0
30
2.2794005869898757
 70
     192
  0
VERTEX
  8
Layer0
10
7.370439390551025
20
0.0
30
2.2794005869898757
 70
     192
  0
VERTEX
  8
Layer0
10
7.479200819559745
20
3.0
30
2.2067285234966727
 70
     192
  0
VERTEX
  8
Layer0
10
0.0
 20
 0.0
 30
0.0
 70
     128
 71
-1
 72
2
 73
3
  0
VERTEX
  8
Layer0
10
0.0
 20
 0.0
 30
0.0
 70
     128
 71
-2
 72
1
 73
4
  0
SEQEND
  0
POLYLINE
 8
Layer0
 66
     1
10
0.0
 20
 0.0
 30
0.0
70
    64
71
4
72
   1
  0
VERTEX
  8
Layer0
10
7.370439390551025
20
0.0
30
2.2794005869898757
 70
     192
  0
VERTEX
  8
Layer0
10
7.272094038373198
20
3.0
30
2.365647146094564
 70
     192
  0
VERTEX
  8
Layer0
10
7.272094038373198
20
0.0
30
2.365647146094564
 70
     192
  0
VERTEX
  8
Layer0
10
7.370439390551025
20
3.0
30
2.2794005869898757
 70
     192
  0
VERTEX
  8
Layer0
10
0.0
 20
 0.0
 30
0.0
 70
     128
 71
-1
 72
2
 73
3
  0
VERTEX
  8
Layer0
10
0.0
 20
 0.0
 30
0.0
 70
     128
 71
-2
 72
1
 73
4
  0
SEQEND
  0
POLYLINE
 8
Layer0
 66
     1
10
0.0
 20
 0.0
 30
0.0
70
    64
71
4
72
   1
  0
VERTEX
  8
Layer0
10
7.272094038373198
20
3.0
30
2.365647146094564
 70
     192
  0
VERTEX
  8
Layer0
10
7.18584747926851
20
0.0
30
2.4639924982723898
 70
     192
  0
VERTEX
  8
Layer0
10
7.272094038373198
20
0.0
30
2.365647146094564
 70
     192
  0
VERTEX
  8
Layer0
10
7.18584747926851
20
3.0
30
2.4639924982723898
 70
     192
  0
VERTEX
  8
Layer0
10
0.0
 20
 0.0
 30
0.0
 70
     128
 71
-1
 72
2
 73
3
  0
VERTEX
  8
Layer0
10
0.0
 20
 0.0
 30
0.0
 70
     128
 71
-2
 72
1
 73
4
  0
SEQEND
  0
POLYLINE
 8
Layer0
 66
     1
10
0.0
 20
 0.0
 30
0.0
70
    64
71
4
72
   1
  0
VERTEX
  8
Layer0
10
7.18584747926851
20
3.0
30
2.4639924982723898
 70
     192
  0
VERTEX
  8
Layer0
10
7.113175415775307
20
0.0
30
2.572753927281111
 70
     192
  0
VERTEX
  8
Layer0
10
7.18584747926851
20
0.0
30
2.4639924982723898
 70
     192
  0
VERTEX
  8
Layer0
10
7.113175415775307
20
3.0
30
2.572753927281111
 70
     192
  0
VERTEX
  8
Layer0
10
0.0
 20
 0.0
 30
0.0
 70
     128
 71
-1
 72
2
 73
3
  0
VERTEX
  8
Layer0
10
0.0
 20
 0.0
 30
0.0
 70
     128
 71
-2
 72
1
 73
4
  0
SEQEND
  0
POLYLINE
 8
Layer0
 66
     1
10
0.0
 20
 0.0
 30
0.0
70
    64
71
4
72
   1
  0
VERTEX
  8
Layer0
10
7.113175415775307
20
3.0
30
2.572753927281111
 70
     192
  0
VERTEX
  8
Layer0
10
7.055321287048458
20
0.0
30
2.690070494916021
 70
     192
  0
VERTEX
  8
Layer0
10
7.113175415775307
20
0.0
30
2.572753927281111
 70
     192
  0
VERTEX
  8
Layer0
10
7.055321287048458
20
3.0
30
2.690070494916021
 70
     192
  0
VERTEX
  8
Layer0
10
0.0
 20
 0.0
 30
0.0
 70
     128
 71
-1
 72
2
 73
3
  0
VERTEX
  8
Layer0
10
0.0
 20
 0.0
 30
0.0
 70
     128
 71
-2
 72
1
 73
4
  0
SEQEND
  0
POLYLINE
 8
Layer0
 66
     1
10
0.0
 20
 0.0
 30
0.0
70
    64
71
4
72
   1
  0
VERTEX
  8
Layer0
10
7.055321287048458
20
3.0
30
2.690070494916021
 70
     192
  0
VERTEX
  8
Layer0
10
7.013274993270678
20
0.0
30
2.8139348821785903
 70
     192
  0
VERTEX
  8
Layer0
10
7.055321287048458
20
0.0
30
2.690070494916021
 70
     192
  0
VERTEX
  8
Layer0
10
7.013274993270678
20
3.0
30
2.8139348821785903
 70
     192
  0
VERTEX
  8
Layer0
10
0.0
 20
 0.0
 30
0.0
 70
     128
 71
-1
 72
2
 73
3
  0
VERTEX
  8
Layer0
10
0.0
 20
 0.0
 30
0.0
 70
     128
 71
-2
 72
1
 73
4
  0
SEQEND
  0
POLYLINE
 8
Layer0
 66
     1
10
0.0
 20
 0.0
 30
0.0
70
    64
71
4
72
   1
  0
VERTEX
  8
Layer0
10
7.013274993270678
20
3.0
30
2.8139348821785903
 70
     192
  0
VERTEX
  8
Layer0
10
6.987755958185935
20
0.0
30
2.942227735061059
 70
     192
  0
VERTEX
  8
Layer0
10
7.013274993270678
20
0.0
30
2.8139348821785903
 70
     192
  0
VERTEX
  8
Layer0
10
6.987755958185935
20
3.0
30
2.942227735061059
 70
     192
  0
VERTEX
  8
Layer0
10
0.0
 20
 0.0
 30
0.0
 70
     128
 71
-1
 72
2
 73
3
  0
VERTEX
  8
Layer0
10
0.0
 20
 0.0
 30
0.0
 70
     128
 71
-2
 72
1
 73
4
  0
SEQEND
  0
POLYLINE
 8
Layer0
 66
     1
10
0.0
 20
 0.0
 30
0.0
70
    64
71
4
72
   1
  0
VERTEX
  8
Layer0
10
6.987755958185935
20
3.0
30
2.942227735061059
 70
     192
  0
VERTEX
  8
Layer0
10
6.979200819559746
20
0.0
30
3.07275392728111
 70
     192
  0
VERTEX
  8
Layer0
10
6.987755958185935
20
0.0
30
2.942227735061059
 70
     192
  0
VERTEX
  8
Layer0
10
6.979200819559746
20
3.0
30
3.07275392728111
 70
     192
  0
VERTEX
  8
Layer0
10
0.0
 20
 0.0
 30
0.0
 70
     128
 71
-1
 72
2
 73
3
  0
VERTEX
  8
Layer0
10
0.0
 20
 0.0
 30
0.0
 70
     128
 71
-2
 72
1
 73
4
  0
SEQEND
  0
POLYLINE
 8
Layer0
 66
     1
10
0.0
 20
 0.0
 30
0.0
70
    64
71
4
72
   1
  0
VERTEX
  8
Layer0
10
6.979200819559746
20
3.0
30
3.07275392728111
 70
     192
  0
VERTEX
  8
Layer0
10
6.987755958185935
20
0.0
30
3.2032801195011618
 70
     192
  0
VERTEX
  8
Layer0
10
6.979200819559746
20
0.0
30
3.07275392728111
 70
     192
  0
VERTEX
  8
Layer0
10
6.987755958185935
20
3.0
30
3.2032801195011618
 70
     192
  0
VERTEX
  8
Layer0
10
0.0
 20
 0.0
 30
0.0
 70
     128
 71
-1
 72
2
 73
3
  0
VERTEX
  8
Layer0
10
0.0
 20
 0.0
 30
0.0
 70
     128
 71
-2
 72
1
 73
4
  0
SEQEND
  0
POLYLINE
 8
Layer0
 66
     1
10
0.0
 20
 0.0
 30
0.0
70
    64
71
4
72
   1
  0
VERTEX
  8
Layer0
10
6.987755958185935
20
3.0
30
3.2032801195011618
 70
     192
  0
VERTEX
  8
Layer0
10
7.013274993270678
20
0.0
30
3.331572972383632
 70
     192
  0
VERTEX
  8
Layer0
10
6.987755958185935
20
0.0
30
3.2032801195011618
 70
     192
  0
VERTEX
  8
Layer0
10
7.013274993270678
20
3.0
30
3.331572972383632
 70
     192
  0
VERTEX
  8
Layer0
10
0.0
 20
 0.0
 30
0.0
 70
     128
 71
-1
 72
2
 73
3
  0
VERTEX
  8
Layer0
10
0.0
 20
 0.0
 30
0.0
 70
     128
 71
-2
 72
1
 73
4
  0
SEQEND
  0
POLYLINE
 8
Layer0
 66
     1
10
0.0
 20
 0.0
 30
0.0
70
    64
71
4
72
   1
  0
VERTEX
  8
Layer0
10
7.013274993270678
20
3.0
30
3.331572972383632
 70
     192
  0
VERTEX
  8
Layer0
10
7.055321287048458
20
0.0
30
3.4554373596462
 70
     192
  0
VERTEX
  8
Layer0
10
7.013274993270678
20
0.0
30
3.331572972383632
 70
     192
  0
VERTEX
  8
Layer0
10
7.055321287048458
20
3.0
30
3.4554373596462
 70
     192
  0
VERTEX
  8
Layer0
10
0.0
 20
 0.0
 30
0.0
 70
     128
 71
-1
 72
2
 73
3
  0
VERTEX
  8
Layer0
10
0.0
 20
 0.0
 30
0.0
 70
     128
 71
-2
 72
1
 73
4
  0
SEQEND
  0
POLYLINE
 8
Layer0
 66
     1
10
0.0
 20
 0.0
 30
0.0
70
    64
71
4
72
   1
  0
VERTEX
  8
Layer0
10
7.055321287048458
20
3.0
30
3.4554373596462
 70
     192
  0
VERTEX
  8
Layer0
10
7.113175415775307
20
0.0
30
3.5727539272811106
 70
     192
  0
VERTEX
  8
Layer0
10
7.055321287048458
20
0.0
30
3.4554373596462
 70
     192
  0
VERTEX
  8
Layer0
10
7.113175415775307
20
3.0
30
3.5727539272811106
 70
     192
  0
VERTEX
  8
Layer0
10
0.0
 20
 0.0
 30
0.0
 70
     128
 71
-1
 72
2
 73
3
  0
VERTEX
  8
Layer0
10
0.0
 20
 0.0
 30
0.0
 70
     128
 71
-2
 72
1
 73
4
  0
SEQEND
  0
POLYLINE
 8
Layer0
 66
     1
10
0.0
 20
 0.0
 30
0.0
70
    64
71
4
72
   1
  0
VERTEX
  8
Layer0
10
7.113175415775307
20
3.0
30
3.5727539272811106
 70
     192
  0
VERTEX
  8
Layer0
10
7.185847479268511
20
0.0
30
3.681515356289831
 70
     192
  0
VERTEX
  8
Layer0
10
7.113175415775307
20
0.0
30
3.5727539272811106
 70
     192
  0
VERTEX
  8
Layer0
10
7.185847479268511
20
3.0
30
3.681515356289831
 70
     192
  0
VERTEX
  8
Layer0
10
0.0
 20
 0.0
 30
0.0
 70
     128
 71
-1
 72
2
 73
3
  0
VERTEX
  8
Layer0
10
0.0
 20
 0.0
 30
0.0
 70
     128
 71
-2
 72
1
 73
4
  0
SEQEND
  0
POLYLINE
 8
Layer0
 66
     1
10
0.0
 20
 0.0
 30
0.0
70
    64
71
4
72
   1
  0
VERTEX
  8
Layer0
10
7.185847479268511
20
3.0
30
3.681515356289831
 70
     192
  0
VERTEX
  8
Layer0
10
7.272094038373198
20
0.0
30
3.779860708467658
 70
     192
  0
VERTEX
  8
Layer0
10
7.185847479268511
20
0.0
30
3.681515356289831
 70
     192
  0
VERTEX
  8
Layer0
10
7.272094038373198
20
3.0
30
3.779860708467658
 70
     192
  0
VERTEX
  8
Layer0
10
0.0
 20
 0.0
 30
0.0
 70
     128
 71
-1
 72
2
 73
3
  0
VERTEX
  8
Layer0
10
0.0
 20
 0.0
 30
0.0
 70
     128
 71
-2
 72
1
 73
4
  0
SEQEND
  0
POLYLINE
 8
Layer0
 66
     1
10
0.0
 20
 0.0
 30
0.0
70
    64
71
4
72
   1
  0
VERTEX
  8
Layer0
10
7.370439390551025
20
3.0
30
3.8661072675723465
 70
     192
  0
VERTEX
  8
Layer0
10
7.272094038373198
20
0.0
30
3.779860708467658
 70
     192
  0
VERTEX
  8
Layer0
10
7.272094038373198
20
3.0
30
3.779860708467658
 70
     192
  0
VERTEX
  8
Layer0
10
7.370439390551025
20
0.0
30
3.8661072675723465
 70
     192
  0
VERTEX
  8
Layer0
10
0.0
 20
 0.0
 30
0.0
 70
     128
 71
-1
 72
2
 73
3
  0
VERTEX
  8
Layer0
10
0.0
 20
 0.0
 30
0.0
 70
     128
 71
-2
 72
1
 73
4
  0
SEQEND
  0
POLYLINE
 8
Layer0
 66
     1
10
0.0
 20
 0.0
 30
0.0
70
    64
71
4
72
   1
  0
VERTEX
  8
Layer0
10
7.479200819559747
20
3.0
30
3.9387793310655494
 70
     192
  0
VERTEX
  8
Layer0
10
7.370439390551025
20
0.0
30
3.8661072675723465
 70
     192
  0
VERTEX
  8
Layer0
10
7.370439390551025
20
3.0
30
3.8661072675723465
 70
     192
  0
VERTEX
  8
Layer0
10
7.479200819559747
20
0.0
30
3.9387793310655494
 70
     192
  0
VERTEX
  8
Layer0
10
0.0
 20
 0.0
 30
0.0
 70
     128
 71
-1
 72
2
 73
3
  0
VERTEX
  8
Layer0
10
0.0
 20
 0.0
 30
0.0
 70
     128
 71
-2
 72
1
 73
4
  0
SEQEND
  0
POLYLINE
 8
Layer0
 66
     1
10
0.0
 20
 0.0
 30
0.0
70
    64
71
4
72
   1
  0
VERTEX
  8
Layer0
10
7.479200819559747
20
3.0
30
22.438779331065568
 70
     192
  0
VERTEX
  8
Layer0
10
7.450661055247835
20
0.0
30
23.092447401673
 70
     192
  0
VERTEX
  8
Layer0
10
7.479200819559747
20
0.0
30
22.438779331065568
 70
     192
  0
VERTEX
  8
Layer0
10
7.450661055247835
20
3.0
30
23.092447401673
 70
     192
  0
VERTEX
  8
Layer0
10
0.0
 20
 0.0
 30
0.0
 70
     128
 71
-1
 72
2
 73
3
  0
VERTEX
  8
Layer0
10
0.0
 20
 0.0
 30
0.0
 70
     128
 71
-2
 72
1
 73
4
  0
SEQEND
  0
POLYLINE
 8
Layer0
 66
     1
10
0.0
 20
 0.0
 30
0.0
70
    64
71
4
72
   1
  0
VERTEX
  8
Layer0
10
7.450661055247835
20
3.0
30
23.092447401673
 70
     192
  0
VERTEX
  8
Layer0
10
7.365258967151304
20
0.0
30
23.741140663567542
 70
     192
  0
VERTEX
  8
Layer0
10
7.450661055247835
20
0.0
30
23.092447401673
 70
     192
  0
VERTEX
  8
Layer0
10
7.365258967151304
20
3.0
30
23.741140663567542
 70
     192
  0
VERTEX
  8
Layer0
10
0.0
 20
 0.0
 30
0.0
 70
     128
 71
-1
 72
2
 73
3
  0
VERTEX
  8
Layer0
10
0.0
 20
 0.0
 30
0.0
 70
     128
 71
-2
 72
1
 73
4
  0
SEQEND
  0
POLYLINE
 8
Layer0
 66
     1
10
0.0
 20
 0.0
 30
0.0
70
    64
71
4
72
   1
  0
VERTEX
  8
Layer0
10
7.365258967151304
20
3.0
30
23.741140663567542
 70
     192
  0
VERTEX
  8
Layer0
10
7.223644516727753
20
0.0
30
24.37992216933447
 70
     192
  0
VERTEX
  8
Layer0
10
7.365258967151304
20
0.0
30
23.741140663567542
 70
     192
  0
VERTEX
  8
Layer0
10
7.223644516727753
20
3.0
30
24.37992216933447
 70
     192
  0
VERTEX
  8
Layer0
10
0.0
 20
 0.0
 30
0.0
 70
     128
 71
-1
 72
2
 73
3
  0
VERTEX
  8
Layer0
10
0.0
 20
 0.0
 30
0.0
 70
     128
 71
-2
 72
1
 73
4
  0
SEQEND
  0
POLYLINE
 8
Layer0
 66
     1
10
0.0
 20
 0.0
 30
0.0
70
    64
71
4
72
   1
  0
VERTEX
  8
Layer0
10
7.223644516727753
20
3.0
30
24.37992216933447
 70
     192
  0
VERTEX
  8
Layer0
10
7.026895475454055
20
0.0
30
25.003930406008074
 70
     192
  0
VERTEX
  8
Layer0
10
7.223644516727753
20
0.0
30
24.37992216933447
 70
     192
  0
VERTEX
  8
Layer0
10
7.026895475454055
20
3.0
30
25.003930406008074
 70
     192
  0
VERTEX
  8
Layer0
10
0.0
 20
 0.0
 30
0.0
 70
     128
 71
-1
 72
2
 73
3
  0
VERTEX
  8
Layer0
10
0.0
 20
 0.0
 30
0.0
 70
     128
 71
-2
 72
1
 73
4
  0
SEQEND
  0
POLYLINE
 8
Layer0
 66
     1
10
0.0
 20
 0.0
 30
0.0
70
    64
71
4
72
   1
  0
VERTEX
  8
Layer0
10
7.026895475454055
20
3.0
30
25.003930406008074
 70
     192
  0
VERTEX
  8
Layer0
10
6.7765092223346155
20
0.0
30
25.608416294120808
 70
     192
  0
VERTEX
  8
Layer0
10
7.026895475454055
20
0.0
30
25.003930406008074
 70
     192
  0
VERTEX
  8
Layer0
10
6.7765092223346155
20
3.0
30
25.608416294120808
 70
     192
  0
VERTEX
  8
Layer0
10
0.0
 20
 0.0
 30
0.0
 70
     128
 71
-1
 72
2
 73
3
  0
VERTEX
  8
Layer0
10
0.0
 20
 0.0
 30
0.0
 70
     128
 71
-2
 72
1
 73
4
  0
SEQEND
  0
POLYLINE
 8
Layer0
 66
     1
10
0.0
 20
 0.0
 30
0.0
70
    64
71
4
72
   1
  0
VERTEX
  8
Layer0
10
6.7765092223346155
20
3.0
30
25.608416294120808
 70
     192
  0
VERTEX
  8
Layer0
10
6.474391347943029
20
0.0
30
26.18877933106556
 70
     192
  0
VERTEX
  8
Layer0
10
6.7765092223346155
20
0.0
30
25.608416294120808
 70
     192
  0
VERTEX
  8
Layer0
10
6.474391347943029
20
3.0
30
26.18877933106556
 70
     192
  0
VERTEX
  8
Layer0
10
0.0
 20
 0.0
 30
0.0
 70
     128
 71
-1
 72
2
 73
3
  0
VERTEX
  8
Layer0
10
0.0
 20
 0.0
 30
0.0
 70
     128
 71
-2
 72
1
 73
4
  0
SEQEND
  0
POLYLINE
 8
Layer0
 66
     1
10
0.0
 20
 0.0
 30
0.0
70
    64
71
4
72
   1
  0
VERTEX
  8
Layer0
10
6.474391347943029
20
3.0
30
26.18877933106556
 70
     192
  0
VERTEX
  8
Layer0
10
6.122841151727179
20
0.0
30
26.740602603698406
 70
     192
  0
VERTEX
  8
Layer0
10
6.474391347943029
20
0.0
30
26.18877933106556
 70
     192
  0
VERTEX
  8
Layer0
10
6.122841151727179
20
3.0
30
26.740602603698406
 70
     192
  0
VERTEX
  8
Layer0
10
0.0
 20
 0.0
 30
0.0
 70
     128
 71
-1
 72
2
 73
3
  0
VERTEX
  8
Layer0
10
0.0
 20
 0.0
 30
0.0
 70
     128
 71
-2
 72
1
 73
4
  0
SEQEND
  0
POLYLINE
 8
Layer0
 66
     1
10
0.0
 20
 0.0
 30
0.0
70
    64
71
4
72
   1
  0
VERTEX
  8
Layer0
10
6.122841151727179
20
3.0
30
26.740602603698406
 70
     192
  0
VERTEX
  8
Layer0
10
5.724534142952074
20
0.0
30
27.259686403714603
 70
     192
  0
VERTEX
  8
Layer0
10
6.122841151727179
20
0.0
30
26.740602603698406
 70
     192
  0
VERTEX
  8
Layer0
10
5.724534142952074
20
3.0
30
27.259686403714603
 70
     192
  0
VERTEX
  8
Layer0
10
0.0
 20
 0.0
 30
0.0
 70
     128
 71
-1
 72
2
 73
3
  0
VERTEX
  8
Layer0
10
0.0
 20
 0.0
 30
0.0
 70
     128
 71
-2
 72
1
 73
4
  0
SEQEND
  0
POLYLINE
 8
Layer0
 66
     1
10
0.0
 20
 0.0
 30
0.0
70
    64
71
4
72
   1
  0
VERTEX
  8
Layer0
10
-3.1904361434954964
20
0.0
30
29.23608773384042
 70
     192
  0
VERTEX
  8
Layer0
10
-3.7707991804402505
20
3.0
30
28.933969859448833
 70
     192
  0
VERTEX
  8
Layer0
10
-3.7707991804402505
20
0.0
30
28.933969859448833
 70
     192
  0
VERTEX
  8
Layer0
10
-3.1904361434954964
20
3.0
30
29.23608773384042
 70
     192
  0
VERTEX
  8
Layer0
10
0.0
 20
 0.0
 30
0.0
 70
     128
 71
-1
 72
2
 73
3
  0
VERTEX
  8
Layer0
10
0.0
 20
 0.0
 30
0.0
 70
     128
 71
-2
 72
1
 73
4
  0
SEQEND
  0
POLYLINE
 8
Layer0
 66
     1
10
0.0
 20
 0.0
 30
0.0
70
    64
71
4
72
   1
  0
VERTEX
  8
Layer0
10
-2.5859502553827682
20
0.0
30
29.48647398695986
 70
     192
  0
VERTEX
  8
Layer0
10
-3.1904361434954964
20
3.0
30
29.23608773384042
 70
     192
  0
VERTEX
  8
Layer0
10
-3.1904361434954964
20
0.0
30
29.23608773384042
 70
     192
  0
VERTEX
  8
Layer0
10
-2.5859502553827682
20
3.0
30
29.48647398695986
 70
     192
  0
VERTEX
  8
Layer0
10
0.0
 20
 0.0
 30
0.0
 70
     128
 71
-1
 72
2
 73
3
  0
VERTEX
  8
Layer0
10
0.0
 20
 0.0
 30
0.0
 70
     128
 71
-2
 72
1
 73
4
  0
SEQEND
  0
POLYLINE
 8
Layer0
 66
     1
10
0.0
 20
 0.0
 30
0.0
70
    64
71
4
72
   1
  0
VERTEX
  8
Layer0
10
5.282501678458845
20
0.0
30
27.742080189964664
 70
     192
  0
VERTEX
  8
Layer0
10
4.800107892208784
20
3.0
30
28.184112654457888
 70
     192
  0
VERTEX
  8
Layer0
10
4.800107892208784
20
0.0
30
28.184112654457888
 70
     192
  0
VERTEX
  8
Layer0
10
5.282501678458845
20
3.0
30
27.742080189964664
 70
     192
  0
VERTEX
  8
Layer0
10
0.0
 20
 0.0
 30
0.0
 70
     128
 71
-1
 72
2
 73
3
  0
VERTEX
  8
Layer0
10
0.0
 20
 0.0
 30
0.0
 70
     128
 71
-2
 72
1
 73
4
  0
SEQEND
  0
POLYLINE
 8
Layer0
 66
     1
10
0.0
 20
 0.0
 30
0.0
70
    64
71
4
72
   1
  0
VERTEX
  8
Layer0
10
5.724534142952074
20
3.0
30
27.259686403714603
 70
     192
  0
VERTEX
  8
Layer0
10
5.282501678458845
20
0.0
30
27.742080189964664
 70
     192
  0
VERTEX
  8
Layer0
10
5.724534142952074
20
0.0
30
27.259686403714603
 70
     192
  0
VERTEX
  8
Layer0
10
5.282501678458845
20
3.0
30
27.742080189964664
 70
     192
  0
VERTEX
  8
Layer0
10
0.0
 20
 0.0
 30
0.0
 70
     128
 71
-1
 72
2
 73
3
  0
VERTEX
  8
Layer0
10
0.0
 20
 0.0
 30
0.0
 70
     128
 71
-2
 72
1
 73
4
  0
SEQEND
  0
POLYLINE
 8
Layer0
 66
     1
10
0.0
 20
 0.0
 30
0.0
70
    64
71
4
72
   1
  0
VERTEX
  8
Layer0
10
0.7606176190609361
20
0.0
30
-41.99285596127381
 70
     192
  0
VERTEX
  8
Layer0
10
-0.02079918044025088
20
3.0
30
-42.06122107271887
 70
     192
  0
VERTEX
  8
Layer0
10
-0.02079918044025088
20
0.0
30
-42.06122107271887
 70
     192
  0
VERTEX
  8
Layer0
10
0.7606176190609361
20
3.0
30
-41.99285596127381
 70
     192
  0
VERTEX
  8
Layer0
10
0.0
 20
 0.0
 30
0.0
 70
     128
 71
-1
 72
2
 73
3
  0
VERTEX
  8
Layer0
10
0.0
 20
 0.0
 30
0.0
 70
     128
 71
-2
 72
1
 73
4
  0
SEQEND
  0
POLYLINE
 8
Layer0
 66
     1
10
0.0
 20
 0.0
 30
0.0
70
    64
71
4
72
   1
  0
VERTEX
  8
Layer0
10
1.5182914645252594
20
0.0
30
-41.78983786625546
 70
     192
  0
VERTEX
  8
Layer0
10
0.7606176190609361
20
3.0
30
-41.99285596127381
 70
     192
  0
VERTEX
  8
Layer0
10
0.7606176190609361
20
0.0
30
-41.99285596127381
 70
     192
  0
VERTEX
  8
Layer0
10
1.5182914645252594
20
3.0
30
-41.78983786625546
 70
     192
  0
VERTEX
  8
Layer0
10
0.0
 20
 0.0
 30
0.0
 70
     128
 71
-1
 72
2
 73
3
  0
VERTEX
  8
Layer0
10
0.0
 20
 0.0
 30
0.0
 70
     128
 71
-2
 72
1
 73
4
  0
SEQEND
  0
POLYLINE
 8
Layer0
 66
     1
10
0.0
 20
 0.0
 30
0.0
70
    64
71
4
72
   1
  0
VERTEX
  8
Layer0
10
2.2292008195597504
20
0.0
30
-41.458335389748854
 70
     192
  0
VERTEX
  8
Layer0
10
1.5182914645252594
20
3.0
30
-41.78983786625546
 70
     192
  0
VERTEX
  8
Layer0
10
1.5182914645252594
20
0.0
30
-41.78983786625546
 70
     192
  0
VERTEX
  8
Layer0
10
2.2292008195597504
20
3.0
30
-41.458335389748854
 70
     192
  0
VERTEX
  8
Layer0
10
0.0
 20
 0.0
 30
0.0
 70
     128
 71
-1
 72
2
 73
3
  0
VERTEX
  8
Layer0
10
0.0
 20
 0.0
 30
0.0
 70
     128
 71
-2
 72
1
 73
4
  0
SEQEND
  0
POLYLINE
 8
Layer0
 66
     1
10
0.0
 20
 0.0
 30
0.0
70
    64
71
4
72
   1
  0
VERTEX
  8
Layer0
10
2.8717450631491777
20
0.0
30
-41.00842106675428
 70
     192
  0
VERTEX
  8
Layer0
10
2.2292008195597504
20
3.0
30
-41.458335389748854
 70
     192
  0
VERTEX
  8
Layer0
10
2.2292008195597504
20
0.0
30
-41.458335389748854
 70
     192
  0
VERTEX
  8
Layer0
10
2.8717450631491777
20
3.0
30
-41.00842106675428
 70
     192
  0
VERTEX
  8
Layer0
10
0.0
 20
 0.0
 30
0.0
 70
     128
 71
-1
 72
2
 73
3
  0
VERTEX
  8
Layer0
10
0.0
 20
 0.0
 30
0.0
 70
     128
 71
-2
 72
1
 73
4
  0
SEQEND
  0
POLYLINE
 8
Layer0
 66
     1
10
0.0
 20
 0.0
 30
0.0
70
    64
71
4
72
   1
  0
VERTEX
  8
Layer0
10
3.4264008135951523
20
3.0
30
-40.4537653163083
 70
     192
  0
VERTEX
  8
Layer0
10
2.8717450631491777
20
0.0
30
-41.00842106675428
 70
     192
  0
VERTEX
  8
Layer0
10
3.4264008135951523
20
0.0
30
-40.4537653163083
 70
     192
  0
VERTEX
  8
Layer0
10
2.8717450631491777
20
3.0
30
-41.00842106675428
 70
     192
  0
VERTEX
  8
Layer0
10
0.0
 20
 0.0
 30
0.0
 70
     128
 71
-1
 72
2
 73
3
  0
VERTEX
  8
Layer0
10
0.0
 20
 0.0
 30
0.0
 70
     128
 71
-2
 72
1
 73
4
  0
SEQEND
  0
POLYLINE
 8
Layer0
 66
     1
10
0.0
 20
 0.0
 30
0.0
70
    64
71
4
72
   1
  0
VERTEX
  8
Layer0
10
3.8763151365897253
20
3.0
30
-39.81122107271887
 70
     192
  0
VERTEX
  8
Layer0
10
3.4264008135951523
20
0.0
30
-40.4537653163083
 70
     192
  0
VERTEX
  8
Layer0
10
3.8763151365897253
20
0.0
30
-39.81122107271887
 70
     192
  0
VERTEX
  8
Layer0
10
3.4264008135951523
20
3.0
30
-40.4537653163083
 70
     192
  0
VERTEX
  8
Layer0
10
0.0
 20
 0.0
 30
0.0
 70
     128
 71
-1
 72
2
 73
3
  0
VERTEX
  8
Layer0
10
0.0
 20
 0.0
 30
0.0
 70
     128
 71
-2
 72
1
 73
4
  0
SEQEND
  0
POLYLINE
 8
Layer0
 66
     1
10
0.0
 20
 0.0
 30
0.0
70
    64
71
4
72
   1
  0
VERTEX
  8
Layer0
10
4.207817613096339
20
3.0
30
-39.100311717684384
 70
     192
  0
VERTEX
  8
Layer0
10
3.8763151365897253
20
0.0
30
-39.81122107271887
 70
     192
  0
VERTEX
  8
Layer0
10
4.207817613096339
20
0.0
30
-39.100311717684384
 70
     192
  0
VERTEX
  8
Layer0
10
3.8763151365897253
20
3.0
30
-39.81122107271887
 70
     192
  0
VERTEX
  8
Layer0
10
0.0
 20
 0.0
 30
0.0
 70
     128
 71
-1
 72
2
 73
3
  0
VERTEX
  8
Layer0
10
0.0
 20
 0.0
 30
0.0
 70
     128
 71
-2
 72
1
 73
4
  0
SEQEND
  0
POLYLINE
 8
Layer0
 66
     1
10
0.0
 20
 0.0
 30
0.0
70
    64
71
4
72
   1
  0
VERTEX
  8
Layer0
10
4.410835708114688
20
3.0
30
-38.34263787222006
 70
     192
  0
VERTEX
  8
Layer0
10
4.207817613096339
20
0.0
30
-39.100311717684384
 70
     192
  0
VERTEX
  8
Layer0
10
4.410835708114688
20
0.0
30
-38.34263787222006
 70
     192
  0
VERTEX
  8
Layer0
10
4.207817613096339
20
3.0
30
-39.100311717684384
 70
     192
  0
VERTEX
  8
Layer0
10
0.0
 20
 0.0
 30
0.0
 70
     128
 71
-1
 72
2
 73
3
  0
VERTEX
  8
Layer0
10
0.0
 20
 0.0
 30
0.0
 70
     128
 71
-2
 72
1
 73
4
  0
SEQEND
  0
POLYLINE
 8
Layer0
 66
     1
10
0.0
 20
 0.0
 30
0.0
70
    64
71
4
72
   1
  0
VERTEX
  8
Layer0
10
4.479200819559752
20
3.0
30
-37.56122107271887
 70
     192
  0
VERTEX
  8
Layer0
10
4.410835708114688
20
0.0
30
-38.34263787222006
 70
     192
  0
VERTEX
  8
Layer0
10
4.479200819559752
20
0.0
30
-37.56122107271887
 70
     192
  0
VERTEX
  8
Layer0
10
4.410835708114688
20
3.0
30
-38.34263787222006
 70
     192
  0
VERTEX
  8
Layer0
10
0.0
 20
 0.0
 30
0.0
 70
     128
 71
-1
 72
2
 73
3
  0
VERTEX
  8
Layer0
10
0.0
 20
 0.0
 30
0.0
 70
     128
 71
-2
 72
1
 73
4
  0
SEQEND
  0
POLYLINE
 8
Layer0
 66
     1
10
0.0
 20
 0.0
 30
0.0
70
    64
71
4
72
   1
  0
VERTEX
  8
Layer0
10
4.4792008195597495
20
3.0
30
-32.56122107271887
 70
     192
  0
VERTEX
  8
Layer0
10
4.479200819559752
20
0.0
30
-37.56122107271887
 70
     192
  0
VERTEX
  8
Layer0
10
4.4792008195597495
20
0.0
30
-32.56122107271887
 70
     192
  0
VERTEX
  8
Layer0
10
4.479200819559752
20
3.0
30
-37.56122107271887
 70
     192
  0
VERTEX
  8
Layer0
10
0.0
 20
 0.0
 30
0.0
 70
     128
 71
-1
 72
2
 73
3
  0
VERTEX
  8
Layer0
10
0.0
 20
 0.0
 30
0.0
 70
     128
 71
-2
 72
1
 73
4
  0
SEQEND
  0
POLYLINE
 8
Layer0
 66
     1
10
0.0
 20
 0.0
 30
0.0
70
    64
71
4
72
   1
  0
VERTEX
  8
Layer0
10
4.410835708114686
20
3.0
30
-31.779804273217685
 70
     192
  0
VERTEX
  8
Layer0
10
4.4792008195597495
20
0.0
30
-32.56122107271887
 70
     192
  0
VERTEX
  8
Layer0
10
4.410835708114686
20
0.0
30
-31.779804273217685
 70
     192
  0
VERTEX
  8
Layer0
10
4.4792008195597495
20
3.0
30
-32.56122107271887
 70
     192
  0
VERTEX
  8
Layer0
10
0.0
 20
 0.0
 30
0.0
 70
     128
 71
-1
 72
2
 73
3
  0
VERTEX
  8
Layer0
10
0.0
 20
 0.0
 30
0.0
 70
     128
 71
-2
 72
1
 73
4
  0
SEQEND
  0
POLYLINE
 8
Layer0
 66
     1
10
0.0
 20
 0.0
 30
0.0
70
    64
71
4
72
   1
  0
VERTEX
  8
Layer0
10
4.207817613096337
20
3.0
30
-31.022130427753364
 70
     192
  0
VERTEX
  8
Layer0
10
4.410835708114686
20
0.0
30
-31.779804273217685
 70
     192
  0
VERTEX
  8
Layer0
10
4.207817613096337
20
0.0
30
-31.022130427753364
 70
     192
  0
VERTEX
  8
Layer0
10
4.410835708114686
20
3.0
30
-31.779804273217685
 70
     192
  0
VERTEX
  8
Layer0
10
0.0
 20
 0.0
 30
0.0
 70
     128
 71
-1
 72
2
 73
3
  0
VERTEX
  8
Layer0
10
0.0
 20
 0.0
 30
0.0
 70
     128
 71
-2
 72
1
 73
4
  0
SEQEND
  0
POLYLINE
 8
Layer0
 66
     1
10
0.0
 20
 0.0
 30
0.0
70
    64
71
4
72
   1
  0
VERTEX
  8
Layer0
10
3.876315136589724
20
3.0
30
-30.31122107271887
 70
     192
  0
VERTEX
  8
Layer0
10
4.207817613096337
20
0.0
30
-31.022130427753364
 70
     192
  0
VERTEX
  8
Layer0
10
3.876315136589724
20
0.0
30
-30.31122107271887
 70
     192
  0
VERTEX
  8
Layer0
10
4.207817613096337
20
3.0
30
-31.022130427753364
 70
     192
  0
VERTEX
  8
Layer0
10
0.0
 20
 0.0
 30
0.0
 70
     128
 71
-1
 72
2
 73
3
  0
VERTEX
  8
Layer0
10
0.0
 20
 0.0
 30
0.0
 70
     128
 71
-2
 72
1
 73
4
  0
SEQEND
  0
POLYLINE
 8
Layer0
 66
     1
10
0.0
 20
 0.0
 30
0.0
70
    64
71
4
72
   1
  0
VERTEX
  8
Layer0
10
3.426400813595151
20
3.0
30
-29.668676829129442
 70
     192
  0
VERTEX
  8
Layer0
10
3.876315136589724
20
0.0
30
-30.31122107271887
 70
     192
  0
VERTEX
  8
Layer0
10
3.426400813595151
20
0.0
30
-29.668676829129442
 70
     192
  0
VERTEX
  8
Layer0
10
3.876315136589724
20
3.0
30
-30.31122107271887
 70
     192
  0
VERTEX
  8
Layer0
10
0.0
 20
 0.0
 30
0.0
 70
     128
 71
-1
 72
2
 73
3
  0
VERTEX
  8
Layer0
10
0.0
 20
 0.0
 30
0.0
 70
     128
 71
-2
 72
1
 73
4
  0
SEQEND
  0
POLYLINE
 8
Layer0
 66
     1
10
0.0
 20
 0.0
 30
0.0
70
    64
71
4
72
   1
  0
VERTEX
  8
Layer0
10
3.426400813595151
20
3.0
30
-29.668676829129442
 70
     192
  0
VERTEX
  8
Layer0
10
2.8717450631491777
20
0.0
30
-29.11402107868347
 70
     192
  0
VERTEX
  8
Layer0
10
2.8717450631491777
20
3.0
30
-29.11402107868347
 70
     192
  0
VERTEX
  8
Layer0
10
3.426400813595151
20
0.0
30
-29.668676829129442
 70
     192
  0
VERTEX
  8
Layer0
10
0.0
 20
 0.0
 30
0.0
 70
     128
 71
-1
 72
2
 73
3
  0
VERTEX
  8
Layer0
10
0.0
 20
 0.0
 30
0.0
 70
     128
 71
-2
 72
1
 73
4
  0
SEQEND
  0
POLYLINE
 8
Layer0
 66
     1
10
0.0
 20
 0.0
 30
0.0
70
    64
71
4
72
   1
  0
VERTEX
  8
Layer0
10
2.8717450631491777
20
3.0
30
-29.11402107868347
 70
     192
  0
VERTEX
  8
Layer0
10
2.2292008195597512
20
0.0
30
-28.6641067556889
 70
     192
  0
VERTEX
  8
Layer0
10
2.2292008195597512
20
3.0
30
-28.6641067556889
 70
     192
  0
VERTEX
  8
Layer0
10
2.8717450631491777
20
0.0
30
-29.11402107868347
 70
     192
  0
VERTEX
  8
Layer0
10
0.0
 20
 0.0
 30
0.0
 70
     128
 71
-1
 72
2
 73
3
  0
VERTEX
  8
Layer0
10
0.0
 20
 0.0
 30
0.0
 70
     128
 71
-2
 72
1
 73
4
  0
SEQEND
  0
POLYLINE
 8
Layer0
 66
     1
10
0.0
 20
 0.0
 30
0.0
70
    64
71
4
72
   1
  0
VERTEX
  8
Layer0
10
2.2292008195597512
20
3.0
30
-28.6641067556889
 70
     192
  0
VERTEX
  8
Layer0
10
1.5182914645252612
20
0.0
30
-28.33260427918228
 70
     192
  0
VERTEX
  8
Layer0
10
1.5182914645252612
20
3.0
30
-28.33260427918228
 70
     192
  0
VERTEX
  8
Layer0
10
2.2292008195597512
20
0.0
30
-28.6641067556889
 70
     192
  0
VERTEX
  8
Layer0
10
0.0
 20
 0.0
 30
0.0
 70
     128
 71
-1
 72
2
 73
3
  0
VERTEX
  8
Layer0
10
0.0
 20
 0.0
 30
0.0
 70
     128
 71
-2
 72
1
 73
4
  0
SEQEND
  0
POLYLINE
 8
Layer0
 66
     1
10
0.0
 20
 0.0
 30
0.0
70
    64
71
4
72
   1
  0
VERTEX
  8
Layer0
10
-7.154773776655813
20
3.0
30
2.5727539272811097
 70
     192
  0
VERTEX
  8
Layer0
10
-7.227445840149016
20
0.0
30
2.4639924982723898
 70
     192
  0
VERTEX
  8
Layer0
10
-7.154773776655813
20
0.0
30
2.5727539272811097
 70
     192
  0
VERTEX
  8
Layer0
10
-7.227445840149016
20
3.0
30
2.4639924982723898
 70
     192
  0
VERTEX
  8
Layer0
10
0.0
 20
 0.0
 30
0.0
 70
     128
 71
-1
 72
2
 73
3
  0
VERTEX
  8
Layer0
10
0.0
 20
 0.0
 30
0.0
 70
     128
 71
-2
 72
1
 73
4
  0
SEQEND
  0
POLYLINE
 8
Layer0
 66
     1
10
0.0
 20
 0.0
 30
0.0
70
    64
71
4
72
   1
  0
VERTEX
  8
Layer0
10
-7.096919647928964
20
3.0
30
2.6900704949160192
 70
     192
  0
VERTEX
  8
Layer0
10
-7.154773776655813
20
0.0
30
2.5727539272811097
 70
     192
  0
VERTEX
  8
Layer0
10
-7.096919647928964
20
0.0
30
2.6900704949160192
 70
     192
  0
VERTEX
  8
Layer0
10
-7.154773776655813
20
3.0
30
2.5727539272811097
 70
     192
  0
VERTEX
  8
Layer0
10
0.0
 20
 0.0
 30
0.0
 70
     128
 71
-1
 72
2
 73
3
  0
VERTEX
  8
Layer0
10
0.0
 20
 0.0
 30
0.0
 70
     128
 71
-2
 72
1
 73
4
  0
SEQEND
  0
POLYLINE
 8
Layer0
 66
     1
10
0.0
 20
 0.0
 30
0.0
70
    64
71
4
72
   1
  0
VERTEX
  8
Layer0
10
-7.054873354151183
20
3.0
30
2.813934882178589
 70
     192
  0
VERTEX
  8
Layer0
10
-7.096919647928964
20
0.0
30
2.6900704949160192
 70
     192
  0
VERTEX
  8
Layer0
10
-7.054873354151183
20
0.0
30
2.813934882178589
 70
     192
  0
VERTEX
  8
Layer0
10
-7.096919647928964
20
3.0
30
2.6900704949160192
 70
     192
  0
VERTEX
  8
Layer0
10
0.0
 20
 0.0
 30
0.0
 70
     128
 71
-1
 72
2
 73
3
  0
VERTEX
  8
Layer0
10
0.0
 20
 0.0
 30
0.0
 70
     128
 71
-2
 72
1
 73
4
  0
SEQEND
  0
POLYLINE
 8
Layer0
 66
     1
10
0.0
 20
 0.0
 30
0.0
70
    64
71
4
72
   1
  0
VERTEX
  8
Layer0
10
-7.0293543190664405
20
3.0
30
2.9422277350610577
 70
     192
  0
VERTEX
  8
Layer0
10
-7.054873354151183
20
0.0
30
2.813934882178589
 70
     192
  0
VERTEX
  8
Layer0
10
-7.0293543190664405
20
0.0
30
2.9422277350610577
 70
     192
  0
VERTEX
  8
Layer0
10
-7.054873354151183
20
3.0
30
2.813934882178589
 70
     192
  0
VERTEX
  8
Layer0
10
0.0
 20
 0.0
 30
0.0
 70
     128
 71
-1
 72
2
 73
3
  0
VERTEX
  8
Layer0
10
0.0
 20
 0.0
 30
0.0
 70
     128
 71
-2
 72
1
 73
4
  0
SEQEND
  0
POLYLINE
 8
Layer0
 66
     1
10
0.0
 20
 0.0
 30
0.0
70
    64
71
4
72
   1
  0
VERTEX
  8
Layer0
10
-7.0207991804402505
20
3.0
30
3.07275392728111
 70
     192
  0
VERTEX
  8
Layer0
10
-7.0293543190664405
20
0.0
30
2.9422277350610577
 70
     192
  0
VERTEX
  8
Layer0
10
-7.0207991804402505
20
0.0
30
3.07275392728111
 70
     192
  0
VERTEX
  8
Layer0
10
-7.0293543190664405
20
3.0
30
2.9422277350610577
 70
     192
  0
VERTEX
  8
Layer0
10
0.0
 20
 0.0
 30
0.0
 70
     128
 71
-1
 72
2
 73
3
  0
VERTEX
  8
Layer0
10
0.0
 20
 0.0
 30
0.0
 70
     128
 71
-2
 72
1
 73
4
  0
SEQEND
  0
POLYLINE
 8
Layer0
 66
     1
10
0.0
 20
 0.0
 30
0.0
70
    64
71
4
72
   1
  0
VERTEX
  8
Layer0
10
-7.0293543190664405
20
3.0
30
3.2032801195011618
 70
     192
  0
VERTEX
  8
Layer0
10
-7.0207991804402505
20
0.0
30
3.07275392728111
 70
     192
  0
VERTEX
  8
Layer0
10
-7.0293543190664405
20
0.0
30
3.2032801195011618
 70
     192
  0
VERTEX
  8
Layer0
10
-7.0207991804402505
20
3.0
30
3.07275392728111
 70
     192
  0
VERTEX
  8
Layer0
10
0.0
 20
 0.0
 30
0.0
 70
     128
 71
-1
 72
2
 73
3
  0
VERTEX
  8
Layer0
10
0.0
 20
 0.0
 30
0.0
 70
     128
 71
-2
 72
1
 73
4
  0
SEQEND
  0
POLYLINE
 8
Layer0
 66
     1
10
0.0
 20
 0.0
 30
0.0
70
    64
71
4
72
   1
  0
VERTEX
  8
Layer0
10
-7.054873354151183
20
3.0
30
3.3315729723836305
 70
     192
  0
VERTEX
  8
Layer0
10
-7.0293543190664405
20
0.0
30
3.2032801195011618
 70
     192
  0
VERTEX
  8
Layer0
10
-7.054873354151183
20
0.0
30
3.3315729723836305
 70
     192
  0
VERTEX
  8
Layer0
10
-7.0293543190664405
20
3.0
30
3.2032801195011618
 70
     192
  0
VERTEX
  8
Layer0
10
0.0
 20
 0.0
 30
0.0
 70
     128
 71
-1
 72
2
 73
3
  0
VERTEX
  8
Layer0
10
0.0
 20
 0.0
 30
0.0
 70
     128
 71
-2
 72
1
 73
4
  0
SEQEND
  0
POLYLINE
 8
Layer0
 66
     1
10
0.0
 20
 0.0
 30
0.0
70
    64
71
4
72
   1
  0
VERTEX
  8
Layer0
10
-7.096919647928964
20
3.0
30
3.4554373596462
 70
     192
  0
VERTEX
  8
Layer0
10
-7.054873354151183
20
0.0
30
3.3315729723836305
 70
     192
  0
VERTEX
  8
Layer0
10
-7.096919647928964
20
0.0
30
3.4554373596462
 70
     192
  0
VERTEX
  8
Layer0
10
-7.054873354151183
20
3.0
30
3.3315729723836305
 70
     192
  0
VERTEX
  8
Layer0
10
0.0
 20
 0.0
 30
0.0
 70
     128
 71
-1
 72
2
 73
3
  0
VERTEX
  8
Layer0
10
0.0
 20
 0.0
 30
0.0
 70
     128
 71
-2
 72
1
 73
4
  0
SEQEND
  0
POLYLINE
 8
Layer0
 66
     1
10
0.0
 20
 0.0
 30
0.0
70
    64
71
4
72
   1
  0
VERTEX
  8
Layer0
10
-7.154773776655811
20
3.0
30
3.5727539272811093
 70
     192
  0
VERTEX
  8
Layer0
10
-7.096919647928964
20
0.0
30
3.4554373596462
 70
     192
  0
VERTEX
  8
Layer0
10
-7.154773776655811
20
0.0
30
3.5727539272811093
 70
     192
  0
VERTEX
  8
Layer0
10
-7.096919647928964
20
3.0
30
3.4554373596462
 70
     192
  0
VERTEX
  8
Layer0
10
0.0
 20
 0.0
 30
0.0
 70
     128
 71
-1
 72
2
 73
3
  0
VERTEX
  8
Layer0
10
0.0
 20
 0.0
 30
0.0
 70
     128
 71
-2
 72
1
 73
4
  0
SEQEND
  0
POLYLINE
 8
Layer0
 66
     1
10
0.0
 20
 0.0
 30
0.0
70
    64
71
4
72
   1
  0
VERTEX
  8
Layer0
10
-7.227445840149015
20
3.0
30
3.6815153562898297
 70
     192
  0
VERTEX
  8
Layer0
10
-7.154773776655811
20
0.0
30
3.5727539272811093
 70
     192
  0
VERTEX
  8
Layer0
10
-7.227445840149015
20
0.0
30
3.6815153562898297
 70
     192
  0
VERTEX
  8
Layer0
10
-7.154773776655811
20
3.0
30
3.5727539272811093
 70
     192
  0
VERTEX
  8
Layer0
10
0.0
 20
 0.0
 30
0.0
 70
     128
 71
-1
 72
2
 73
3
  0
VERTEX
  8
Layer0
10
0.0
 20
 0.0
 30
0.0
 70
     128
 71
-2
 72
1
 73
4
  0
SEQEND
  0
POLYLINE
 8
Layer0
 66
     1
10
0.0
 20
 0.0
 30
0.0
70
    64
71
4
72
   1
  0
VERTEX
  8
Layer0
10
-7.313692399253703
20
3.0
30
3.779860708467658
 70
     192
  0
VERTEX
  8
Layer0
10
-7.227445840149015
20
0.0
30
3.6815153562898297
 70
     192
  0
VERTEX
  8
Layer0
10
-7.313692399253703
20
0.0
30
3.779860708467658
 70
     192
  0
VERTEX
  8
Layer0
10
-7.227445840149015
20
3.0
30
3.6815153562898297
 70
     192
  0
VERTEX
  8
Layer0
10
0.0
 20
 0.0
 30
0.0
 70
     128
 71
-1
 72
2
 73
3
  0
VERTEX
  8
Layer0
10
0.0
 20
 0.0
 30
0.0
 70
     128
 71
-2
 72
1
 73
4
  0
SEQEND
  0
POLYLINE
 8
Layer0
 66
     1
10
0.0
 20
 0.0
 30
0.0
70
    64
71
4
72
   1
  0
VERTEX
  8
Layer0
10
-7.313692399253703
20
3.0
30
3.779860708467658
 70
     192
  0
VERTEX
  8
Layer0
10
-7.412037751431529
20
0.0
30
3.8661072675723465
 70
     192
  0
VERTEX
  8
Layer0
10
-7.412037751431529
20
3.0
30
3.8661072675723465
 70
     192
  0
VERTEX
  8
Layer0
10
-7.313692399253703
20
0.0
30
3.779860708467658
 70
     192
  0
VERTEX
  8
Layer0
10
0.0
 20
 0.0
 30
0.0
 70
     128
 71
-1
 72
2
 73
3
  0
VERTEX
  8
Layer0
10
0.0
 20
 0.0
 30
0.0
 70
     128
 71
-2
 72
1
 73
4
  0
SEQEND
  0
POLYLINE
 8
Layer0
 66
     1
10
0.0
 20
 0.0
 30
0.0
70
    64
71
4
72
   1
  0
VERTEX
  8
Layer0
10
-7.412037751431529
20
3.0
30
3.8661072675723465
 70
     192
  0
VERTEX
  8
Layer0
10
-7.52079918044025
20
0.0
30
3.9387793310655494
 70
     192
  0
VERTEX
  8
Layer0
10
-7.52079918044025
20
3.0
30
3.9387793310655494
 70
     192
  0
VERTEX
  8
Layer0
10
-7.412037751431529
20
0.0
30
3.8661072675723465
 70
     192
  0
VERTEX
  8
Layer0
10
0.0
 20
 0.0
 30
0.0
 70
     128
 71
-1
 72
2
 73
3
  0
VERTEX
  8
Layer0
10
0.0
 20
 0.0
 30
0.0
 70
     128
 71
-2
 72
1
 73
4
  0
SEQEND
  0
POLYLINE
 8
Layer0
 66
     1
10
0.0
 20
 0.0
 30
0.0
70
    64
71
4
72
   1
  0
VERTEX
  8
Layer0
10
-7.492259416128342
20
3.0
30
23.092447401672988
 70
     192
  0
VERTEX
  8
Layer0
10
-7.520799180440249
20
0.0
30
22.43877933106555
 70
     192
  0
VERTEX
  8
Layer0
10
-7.492259416128342
20
0.0
30
23.092447401672988
 70
     192
  0
VERTEX
  8
Layer0
10
-7.520799180440249
20
3.0
30
22.43877933106555
 70
     192
  0
VERTEX
  8
Layer0
10
0.0
 20
 0.0
 30
0.0
 70
     128
 71
-1
 72
2
 73
3
  0
VERTEX
  8
Layer0
10
0.0
 20
 0.0
 30
0.0
 70
     128
 71
-2
 72
1
 73
4
  0
SEQEND
  0
POLYLINE
 8
Layer0
 66
     1
10
0.0
 20
 0.0
 30
0.0
70
    64
71
4
72
   1
  0
VERTEX
  8
Layer0
10
-7.406857328031808
20
3.0
30
23.741140663567528
 70
     192
  0
VERTEX
  8
Layer0
10
-7.492259416128342
20
0.0
30
23.092447401672988
 70
     192
  0
VERTEX
  8
Layer0
10
-7.406857328031808
20
0.0
30
23.741140663567528
 70
     192
  0
VERTEX
  8
Layer0
10
-7.492259416128342
20
3.0
30
23.092447401672988
 70
     192
  0
VERTEX
  8
Layer0
10
0.0
 20
 0.0
 30
0.0
 70
     128
 71
-1
 72
2
 73
3
  0
VERTEX
  8
Layer0
10
0.0
 20
 0.0
 30
0.0
 70
     128
 71
-2
 72
1
 73
4
  0
SEQEND
  0
POLYLINE
 8
Layer0
 66
     1
10
0.0
 20
 0.0
 30
0.0
70
    64
71
4
72
   1
  0
VERTEX
  8
Layer0
10
-7.2652428776082605
20
3.0
30
24.379922169334453
 70
     192
  0
VERTEX
  8
Layer0
10
-7.406857328031808
20
0.0
30
23.741140663567528
 70
     192
  0
VERTEX
  8
Layer0
10
-7.2652428776082605
20
0.0
30
24.379922169334453
 70
     192
  0
VERTEX
  8
Layer0
10
-7.406857328031808
20
3.0
30
23.741140663567528
 70
     192
  0
VERTEX
  8
Layer0
10
0.0
 20
 0.0
 30
0.0
 70
     128
 71
-1
 72
2
 73
3
  0
VERTEX
  8
Layer0
10
0.0
 20
 0.0
 30
0.0
 70
     128
 71
-2
 72
1
 73
4
  0
SEQEND
  0
POLYLINE
 8
Layer0
 66
     1
10
0.0
 20
 0.0
 30
0.0
70
    64
71
4
72
   1
  0
VERTEX
  8
Layer0
10
-7.068493836334563
20
3.0
30
25.003930406008063
 70
     192
  0
VERTEX
  8
Layer0
10
-7.2652428776082605
20
0.0
30
24.379922169334453
 70
     192
  0
VERTEX
  8
Layer0
10
-7.068493836334563
20
0.0
30
25.003930406008063
 70
     192
  0
VERTEX
  8
Layer0
10
-7.2652428776082605
20
3.0
30
24.379922169334453
 70
     192
  0
VERTEX
  8
Layer0
10
0.0
 20
 0.0
 30
0.0
 70
     128
 71
-1
 72
2
 73
3
  0
VERTEX
  8
Layer0
10
0.0
 20
 0.0
 30
0.0
 70
     128
 71
-2
 72
1
 73
4
  0
SEQEND
  0
POLYLINE
 8
Layer0
 66
     1
10
0.0
 20
 0.0
 30
0.0
70
    64
71
4
72
   1
  0
VERTEX
  8
Layer0
10
2.22920081955975
20
0.0
30
13.541665014035575
 70
     192
  0
VERTEX
  8
Layer0
10
1.5182914645252603
20
3.0
30
13.210162537528964
 70
     192
  0
VERTEX
  8
Layer0
10
1.5182914645252603
20
0.0
30
13.210162537528964
 70
     192
  0
VERTEX
  8
Layer0
10
2.22920081955975
20
3.0
30
13.541665014035575
 70
     192
  0
VERTEX
  8
Layer0
10
0.0
 20
 0.0
 30
0.0
 70
     128
 71
-1
 72
2
 73
3
  0
VERTEX
  8
Layer0
10
0.0
 20
 0.0
 30
0.0
 70
     128
 71
-2
 72
1
 73
4
  0
SEQEND
  0
POLYLINE
 8
Layer0
 66
     1
10
0.0
 20
 0.0
 30
0.0
70
    64
71
4
72
   1
  0
VERTEX
  8
Layer0
10
2.8717450631491777
20
0.0
30
13.991579337030148
 70
     192
  0
VERTEX
  8
Layer0
10
2.22920081955975
20
3.0
30
13.541665014035575
 70
     192
  0
VERTEX
  8
Layer0
10
2.22920081955975
20
0.0
30
13.541665014035575
 70
     192
  0
VERTEX
  8
Layer0
10
2.8717450631491777
20
3.0
30
13.991579337030148
 70
     192
  0
VERTEX
  8
Layer0
10
0.0
 20
 0.0
 30
0.0
 70
     128
 71
-1
 72
2
 73
3
  0
VERTEX
  8
Layer0
10
0.0
 20
 0.0
 30
0.0
 70
     128
 71
-2
 72
1
 73
4
  0
SEQEND
  0
POLYLINE
 8
Layer0
 66
     1
10
0.0
 20
 0.0
 30
0.0
70
    64
71
4
72
   1
  0
VERTEX
  8
Layer0
10
3.4264008135951523
20
3.0
30
14.546235087476123
 70
     192
  0
VERTEX
  8
Layer0
10
2.8717450631491777
20
0.0
30
13.991579337030148
 70
     192
  0
VERTEX
  8
Layer0
10
3.4264008135951523
20
0.0
30
14.546235087476123
 70
     192
  0
VERTEX
  8
Layer0
10
2.8717450631491777
20
3.0
30
13.991579337030148
 70
     192
  0
VERTEX
  8
Layer0
10
0.0
 20
 0.0
 30
0.0
 70
     128
 71
-1
 72
2
 73
3
  0
VERTEX
  8
Layer0
10
0.0
 20
 0.0
 30
0.0
 70
     128
 71
-2
 72
1
 73
4
  0
SEQEND
  0
POLYLINE
 8
Layer0
 66
     1
10
0.0
 20
 0.0
 30
0.0
70
    64
71
4
72
   1
  0
VERTEX
  8
Layer0
10
3.8763151365897253
20
3.0
30
15.188779331065552
 70
     192
  0
VERTEX
  8
Layer0
10
3.4264008135951523
20
0.0
30
14.546235087476123
 70
     192
  0
VERTEX
  8
Layer0
10
3.8763151365897253
20
0.0
30
15.188779331065552
 70
     192
  0
VERTEX
  8
Layer0
10
3.4264008135951523
20
3.0
30
14.546235087476123
 70
     192
  0
VERTEX
  8
Layer0
10
0.0
 20
 0.0
 30
0.0
 70
     128
 71
-1
 72
2
 73
3
  0
VERTEX
  8
Layer0
10
0.0
 20
 0.0
 30
0.0
 70
     128
 71
-2
 72
1
 73
4
  0
SEQEND
  0
POLYLINE
 8
Layer0
 66
     1
10
0.0
 20
 0.0
 30
0.0
70
    64
71
4
72
   1
  0
VERTEX
  8
Layer0
10
4.207817613096339
20
3.0
30
15.89968868610004
 70
     192
  0
VERTEX
  8
Layer0
10
3.8763151365897253
20
0.0
30
15.188779331065552
 70
     192
  0
VERTEX
  8
Layer0
10
4.207817613096339
20
0.0
30
15.89968868610004
 70
     192
  0
VERTEX
  8
Layer0
10
3.8763151365897253
20
3.0
30
15.188779331065552
 70
     192
  0
VERTEX
  8
Layer0
10
0.0
 20
 0.0
 30
0.0
 70
     128
 71
-1
 72
2
 73
3
  0
VERTEX
  8
Layer0
10
0.0
 20
 0.0
 30
0.0
 70
     128
 71
-2
 72
1
 73
4
  0
SEQEND
  0
POLYLINE
 8
Layer0
 66
     1
10
0.0
 20
 0.0
 30
0.0
70
    64
71
4
72
   1
  0
VERTEX
  8
Layer0
10
4.410835708114687
20
3.0
30
16.65736253156436
 70
     192
  0
VERTEX
  8
Layer0
10
4.207817613096339
20
0.0
30
15.89968868610004
 70
     192
  0
VERTEX
  8
Layer0
10
4.410835708114687
20
0.0
30
16.65736253156436
 70
     192
  0
VERTEX
  8
Layer0
10
4.207817613096339
20
3.0
30
15.89968868610004
 70
     192
  0
VERTEX
  8
Layer0
10
0.0
 20
 0.0
 30
0.0
 70
     128
 71
-1
 72
2
 73
3
  0
VERTEX
  8
Layer0
10
0.0
 20
 0.0
 30
0.0
 70
     128
 71
-2
 72
1
 73
4
  0
SEQEND
  0
POLYLINE
 8
Layer0
 66
     1
10
0.0
 20
 0.0
 30
0.0
70
    64
71
4
72
   1
  0
VERTEX
  8
Layer0
10
0.7606176190609356
20
3.0
30
-28.129586184163934
 70
     192
  0
VERTEX
  8
Layer0
10
-0.020799180440250056
20
0.0
30
-28.061221072718865
 70
     192
  0
VERTEX
  8
Layer0
10
-0.020799180440250056
20
3.0
30
-28.061221072718865
 70
     192
  0
VERTEX
  8
Layer0
10
0.7606176190609356
20
0.0
30
-28.129586184163934
 70
     192
  0
VERTEX
  8
Layer0
10
0.0
 20
 0.0
 30
0.0
 70
     128
 71
-1
 72
2
 73
3
  0
VERTEX
  8
Layer0
10
0.0
 20
 0.0
 30
0.0
 70
     128
 71
-2
 72
1
 73
4
  0
SEQEND
  0
POLYLINE
 8
Layer0
 66
     1
10
0.0
 20
 0.0
 30
0.0
70
    64
71
4
72
   1
  0
VERTEX
  8
Layer0
10
1.5182914645252612
20
3.0
30
-28.33260427918228
 70
     192
  0
VERTEX
  8
Layer0
10
0.7606176190609356
20
0.0
30
-28.129586184163934
 70
     192
  0
VERTEX
  8
Layer0
10
0.7606176190609356
20
3.0
30
-28.129586184163934
 70
     192
  0
VERTEX
  8
Layer0
10
1.5182914645252612
20
0.0
30
-28.33260427918228
 70
     192
  0
VERTEX
  8
Layer0
10
0.0
 20
 0.0
 30
0.0
 70
     128
 71
-1
 72
2
 73
3
  0
VERTEX
  8
Layer0
10
0.0
 20
 0.0
 30
0.0
 70
     128
 71
-2
 72
1
 73
4
  0
SEQEND
  0
POLYLINE
 8
Layer0
 66
     1
10
0.0
 20
 0.0
 30
0.0
70
    64
71
4
72
   1
  0
VERTEX
  8
Layer0
10
-0.020799180440250056
20
3.0
30
-28.061221072718865
 70
     192
  0
VERTEX
  8
Layer0
10
-0.8022159799414356
20
0.0
30
-28.129586184163934
 70
     192
  0
VERTEX
  8
Layer0
10
-0.8022159799414356
20
3.0
30
-28.129586184163934
 70
     192
  0
VERTEX
  8
Layer0
10
-0.020799180440250056
20
0.0
30
-28.061221072718865
 70
     192
  0
VERTEX
  8
Layer0
10
0.0
 20
 0.0
 30
0.0
 70
     128
 71
-1
 72
2
 73
3
  0
VERTEX
  8
Layer0
10
0.0
 20
 0.0
 30
0.0
 70
     128
 71
-2
 72
1
 73
4
  0
SEQEND
  0
POLYLINE
 8
Layer0
 66
     1
10
0.0
 20
 0.0
 30
0.0
70
    64
71
4
72
   1
  0
VERTEX
  8
Layer0
10
-0.8022159799414356
20
3.0
30
-28.129586184163934
 70
     192
  0
VERTEX
  8
Layer0
10
-1.5598898254057578
20
0.0
30
-28.33260427918228
 70
     192
  0
VERTEX
  8
Layer0
10
-1.5598898254057578
20
3.0
30
-28.33260427918228
 70
     192
  0
VERTEX
  8
Layer0
10
-0.8022159799414356
20
0.0
30
-28.129586184163934
 70
     192
  0
VERTEX
  8
Layer0
10
0.0
 20
 0.0
 30
0.0
 70
     128
 71
-1
 72
2
 73
3
  0
VERTEX
  8
Layer0
10
0.0
 20
 0.0
 30
0.0
 70
     128
 71
-2
 72
1
 73
4
  0
SEQEND
  0
POLYLINE
 8
Layer0
 66
     1
10
0.0
 20
 0.0
 30
0.0
70
    64
71
4
72
   1
  0
VERTEX
  8
Layer0
10
-1.5598898254057578
20
3.0
30
-28.33260427918228
 70
     192
  0
VERTEX
  8
Layer0
10
-2.270799180440251
20
0.0
30
-28.6641067556889
 70
     192
  0
VERTEX
  8
Layer0
10
-2.270799180440251
20
3.0
30
-28.6641067556889
 70
     192
  0
VERTEX
  8
Layer0
10
-1.5598898254057578
20
0.0
30
-28.33260427918228
 70
     192
  0
VERTEX
  8
Layer0
10
0.0
 20
 0.0
 30
0.0
 70
     128
 71
-1
 72
2
 73
3
  0
VERTEX
  8
Layer0
10
0.0
 20
 0.0
 30
0.0
 70
     128
 71
-2
 72
1
 73
4
  0
SEQEND
  0
POLYLINE
 8
Layer0
 66
     1
10
0.0
 20
 0.0
 30
0.0
70
    64
71
4
72
   1
  0
VERTEX
  8
Layer0
10
-2.270799180440251
20
3.0
30
-28.6641067556889
 70
     192
  0
VERTEX
  8
Layer0
10
-2.913343424029678
20
0.0
30
-29.11402107868347
 70
     192
  0
VERTEX
  8
Layer0
10
-2.913343424029678
20
3.0
30
-29.11402107868347
 70
     192
  0
VERTEX
  8
Layer0
10
-2.270799180440251
20
0.0
30
-28.6641067556889
 70
     192
  0
VERTEX
  8
Layer0
10
0.0
 20
 0.0
 30
0.0
 70
     128
 71
-1
 72
2
 73
3
  0
VERTEX
  8
Layer0
10
0.0
 20
 0.0
 30
0.0
 70
     128
 71
-2
 72
1
 73
4
  0
SEQEND
  0
POLYLINE
 8
Layer0
 66
     1
10
0.0
 20
 0.0
 30
0.0
70
    64
71
4
72
   1
  0
VERTEX
  8
Layer0
10
-2.913343424029678
20
3.0
30
-29.11402107868347
 70
     192
  0
VERTEX
  8
Layer0
10
-3.467999174475652
20
0.0
30
-29.668676829129442
 70
     192
  0
VERTEX
  8
Layer0
10
-3.467999174475652
20
3.0
30
-29.668676829129442
 70
     192
  0
VERTEX
  8
Layer0
10
-2.913343424029678
20
0.0
30
-29.11402107868347
 70
     192
  0
VERTEX
  8
Layer0
10
0.0
 20
 0.0
 30
0.0
 70
     128
 71
-1
 72
2
 73
3
  0
VERTEX
  8
Layer0
10
0.0
 20
 0.0
 30
0.0
 70
     128
 71
-2
 72
1
 73
4
  0
SEQEND
  0
POLYLINE
 8
Layer0
 66
     1
10
0.0
 20
 0.0
 30
0.0
70
    64
71
4
72
   1
  0
VERTEX
  8
Layer0
10
-3.9179134974702237
20
3.0
30
-30.31122107271887
 70
     192
  0
VERTEX
  8
Layer0
10
-3.467999174475652
20
0.0
30
-29.668676829129442
 70
     192
  0
VERTEX
  8
Layer0
10
-3.9179134974702237
20
0.0
30
-30.31122107271887
 70
     192
  0
VERTEX
  8
Layer0
10
-3.467999174475652
20
3.0
30
-29.668676829129442
 70
     192
  0
VERTEX
  8
Layer0
10
0.0
 20
 0.0
 30
0.0
 70
     128
 71
-1
 72
2
 73
3
  0
VERTEX
  8
Layer0
10
0.0
 20
 0.0
 30
0.0
 70
     128
 71
-2
 72
1
 73
4
  0
SEQEND
  0
POLYLINE
 8
Layer0
 66
     1
10
0.0
 20
 0.0
 30
0.0
70
    64
71
4
72
   1
  0
VERTEX
  8
Layer0
10
-4.249415973976838
20
3.0
30
-31.022130427753357
 70
     192
  0
VERTEX
  8
Layer0
10
-3.9179134974702237
20
0.0
30
-30.31122107271887
 70
     192
  0
VERTEX
  8
Layer0
10
-4.249415973976838
20
0.0
30
-31.022130427753357
 70
     192
  0
VERTEX
  8
Layer0
10
-3.9179134974702237
20
3.0
30
-30.31122107271887
 70
     192
  0
VERTEX
  8
Layer0
10
0.0
 20
 0.0
 30
0.0
 70
     128
 71
-1
 72
2
 73
3
  0
VERTEX
  8
Layer0
10
0.0
 20
 0.0
 30
0.0
 70
     128
 71
-2
 72
1
 73
4
  0
SEQEND
  0
POLYLINE
 8
Layer0
 66
     1
10
0.0
 20
 0.0
 30
0.0
70
    64
71
4
72
   1
  0
VERTEX
  8
Layer0
10
-4.452434068995188
20
3.0
30
-31.77980427321768
 70
     192
  0
VERTEX
  8
Layer0
10
-4.249415973976838
20
0.0
30
-31.022130427753357
 70
     192
  0
VERTEX
  8
Layer0
10
-4.452434068995188
20
0.0
30
-31.77980427321768
 70
     192
  0
VERTEX
  8
Layer0
10
-4.249415973976838
20
3.0
30
-31.022130427753357
 70
     192
  0
VERTEX
  8
Layer0
10
0.0
 20
 0.0
 30
0.0
 70
     128
 71
-1
 72
2
 73
3
  0
VERTEX
  8
Layer0
10
0.0
 20
 0.0
 30
0.0
 70
     128
 71
-2
 72
1
 73
4
  0
SEQEND
  0
POLYLINE
 8
Layer0
 66
     1
10
0.0
 20
 0.0
 30
0.0
70
    64
71
4
72
   1
  0
VERTEX
  8
Layer0
10
-4.520799180440251
20
3.0
30
-32.56122107271887
 70
     192
  0
VERTEX
  8
Layer0
10
-4.452434068995188
20
0.0
30
-31.77980427321768
 70
     192
  0
VERTEX
  8
Layer0
10
-4.520799180440251
20
0.0
30
-32.56122107271887
 70
     192
  0
VERTEX
  8
Layer0
10
-4.452434068995188
20
3.0
30
-31.77980427321768
 70
     192
  0
VERTEX
  8
Layer0
10
0.0
 20
 0.0
 30
0.0
 70
     128
 71
-1
 72
2
 73
3
  0
VERTEX
  8
Layer0
10
0.0
 20
 0.0
 30
0.0
 70
     128
 71
-2
 72
1
 73
4
  0
SEQEND
  0
POLYLINE
 8
Layer0
 66
     1
10
0.0
 20
 0.0
 30
0.0
70
    64
71
4
72
   1
  0
VERTEX
  8
Layer0
10
-4.520799180440254
20
3.0
30
-37.56122107271887
 70
     192
  0
VERTEX
  8
Layer0
10
-4.520799180440251
20
0.0
30
-32.56122107271887
 70
     192
  0
VERTEX
  8
Layer0
10
-4.520799180440254
20
0.0
30
-37.56122107271887
 70
     192
  0
VERTEX
  8
Layer0
10
-4.520799180440251
20
3.0
30
-32.56122107271887
 70
     192
  0
VERTEX
  8
Layer0
10
0.0
 20
 0.0
 30
0.0
 70
     128
 71
-1
 72
2
 73
3
  0
VERTEX
  8
Layer0
10
0.0
 20
 0.0
 30
0.0
 70
     128
 71
-2
 72
1
 73
4
  0
SEQEND
  0
POLYLINE
 8
Layer0
 66
     1
10
0.0
 20
 0.0
 30
0.0
70
    64
71
4
72
   1
  0
VERTEX
  8
Layer0
10
-4.45243406899519
20
3.0
30
-38.34263787222005
 70
     192
  0
VERTEX
  8
Layer0
10
-4.520799180440254
20
0.0
30
-37.56122107271887
 70
     192
  0
VERTEX
  8
Layer0
10
-4.45243406899519
20
0.0
30
-38.34263787222005
 70
     192
  0
VERTEX
  8
Layer0
10
-4.520799180440254
20
3.0
30
-37.56122107271887
 70
     192
  0
VERTEX
  8
Layer0
10
0.0
 20
 0.0
 30
0.0
 70
     128
 71
-1
 72
2
 73
3
  0
VERTEX
  8
Layer0
10
0.0
 20
 0.0
 30
0.0
 70
     128
 71
-2
 72
1
 73
4
  0
SEQEND
  0
POLYLINE
 8
Layer0
 66
     1
10
0.0
 20
 0.0
 30
0.0
70
    64
71
4
72
   1
  0
VERTEX
  8
Layer0
10
-4.249415973976842
20
3.0
30
-39.10031171768438
 70
     192
  0
VERTEX
  8
Layer0
10
-4.45243406899519
20
0.0
30
-38.34263787222005
 70
     192
  0
VERTEX
  8
Layer0
10
-4.249415973976842
20
0.0
30
-39.10031171768438
 70
     192
  0
VERTEX
  8
Layer0
10
-4.45243406899519
20
3.0
30
-38.34263787222005
 70
     192
  0
VERTEX
  8
Layer0
10
0.0
 20
 0.0
 30
0.0
 70
     128
 71
-1
 72
2
 73
3
  0
VERTEX
  8
Layer0
10
0.0
 20
 0.0
 30
0.0
 70
     128
 71
-2
 72
1
 73
4
  0
SEQEND
  0
POLYLINE
 8
Layer0
 66
     1
10
0.0
 20
 0.0
 30
0.0
70
    64
71
4
72
   1
  0
VERTEX
  8
Layer0
10
-3.917913497470227
20
3.0
30
-39.81122107271887
 70
     192
  0
VERTEX
  8
Layer0
10
-4.249415973976842
20
0.0
30
-39.10031171768438
 70
     192
  0
VERTEX
  8
Layer0
10
-3.917913497470227
20
0.0
30
-39.81122107271887
 70
     192
  0
VERTEX
  8
Layer0
10
-4.249415973976842
20
3.0
30
-39.10031171768438
 70
     192
  0
VERTEX
  8
Layer0
10
0.0
 20
 0.0
 30
0.0
 70
     128
 71
-1
 72
2
 73
3
  0
VERTEX
  8
Layer0
10
0.0
 20
 0.0
 30
0.0
 70
     128
 71
-2
 72
1
 73
4
  0
SEQEND
  0
POLYLINE
 8
Layer0
 66
     1
10
0.0
 20
 0.0
 30
0.0
70
    64
71
4
72
   1
  0
VERTEX
  8
Layer0
10
-3.4679991744756546
20
3.0
30
-40.4537653163083
 70
     192
  0
VERTEX
  8
Layer0
10
-3.917913497470227
20
0.0
30
-39.81122107271887
 70
     192
  0
VERTEX
  8
Layer0
10
-3.4679991744756546
20
0.0
30
-40.4537653163083
 70
     192
  0
VERTEX
  8
Layer0
10
-3.917913497470227
20
3.0
30
-39.81122107271887
 70
     192
  0
VERTEX
  8
Layer0
10
0.0
 20
 0.0
 30
0.0
 70
     128
 71
-1
 72
2
 73
3
  0
VERTEX
  8
Layer0
10
0.0
 20
 0.0
 30
0.0
 70
     128
 71
-2
 72
1
 73
4
  0
SEQEND
  0
POLYLINE
 8
Layer0
 66
     1
10
0.0
 20
 0.0
 30
0.0
70
    64
71
4
72
   1
  0
VERTEX
  8
Layer0
10
-2.9133434240296814
20
3.0
30
-41.00842106675428
 70
     192
  0
VERTEX
  8
Layer0
10
-3.4679991744756546
20
0.0
30
-40.4537653163083
 70
     192
  0
VERTEX
  8
Layer0
10
-2.9133434240296814
20
0.0
30
-41.00842106675428
 70
     192
  0
VERTEX
  8
Layer0
10
-3.4679991744756546
20
3.0
30
-40.4537653163083
 70
     192
  0
VERTEX
  8
Layer0
10
0.0
 20
 0.0
 30
0.0
 70
     128
 71
-1
 72
2
 73
3
  0
VERTEX
  8
Layer0
10
0.0
 20
 0.0
 30
0.0
 70
     128
 71
-2
 72
1
 73
4
  0
SEQEND
  0
POLYLINE
 8
Layer0
 66
     1
10
0.0
 20
 0.0
 30
0.0
70
    64
71
4
72
   1
  0
VERTEX
  8
Layer0
10
-2.2707991804402545
20
0.0
30
-41.45833538974885
 70
     192
  0
VERTEX
  8
Layer0
10
-2.9133434240296814
20
3.0
30
-41.00842106675428
 70
     192
  0
VERTEX
  8
Layer0
10
-2.9133434240296814
20
0.0
30
-41.00842106675428
 70
     192
  0
VERTEX
  8
Layer0
10
-2.2707991804402545
20
3.0
30
-41.45833538974885
 70
     192
  0
VERTEX
  8
Layer0
10
0.0
 20
 0.0
 30
0.0
 70
     128
 71
-1
 72
2
 73
3
  0
VERTEX
  8
Layer0
10
0.0
 20
 0.0
 30
0.0
 70
     128
 71
-2
 72
1
 73
4
  0
SEQEND
  0
POLYLINE
 8
Layer0
 66
     1
10
0.0
 20
 0.0
 30
0.0
70
    64
71
4
72
   1
  0
VERTEX
  8
Layer0
10
-1.559889825405764
20
0.0
30
-41.78983786625546
 70
     192
  0
VERTEX
  8
Layer0
10
-2.2707991804402545
20
3.0
30
-41.45833538974885
 70
     192
  0
VERTEX
  8
Layer0
10
-2.2707991804402545
20
0.0
30
-41.45833538974885
 70
     192
  0
VERTEX
  8
Layer0
10
-1.559889825405764
20
3.0
30
-41.78983786625546
 70
     192
  0
VERTEX
  8
Layer0
10
0.0
 20
 0.0
 30
0.0
 70
     128
 71
-1
 72
2
 73
3
  0
VERTEX
  8
Layer0
10
0.0
 20
 0.0
 30
0.0
 70
     128
 71
-2
 72
1
 73
4
  0
SEQEND
  0
POLYLINE
 8
Layer0
 66
     1
10
0.0
 20
 0.0
 30
0.0
70
    64
71
4
72
   1
  0
VERTEX
  8
Layer0
10
7.049864526111669
20
3.0
30
-42.487709947027646
 70
     192
  0
VERTEX
  8
Layer0
10
6.288541619421243
20
0.0
30
-43.071893559897795
 70
     192
  0
VERTEX
  8
Layer0
10
6.288541619421243
20
3.0
30
-43.071893559897795
 70
     192
  0
VERTEX
  8
Layer0
10
7.049864526111669
20
0.0
30
-42.487709947027646
 70
     192
  0
VERTEX
  8
Layer0
10
0.0
 20
 0.0
 30
0.0
 70
     128
 71
-1
 72
2
 73
3
  0
VERTEX
  8
Layer0
10
0.0
 20
 0.0
 30
0.0
 70
     128
 71
-2
 72
1
 73
4
  0
SEQEND
  0
POLYLINE
 8
Layer0
 66
     1
10
0.0
 20
 0.0
 30
0.0
70
    64
71
4
72
   1
  0
VERTEX
  8
Layer0
10
6.288541619421243
20
3.0
30
-43.071893559897795
 70
     192
  0
VERTEX
  8
Layer0
10
5.479200819559735
20
0.0
30
-43.58750051434771
 70
     192
  0
VERTEX
  8
Layer0
10
5.479200819559735
20
3.0
30
-43.58750051434771
 70
     192
  0
VERTEX
  8
Layer0
10
6.288541619421243
20
0.0
30
-43.071893559897795
 70
     192
  0
VERTEX
  8
Layer0
10
0.0
 20
 0.0
 30
0.0
 70
     128
 71
-1
 72
2
 73
3
  0
VERTEX
  8
Layer0
10
0.0
 20
 0.0
 30
0.0
 70
     128
 71
-2
 72
1
 73
4
  0
SEQEND
  0
POLYLINE
 8
Layer0
 66
     1
10
0.0
 20
 0.0
 30
0.0
70
    64
71
4
72
   1
  0
VERTEX
  8
Layer0
10
5.479200819559735
20
3.0
30
-43.58750051434771
 70
     192
  0
VERTEX
  8
Layer0
10
4.628001698707431
20
0.0
30
-44.03060673012203
 70
     192
  0
VERTEX
  8
Layer0
10
4.628001698707431
20
3.0
30
-44.03060673012203
 70
     192
  0
VERTEX
  8
Layer0
10
5.479200819559735
20
0.0
30
-43.58750051434771
 70
     192
  0
VERTEX
  8
Layer0
10
0.0
 20
 0.0
 30
0.0
 70
     128
 71
-1
 72
2
 73
3
  0
VERTEX
  8
Layer0
10
0.0
 20
 0.0
 30
0.0
 70
     128
 71
-2
 72
1
 73
4
  0
SEQEND
  0
POLYLINE
 8
Layer0
 66
     1
10
0.0
 20
 0.0
 30
0.0
70
    64
71
4
72
   1
  0
VERTEX
  8
Layer0
10
4.628001698707431
20
3.0
30
-44.03060673012203
 70
     192
  0
VERTEX
  8
Layer0
10
3.741422396142091
20
0.0
30
-44.397839901363874
 70
     192
  0
VERTEX
  8
Layer0
10
3.741422396142091
20
3.0
30
-44.397839901363874
 70
     192
  0
VERTEX
  8
Layer0
10
4.628001698707431
20
0.0
30
-44.03060673012203
 70
     192
  0
VERTEX
  8
Layer0
10
0.0
 20
 0.0
 30
0.0
 70
     128
 71
-1
 72
2
 73
3
  0
VERTEX
  8
Layer0
10
0.0
 20
 0.0
 30
0.0
 70
     128
 71
-2
 72
1
 73
4
  0
SEQEND
  0
POLYLINE
 8
Layer0
 66
     1
10
0.0
 20
 0.0
 30
0.0
70
    64
71
4
72
   1
  0
VERTEX
  8
Layer0
10
3.741422396142091
20
3.0
30
-44.397839901363874
 70
     192
  0
VERTEX
  8
Layer0
10
2.8262103156874647
20
0.0
30
-44.686405161898634
 70
     192
  0
VERTEX
  8
Layer0
10
2.8262103156874647
20
3.0
30
-44.686405161898634
 70
     192
  0
VERTEX
  8
Layer0
10
3.741422396142091
20
0.0
30
-44.397839901363874
 70
     192
  0
VERTEX
  8
Layer0
10
0.0
 20
 0.0
 30
0.0
 70
     128
 71
-1
 72
2
 73
3
  0
VERTEX
  8
Layer0
10
0.0
 20
 0.0
 30
0.0
 70
     128
 71
-2
 72
1
 73
4
  0
SEQEND
  0
POLYLINE
 8
Layer0
 66
     1
10
0.0
 20
 0.0
 30
0.0
70
    64
71
4
72
   1
  0
VERTEX
  8
Layer0
10
2.8262103156874647
20
3.0
30
-44.686405161898634
 70
     192
  0
VERTEX
  8
Layer0
10
1.8893307738959708
20
0.0
30
-44.89410635585317
 70
     192
  0
VERTEX
  8
Layer0
10
1.8893307738959708
20
3.0
30
-44.89410635585317
 70
     192
  0
VERTEX
  8
Layer0
10
2.8262103156874647
20
0.0
30
-44.686405161898634
 70
     192
  0
VERTEX
  8
Layer0
10
0.0
 20
 0.0
 30
0.0
 70
     128
 71
-1
 72
2
 73
3
  0
VERTEX
  8
Layer0
10
0.0
 20
 0.0
 30
0.0
 70
     128
 71
-2
 72
1
 73
4
  0
SEQEND
  0
POLYLINE
 8
Layer0
 66
     1
10
0.0
 20
 0.0
 30
0.0
70
    64
71
4
72
   1
  0
VERTEX
  8
Layer0
10
-10.978940859449452
20
3.0
30
-35.019934242943116
 70
     192
  0
VERTEX
  8
Layer0
10
-10.85368446357454
20
0.0
30
-35.971351027055114
 70
     192
  0
VERTEX
  8
Layer0
10
-10.978940859449452
20
0.0
30
-35.019934242943116
 70
     192
  0
VERTEX
  8
Layer0
10
-10.85368446357454
20
3.0
30
-35.971351027055114
 70
     192
  0
VERTEX
  8
Layer0
10
0.0
 20
 0.0
 30
0.0
 70
     128
 71
-1
 72
2
 73
3
  0
VERTEX
  8
Layer0
10
0.0
 20
 0.0
 30
0.0
 70
     128
 71
-2
 72
1
 73
4
  0
SEQEND
  0
POLYLINE
 8
Layer0
 66
     1
10
0.0
 20
 0.0
 30
0.0
70
    64
71
4
72
   1
  0
VERTEX
  8
Layer0
10
-11.020799180440251
20
3.0
30
-34.06122107271888
 70
     192
  0
VERTEX
  8
Layer0
10
-10.978940859449452
20
0.0
30
-35.019934242943116
 70
     192
  0
VERTEX
  8
Layer0
10
-11.020799180440251
20
0.0
30
-34.06122107271888
 70
     192
  0
VERTEX
  8
Layer0
10
-10.978940859449452
20
3.0
30
-35.019934242943116
 70
     192
  0
VERTEX
  8
Layer0
10
0.0
 20
 0.0
 30
0.0
 70
     128
 71
-1
 72
2
 73
3
  0
VERTEX
  8
Layer0
10
0.0
 20
 0.0
 30
0.0
 70
     128
 71
-2
 72
1
 73
4
  0
SEQEND
  0
POLYLINE
 8
Layer0
 66
     1
10
0.0
 20
 0.0
 30
0.0
70
    64
71
4
72
   1
  0
VERTEX
  8
Layer0
10
-9.02079918044025
20
0.0
30
19.938779331065547
 70
     192
  0
VERTEX
  8
Layer0
10
-11.020799180440251
20
3.0
30
19.938779331065547
 70
     192
  0
VERTEX
  8
Layer0
10
-11.020799180440251
20
0.0
30
19.938779331065547
 70
     192
  0
VERTEX
  8
Layer0
10
-9.02079918044025
20
3.0
30
19.938779331065547
 70
     192
  0
VERTEX
  8
Layer0
10
0.0
 20
 0.0
 30
0.0
 70
     128
 71
-1
 72
2
 73
3
  0
VERTEX
  8
Layer0
10
0.0
 20
 0.0
 30
0.0
 70
     128
 71
-2
 72
1
 73
4
  0
SEQEND
  0
POLYLINE
 8
Layer0
 66
     1
10
0.0
 20
 0.0
 30
0.0
70
    64
71
4
72
   1
  0
VERTEX
  8
Layer0
10
-9.02079918044025
20
3.0
30
3.07275392728111
 70
     192
  0
VERTEX
  8
Layer0
10
-9.02079918044025
20
0.0
30
19.938779331065547
 70
     192
  0
VERTEX
  8
Layer0
10
-9.02079918044025
20
0.0
30
3.07275392728111
 70
     192
  0
VERTEX
  8
Layer0
10
-9.02079918044025
20
3.0
30
19.938779331065547
 70
     192
  0
VERTEX
  8
Layer0
10
0.0
 20
 0.0
 30
0.0
 70
     128
 71
-1
 72
2
 73
3
  0
VERTEX
  8
Layer0
10
0.0
 20
 0.0
 30
0.0
 70
     128
 71
-2
 72
1
 73
4
  0
SEQEND
  0
POLYLINE
 8
Layer0
 66
     1
10
0.0
 20
 0.0
 30
0.0
70
    64
71
4
72
   1
  0
VERTEX
  8
Layer0
10
-9.01224404181406
20
3.0
30
2.942227735061059
 70
     192
  0
VERTEX
  8
Layer0
10
-9.02079918044025
20
0.0
30
3.07275392728111
 70
     192
  0
VERTEX
  8
Layer0
10
-9.01224404181406
20
0.0
30
2.942227735061059
 70
     192
  0
VERTEX
  8
Layer0
10
-9.02079918044025
20
3.0
30
3.07275392728111
 70
     192
  0
VERTEX
  8
Layer0
10
0.0
 20
 0.0
 30
0.0
 70
     128
 71
-1
 72
2
 73
3
  0
VERTEX
  8
Layer0
10
0.0
 20
 0.0
 30
0.0
 70
     128
 71
-2
 72
1
 73
4
  0
SEQEND
  0
POLYLINE
 8
Layer0
 66
     1
10
0.0
 20
 0.0
 30
0.0
70
    64
71
4
72
   1
  0
VERTEX
  8
Layer0
10
-8.986725006729317
20
3.0
30
2.8139348821785903
 70
     192
  0
VERTEX
  8
Layer0
10
-9.01224404181406
20
0.0
30
2.942227735061059
 70
     192
  0
VERTEX
  8
Layer0
10
-8.986725006729317
20
0.0
30
2.8139348821785903
 70
     192
  0
VERTEX
  8
Layer0
10
-9.01224404181406
20
3.0
30
2.942227735061059
 70
     192
  0
VERTEX
  8
Layer0
10
0.0
 20
 0.0
 30
0.0
 70
     128
 71
-1
 72
2
 73
3
  0
VERTEX
  8
Layer0
10
0.0
 20
 0.0
 30
0.0
 70
     128
 71
-2
 72
1
 73
4
  0
SEQEND
  0
POLYLINE
 8
Layer0
 66
     1
10
0.0
 20
 0.0
 30
0.0
70
    64
71
4
72
   1
  0
VERTEX
  8
Layer0
10
-8.944678712951537
20
3.0
30
2.690070494916021
 70
     192
  0
VERTEX
  8
Layer0
10
-8.986725006729317
20
0.0
30
2.8139348821785903
 70
     192
  0
VERTEX
  8
Layer0
10
-8.944678712951537
20
0.0
30
2.690070494916021
 70
     192
  0
VERTEX
  8
Layer0
10
-8.986725006729317
20
3.0
30
2.8139348821785903
 70
     192
  0
VERTEX
  8
Layer0
10
0.0
 20
 0.0
 30
0.0
 70
     128
 71
-1
 72
2
 73
3
  0
VERTEX
  8
Layer0
10
0.0
 20
 0.0
 30
0.0
 70
     128
 71
-2
 72
1
 73
4
  0
SEQEND
  0
POLYLINE
 8
Layer0
 66
     1
10
0.0
 20
 0.0
 30
0.0
70
    64
71
4
72
   1
  0
VERTEX
  8
Layer0
10
-8.886824584224689
20
3.0
30
2.572753927281111
 70
     192
  0
VERTEX
  8
Layer0
10
-8.944678712951537
20
0.0
30
2.690070494916021
 70
     192
  0
VERTEX
  8
Layer0
10
-8.886824584224689
20
0.0
30
2.572753927281111
 70
     192
  0
VERTEX
  8
Layer0
10
-8.944678712951537
20
3.0
30
2.690070494916021
 70
     192
  0
VERTEX
  8
Layer0
10
0.0
 20
 0.0
 30
0.0
 70
     128
 71
-1
 72
2
 73
3
  0
VERTEX
  8
Layer0
10
0.0
 20
 0.0
 30
0.0
 70
     128
 71
-2
 72
1
 73
4
  0
SEQEND
  0
POLYLINE
 8
Layer0
 66
     1
10
0.0
 20
 0.0
 30
0.0
70
    64
71
4
72
   1
  0
VERTEX
  8
Layer0
10
-8.814152520731486
20
3.0
30
2.4639924982723898
 70
     192
  0
VERTEX
  8
Layer0
10
-8.886824584224689
20
0.0
30
2.572753927281111
 70
     192
  0
VERTEX
  8
Layer0
10
-8.814152520731486
20
0.0
30
2.4639924982723898
 70
     192
  0
VERTEX
  8
Layer0
10
-8.886824584224689
20
3.0
30
2.572753927281111
 70
     192
  0
VERTEX
  8
Layer0
10
0.0
 20
 0.0
 30
0.0
 70
     128
 71
-1
 72
2
 73
3
  0
VERTEX
  8
Layer0
10
0.0
 20
 0.0
 30
0.0
 70
     128
 71
-2
 72
1
 73
4
  0
SEQEND
  0
POLYLINE
 8
Layer0
 66
     1
10
0.0
 20
 0.0
 30
0.0
70
    64
71
4
72
   1
  0
VERTEX
  8
Layer0
10
-8.727905961626798
20
3.0
30
2.3656471460945623
 70
     192
  0
VERTEX
  8
Layer0
10
-8.814152520731486
20
0.0
30
2.4639924982723898
 70
     192
  0
VERTEX
  8
Layer0
10
-8.727905961626798
20
0.0
30
2.3656471460945623
 70
     192
  0
VERTEX
  8
Layer0
10
-8.814152520731486
20
3.0
30
2.4639924982723898
 70
     192
  0
VERTEX
  8
Layer0
10
0.0
 20
 0.0
 30
0.0
 70
     128
 71
-1
 72
2
 73
3
  0
VERTEX
  8
Layer0
10
0.0
 20
 0.0
 30
0.0
 70
     128
 71
-2
 72
1
 73
4
  0
SEQEND
  0
POLYLINE
 8
Layer0
 66
     1
10
0.0
 20
 0.0
 30
0.0
70
    64
71
4
72
   1
  0
VERTEX
  8
Layer0
10
-8.629560609448971
20
0.0
30
2.2794005869898757
 70
     192
  0
VERTEX
  8
Layer0
10
-8.727905961626798
20
3.0
30
2.3656471460945623
 70
     192
  0
VERTEX
  8
Layer0
10
-8.727905961626798
20
0.0
30
2.3656471460945623
 70
     192
  0
VERTEX
  8
Layer0
10
-8.629560609448971
20
3.0
30
2.2794005869898757
 70
     192
  0
VERTEX
  8
Layer0
10
0.0
 20
 0.0
 30
0.0
 70
     128
 71
-1
 72
2
 73
3
  0
VERTEX
  8
Layer0
10
0.0
 20
 0.0
 30
0.0
 70
     128
 71
-2
 72
1
 73
4
  0
SEQEND
  0
POLYLINE
 8
Layer0
 66
     1
10
0.0
 20
 0.0
 30
0.0
70
    64
71
4
72
   1
  0
VERTEX
  8
Layer0
10
-8.520799180440251
20
0.0
30
2.2067285234966714
 70
     192
  0
VERTEX
  8
Layer0
10
-8.629560609448971
20
3.0
30
2.2794005869898757
 70
     192
  0
VERTEX
  8
Layer0
10
-8.629560609448971
20
0.0
30
2.2794005869898757
 70
     192
  0
VERTEX
  8
Layer0
10
-8.520799180440251
20
3.0
30
2.2067285234966714
 70
     192
  0
VERTEX
  8
Layer0
10
0.0
 20
 0.0
 30
0.0
 70
     128
 71
-1
 72
2
 73
3
  0
VERTEX
  8
Layer0
10
0.0
 20
 0.0
 30
0.0
 70
     128
 71
-2
 72
1
 73
4
  0
SEQEND
  0
POLYLINE
 8
Layer0
 66
     1
10
0.0
 20
 0.0
 30
0.0
70
    64
71
4
72
   1
  0
VERTEX
  8
Layer0
10
-8.40348261280534
20
0.0
30
2.1488743947698232
 70
     192
  0
VERTEX
  8
Layer0
10
-8.520799180440251
20
3.0
30
2.2067285234966714
 70
     192
  0
VERTEX
  8
Layer0
10
-8.520799180440251
20
0.0
30
2.2067285234966714
 70
     192
  0
VERTEX
  8
Layer0
10
-8.40348261280534
20
3.0
30
2.1488743947698232
 70
     192
  0
VERTEX
  8
Layer0
10
0.0
 20
 0.0
 30
0.0
 70
     128
 71
-1
 72
2
 73
3
  0
VERTEX
  8
Layer0
10
0.0
 20
 0.0
 30
0.0
 70
     128
 71
-2
 72
1
 73
4
  0
SEQEND
  0
POLYLINE
 8
Layer0
 66
     1
10
0.0
 20
 0.0
 30
0.0
70
    64
71
4
72
   1
  0
VERTEX
  8
Layer0
10
-8.279618225542771
20
0.0
30
2.1068281009920424
 70
     192
  0
VERTEX
  8
Layer0
10
-8.40348261280534
20
3.0
30
2.1488743947698232
 70
     192
  0
VERTEX
  8
Layer0
10
-8.40348261280534
20
0.0
30
2.1488743947698232
 70
     192
  0
VERTEX
  8
Layer0
10
-8.279618225542771
20
3.0
30
2.1068281009920424
 70
     192
  0
VERTEX
  8
Layer0
10
0.0
 20
 0.0
 30
0.0
 70
     128
 71
-1
 72
2
 73
3
  0
VERTEX
  8
Layer0
10
0.0
 20
 0.0
 30
0.0
 70
     128
 71
-2
 72
1
 73
4
  0
SEQEND
  0
POLYLINE
 8
Layer0
 66
     1
10
0.0
 20
 0.0
 30
0.0
70
    64
71
4
72
   1
  0
VERTEX
  8
Layer0
10
-8.151325372660303
20
0.0
30
2.0813090659073
 70
     192
  0
VERTEX
  8
Layer0
10
-8.279618225542771
20
3.0
30
2.1068281009920424
 70
     192
  0
VERTEX
  8
Layer0
10
-8.279618225542771
20
0.0
30
2.1068281009920424
 70
     192
  0
VERTEX
  8
Layer0
10
-8.151325372660303
20
3.0
30
2.0813090659073
 70
     192
  0
VERTEX
  8
Layer0
10
0.0
 20
 0.0
 30
0.0
 70
     128
 71
-1
 72
2
 73
3
  0
VERTEX
  8
Layer0
10
0.0
 20
 0.0
 30
0.0
 70
     128
 71
-2
 72
1
 73
4
  0
SEQEND
  0
POLYLINE
 8
Layer0
 66
     1
10
0.0
 20
 0.0
 30
0.0
70
    64
71
4
72
   1
  0
VERTEX
  8
Layer0
10
1.8893307738959708
20
3.0
30
-44.89410635585317
 70
     192
  0
VERTEX
  8
Layer0
10
0.9379139897839779
20
0.0
30
-45.01936275172808
 70
     192
  0
VERTEX
  8
Layer0
10
0.9379139897839779
20
3.0
30
-45.01936275172808
 70
     192
  0
VERTEX
  8
Layer0
10
1.8893307738959708
20
0.0
30
-44.89410635585317
 70
     192
  0
VERTEX
  8
Layer0
10
0.0
 20
 0.0
 30
0.0
 70
     128
 71
-1
 72
2
 73
3
  0
VERTEX
  8
Layer0
10
0.0
 20
 0.0
 30
0.0
 70
     128
 71
-2
 72
1
 73
4
  0
SEQEND
  0
POLYLINE
 8
Layer0
 66
     1
10
0.0
 20
 0.0
 30
0.0
70
    64
71
4
72
   1
  0
VERTEX
  8
Layer0
10
0.9379139897839779
20
3.0
30
-45.01936275172808
 70
     192
  0
VERTEX
  8
Layer0
10
-0.020799180440260998
20
0.0
30
-45.06122107271888
 70
     192
  0
VERTEX
  8
Layer0
10
-0.020799180440260998
20
3.0
30
-45.06122107271888
 70
     192
  0
VERTEX
  8
Layer0
10
0.9379139897839779
20
0.0
30
-45.01936275172808
 70
     192
  0
VERTEX
  8
Layer0
10
0.0
 20
 0.0
 30
0.0
 70
     128
 71
-1
 72
2
 73
3
  0
VERTEX
  8
Layer0
10
0.0
 20
 0.0
 30
0.0
 70
     128
 71
-2
 72
1
 73
4
  0
SEQEND
  0
POLYLINE
 8
Layer0
 66
     1
10
0.0
 20
 0.0
 30
0.0
70
    64
71
4
72
   1
  0
VERTEX
  8
Layer0
10
-0.020799180440260998
20
3.0
30
-45.06122107271888
 70
     192
  0
VERTEX
  8
Layer0
10
-0.9795123506644995
20
0.0
30
-45.019362751728075
 70
     192
  0
VERTEX
  8
Layer0
10
-0.9795123506644995
20
3.0
30
-45.019362751728075
 70
     192
  0
VERTEX
  8
Layer0
10
-0.020799180440260998
20
0.0
30
-45.06122107271888
 70
     192
  0
VERTEX
  8
Layer0
10
0.0
 20
 0.0
 30
0.0
 70
     128
 71
-1
 72
2
 73
3
  0
VERTEX
  8
Layer0
10
0.0
 20
 0.0
 30
0.0
 70
     128
 71
-2
 72
1
 73
4
  0
SEQEND
  0
POLYLINE
 8
Layer0
 66
     1
10
0.0
 20
 0.0
 30
0.0
70
    64
71
4
72
   1
  0
VERTEX
  8
Layer0
10
-0.9795123506644995
20
3.0
30
-45.019362751728075
 70
     192
  0
VERTEX
  8
Layer0
10
-1.9309291347764925
20
0.0
30
-44.89410635585317
 70
     192
  0
VERTEX
  8
Layer0
10
-1.9309291347764925
20
3.0
30
-44.89410635585317
 70
     192
  0
VERTEX
  8
Layer0
10
-0.9795123506644995
20
0.0
30
-45.019362751728075
 70
     192
  0
VERTEX
  8
Layer0
10
0.0
 20
 0.0
 30
0.0
 70
     128
 71
-1
 72
2
 73
3
  0
VERTEX
  8
Layer0
10
0.0
 20
 0.0
 30
0.0
 70
     128
 71
-2
 72
1
 73
4
  0
SEQEND
  0
POLYLINE
 8
Layer0
 66
     1
10
0.0
 20
 0.0
 30
0.0
70
    64
71
4
72
   1
  0
VERTEX
  8
Layer0
10
-1.9309291347764925
20
3.0
30
-44.89410635585317
 70
     192
  0
VERTEX
  8
Layer0
10
-2.8678086765679858
20
0.0
30
-44.68640516189863
 70
     192
  0
VERTEX
  8
Layer0
10
-2.8678086765679858
20
3.0
30
-44.68640516189863
 70
     192
  0
VERTEX
  8
Layer0
10
-1.9309291347764925
20
0.0
30
-44.89410635585317
 70
     192
  0
VERTEX
  8
Layer0
10
0.0
 20
 0.0
 30
0.0
 70
     128
 71
-1
 72
2
 73
3
  0
VERTEX
  8
Layer0
10
0.0
 20
 0.0
 30
0.0
 70
     128
 71
-2
 72
1
 73
4
  0
SEQEND
  0
POLYLINE
 8
Layer0
 66
     1
10
0.0
 20
 0.0
 30
0.0
70
    64
71
4
72
   1
  0
VERTEX
  8
Layer0
10
-2.8678086765679858
20
3.0
30
-44.68640516189863
 70
     192
  0
VERTEX
  8
Layer0
10
-3.783020757022612
20
0.0
30
-44.397839901363874
 70
     192
  0
VERTEX
  8
Layer0
10
-3.783020757022612
20
3.0
30
-44.397839901363874
 70
     192
  0
VERTEX
  8
Layer0
10
-2.8678086765679858
20
0.0
30
-44.68640516189863
 70
     192
  0
VERTEX
  8
Layer0
10
0.0
 20
 0.0
 30
0.0
 70
     128
 71
-1
 72
2
 73
3
  0
VERTEX
  8
Layer0
10
0.0
 20
 0.0
 30
0.0
 70
     128
 71
-2
 72
1
 73
4
  0
SEQEND
  0
POLYLINE
 8
Layer0
 66
     1
10
0.0
 20
 0.0
 30
0.0
70
    64
71
4
72
   1
  0
VERTEX
  8
Layer0
10
-3.783020757022612
20
3.0
30
-44.397839901363874
 70
     192
  0
VERTEX
  8
Layer0
10
-4.669600059587949
20
0.0
30
-44.03060673012203
 70
     192
  0
VERTEX
  8
Layer0
10
-4.669600059587949
20
3.0
30
-44.03060673012203
 70
     192
  0
VERTEX
  8
Layer0
10
-3.783020757022612
20
0.0
30
-44.397839901363874
 70
     192
  0
VERTEX
  8
Layer0
10
0.0
 20
 0.0
 30
0.0
 70
     128
 71
-1
 72
2
 73
3
  0
VERTEX
  8
Layer0
10
0.0
 20
 0.0
 30
0.0
 70
     128
 71
-2
 72
1
 73
4
  0
SEQEND
  0
POLYLINE
 8
Layer0
 66
     1
10
0.0
 20
 0.0
 30
0.0
70
    64
71
4
72
   1
  0
VERTEX
  8
Layer0
10
-4.669600059587949
20
3.0
30
-44.03060673012203
 70
     192
  0
VERTEX
  8
Layer0
10
-5.520799180440254
20
0.0
30
-43.5875005143477
 70
     192
  0
VERTEX
  8
Layer0
10
-5.520799180440254
20
3.0
30
-43.5875005143477
 70
     192
  0
VERTEX
  8
Layer0
10
-4.669600059587949
20
0.0
30
-44.03060673012203
 70
     192
  0
VERTEX
  8
Layer0
10
0.0
 20
 0.0
 30
0.0
 70
     128
 71
-1
 72
2
 73
3
  0
VERTEX
  8
Layer0
10
0.0
 20
 0.0
 30
0.0
 70
     128
 71
-2
 72
1
 73
4
  0
SEQEND
  0
POLYLINE
 8
Layer0
 66
     1
10
0.0
 20
 0.0
 30
0.0
70
    64
71
4
72
   1
  0
VERTEX
  8
Layer0
10
-5.520799180440254
20
3.0
30
-43.5875005143477
 70
     192
  0
VERTEX
  8
Layer0
10
-6.330139980301761
20
0.0
30
-43.07189355989779
 70
     192
  0
VERTEX
  8
Layer0
10
-6.330139980301761
20
3.0
30
-43.07189355989779
 70
     192
  0
VERTEX
  8
Layer0
10
-5.520799180440254
20
0.0
30
-43.5875005143477
 70
     192
  0
VERTEX
  8
Layer0
10
0.0
 20
 0.0
 30
0.0
 70
     128
 71
-1
 72
2
 73
3
  0
VERTEX
  8
Layer0
10
0.0
 20
 0.0
 30
0.0
 70
     128
 71
-2
 72
1
 73
4
  0
SEQEND
  0
POLYLINE
 8
Layer0
 66
     1
10
0.0
 20
 0.0
 30
0.0
70
    64
71
4
72
   1
  0
VERTEX
  8
Layer0
10
-6.330139980301761
20
3.0
30
-43.07189355989779
 70
     192
  0
VERTEX
  8
Layer0
10
-7.091462886992185
20
0.0
30
-42.48770994702764
 70
     192
  0
VERTEX
  8
Layer0
10
-7.091462886992185
20
3.0
30
-42.48770994702764
 70
     192
  0
VERTEX
  8
Layer0
10
-6.330139980301761
20
0.0
30
-43.07189355989779
 70
     192
  0
VERTEX
  8
Layer0
10
0.0
 20
 0.0
 30
0.0
 70
     128
 71
-1
 72
2
 73
3
  0
VERTEX
  8
Layer0
10
0.0
 20
 0.0
 30
0.0
 70
     128
 71
-2
 72
1
 73
4
  0
SEQEND
  0
POLYLINE
 8
Layer0
 66
     1
10
0.0
 20
 0.0
 30
0.0
70
    64
71
4
72
   1
  0
VERTEX
  8
Layer0
10
-7.091462886992185
20
3.0
30
-42.48770994702764
 70
     192
  0
VERTEX
  8
Layer0
10
-7.798973773492273
20
0.0
30
-41.8393956657709
 70
     192
  0
VERTEX
  8
Layer0
10
-7.798973773492273
20
3.0
30
-41.8393956657709
 70
     192
  0
VERTEX
  8
Layer0
10
-7.091462886992185
20
0.0
30
-42.48770994702764
 70
     192
  0
VERTEX
  8
Layer0
10
0.0
 20
 0.0
 30
0.0
 70
     128
 71
-1
 72
2
 73
3
  0
VERTEX
  8
Layer0
10
0.0
 20
 0.0
 30
0.0
 70
     128
 71
-2
 72
1
 73
4
  0
SEQEND
  0
POLYLINE
 8
Layer0
 66
     1
10
0.0
 20
 0.0
 30
0.0
70
    64
71
4
72
   1
  0
VERTEX
  8
Layer0
10
-8.44728805474901
20
3.0
30
-41.13188477927081
 70
     192
  0
VERTEX
  8
Layer0
10
-7.798973773492273
20
0.0
30
-41.8393956657709
 70
     192
  0
VERTEX
  8
Layer0
10
-8.44728805474901
20
0.0
30
-41.13188477927081
 70
     192
  0
VERTEX
  8
Layer0
10
-7.798973773492273
20
3.0
30
-41.8393956657709
 70
     192
  0
VERTEX
  8
Layer0
10
0.0
 20
 0.0
 30
0.0
 70
     128
 71
-1
 72
2
 73
3
  0
VERTEX
  8
Layer0
10
0.0
 20
 0.0
 30
0.0
 70
     128
 71
-2
 72
1
 73
4
  0
SEQEND
  0
POLYLINE
 8
Layer0
 66
     1
10
0.0
 20
 0.0
 30
0.0
70
    64
71
4
72
   1
  0
VERTEX
  8
Layer0
10
-9.031471667619162
20
3.0
30
-40.37056187258038
 70
     192
  0
VERTEX
  8
Layer0
10
-8.44728805474901
20
0.0
30
-41.13188477927081
 70
     192
  0
VERTEX
  8
Layer0
10
-9.031471667619162
20
0.0
30
-40.37056187258038
 70
     192
  0
VERTEX
  8
Layer0
10
-8.44728805474901
20
3.0
30
-41.13188477927081
 70
     192
  0
VERTEX
  8
Layer0
10
0.0
 20
 0.0
 30
0.0
 70
     128
 71
-1
 72
2
 73
3
  0
VERTEX
  8
Layer0
10
0.0
 20
 0.0
 30
0.0
 70
     128
 71
-2
 72
1
 73
4
  0
SEQEND
  0
POLYLINE
 8
Layer0
 66
     1
10
0.0
 20
 0.0
 30
0.0
70
    64
71
4
72
   1
  0
VERTEX
  8
Layer0
10
-9.547078622069076
20
3.0
30
-39.56122107271888
 70
     192
  0
VERTEX
  8
Layer0
10
-9.031471667619162
20
0.0
30
-40.37056187258038
 70
     192
  0
VERTEX
  8
Layer0
10
-9.547078622069076
20
0.0
30
-39.56122107271888
 70
     192
  0
VERTEX
  8
Layer0
10
-9.031471667619162
20
3.0
30
-40.37056187258038
 70
     192
  0
VERTEX
  8
Layer0
10
0.0
 20
 0.0
 30
0.0
 70
     128
 71
-1
 72
2
 73
3
  0
VERTEX
  8
Layer0
10
0.0
 20
 0.0
 30
0.0
 70
     128
 71
-2
 72
1
 73
4
  0
SEQEND
  0
POLYLINE
 8
Layer0
 66
     1
10
0.0
 20
 0.0
 30
0.0
70
    64
71
4
72
   1
  0
VERTEX
  8
Layer0
10
-9.990184837843401
20
3.0
30
-38.71002195186657
 70
     192
  0
VERTEX
  8
Layer0
10
-9.547078622069076
20
0.0
30
-39.56122107271888
 70
     192
  0
VERTEX
  8
Layer0
10
-9.990184837843401
20
0.0
30
-38.71002195186657
 70
     192
  0
VERTEX
  8
Layer0
10
-9.547078622069076
20
3.0
30
-39.56122107271888
 70
     192
  0
VERTEX
  8
Layer0
10
0.0
 20
 0.0
 30
0.0
 70
     128
 71
-1
 72
2
 73
3
  0
VERTEX
  8
Layer0
10
0.0
 20
 0.0
 30
0.0
 70
     128
 71
-2
 72
1
 73
4
  0
SEQEND
  0
POLYLINE
 8
Layer0
 66
     1
10
0.0
 20
 0.0
 30
0.0
70
    64
71
4
72
   1
  0
VERTEX
  8
Layer0
10
-10.357418009085245
20
3.0
30
-37.823442649301235
 70
     192
  0
VERTEX
  8
Layer0
10
-9.990184837843401
20
0.0
30
-38.71002195186657
 70
     192
  0
VERTEX
  8
Layer0
10
-10.357418009085245
20
0.0
30
-37.823442649301235
 70
     192
  0
VERTEX
  8
Layer0
10
-9.990184837843401
20
3.0
30
-38.71002195186657
 70
     192
  0
VERTEX
  8
Layer0
10
0.0
 20
 0.0
 30
0.0
 70
     128
 71
-1
 72
2
 73
3
  0
VERTEX
  8
Layer0
10
0.0
 20
 0.0
 30
0.0
 70
     128
 71
-2
 72
1
 73
4
  0
SEQEND
  0
POLYLINE
 8
Layer0
 66
     1
10
0.0
 20
 0.0
 30
0.0
70
    64
71
4
72
   1
  0
VERTEX
  8
Layer0
10
-10.645983269620004
20
3.0
30
-36.908230568846605
 70
     192
  0
VERTEX
  8
Layer0
10
-10.357418009085245
20
0.0
30
-37.823442649301235
 70
     192
  0
VERTEX
  8
Layer0
10
-10.645983269620004
20
0.0
30
-36.908230568846605
 70
     192
  0
VERTEX
  8
Layer0
10
-10.357418009085245
20
3.0
30
-37.823442649301235
 70
     192
  0
VERTEX
  8
Layer0
10
0.0
 20
 0.0
 30
0.0
 70
     128
 71
-1
 72
2
 73
3
  0
VERTEX
  8
Layer0
10
0.0
 20
 0.0
 30
0.0
 70
     128
 71
-2
 72
1
 73
4
  0
SEQEND
  0
POLYLINE
 8
Layer0
 66
     1
10
0.0
 20
 0.0
 30
0.0
70
    64
71
4
72
   1
  0
VERTEX
  8
Layer0
10
-10.85368446357454
20
3.0
30
-35.971351027055114
 70
     192
  0
VERTEX
  8
Layer0
10
-10.645983269620004
20
0.0
30
-36.908230568846605
 70
     192
  0
VERTEX
  8
Layer0
10
-10.85368446357454
20
0.0
30
-35.971351027055114
 70
     192
  0
VERTEX
  8
Layer0
10
-10.645983269620004
20
3.0
30
-36.908230568846605
 70
     192
  0
VERTEX
  8
Layer0
10
0.0
 20
 0.0
 30
0.0
 70
     128
 71
-1
 72
2
 73
3
  0
VERTEX
  8
Layer0
10
0.0
 20
 0.0
 30
0.0
 70
     128
 71
-2
 72
1
 73
4
  0
SEQEND
  0
POLYLINE
 8
Layer0
 66
     1
10
0.0
 20
 0.0
 30
0.0
70
    64
71
4
72
   1
  0
VERTEX
  8
Layer0
10
10.979200819559749
20
3.0
30
-34.06122107271891
 70
     192
  0
VERTEX
  8
Layer0
10
10.979200819559749
20
0.0
30
-22.06122107271888
 70
     192
  0
VERTEX
  8
Layer0
10
10.979200819559749
20
0.0
30
-34.06122107271891
 70
     192
  0
VERTEX
  8
Layer0
10
10.979200819559749
20
3.0
30
-22.06122107271888
 70
     192
  0
VERTEX
  8
Layer0
10
0.0
 20
 0.0
 30
0.0
 70
     128
 71
-1
 72
2
 73
3
  0
VERTEX
  8
Layer0
10
0.0
 20
 0.0
 30
0.0
 70
     128
 71
-2
 72
1
 73
4
  0
SEQEND
  0
POLYLINE
 8
Layer0
 66
     1
10
0.0
 20
 0.0
 30
0.0
70
    64
71
4
72
   1
  0
VERTEX
  8
Layer0
10
10.979200819559749
20
0.0
30
19.938779331065547
 70
     192
  0
VERTEX
  8
Layer0
10
8.979200819559745
20
3.0
30
19.938779331065547
 70
     192
  0
VERTEX
  8
Layer0
10
8.979200819559745
20
0.0
30
19.938779331065547
 70
     192
  0
VERTEX
  8
Layer0
10
10.979200819559749
20
3.0
30
19.938779331065547
 70
     192
  0
VERTEX
  8
Layer0
10
0.0
 20
 0.0
 30
0.0
 70
     128
 71
-1
 72
2
 73
3
  0
VERTEX
  8
Layer0
10
0.0
 20
 0.0
 30
0.0
 70
     128
 71
-2
 72
1
 73
4
  0
SEQEND
  0
POLYLINE
 8
Layer0
 66
     1
10
0.0
 20
 0.0
 30
0.0
70
    64
71
4
72
   1
  0
VERTEX
  8
Layer0
10
10.937342498568947
20
3.0
30
-35.019934242943144
 70
     192
  0
VERTEX
  8
Layer0
10
10.979200819559749
20
0.0
30
-34.06122107271891
 70
     192
  0
VERTEX
  8
Layer0
10
10.937342498568947
20
0.0
30
-35.019934242943144
 70
     192
  0
VERTEX
  8
Layer0
10
10.979200819559749
20
3.0
30
-34.06122107271891
 70
     192
  0
VERTEX
  8
Layer0
10
0.0
 20
 0.0
 30
0.0
 70
     128
 71
-1
 72
2
 73
3
  0
VERTEX
  8
Layer0
10
0.0
 20
 0.0
 30
0.0
 70
     128
 71
-2
 72
1
 73
4
  0
SEQEND
  0
POLYLINE
 8
Layer0
 66
     1
10
0.0
 20
 0.0
 30
0.0
70
    64
71
4
72
   1
  0
VERTEX
  8
Layer0
10
10.812086102694032
20
3.0
30
-35.971351027055135
 70
     192
  0
VERTEX
  8
Layer0
10
10.937342498568947
20
0.0
30
-35.019934242943144
 70
     192
  0
VERTEX
  8
Layer0
10
10.812086102694032
20
0.0
30
-35.971351027055135
 70
     192
  0
VERTEX
  8
Layer0
10
10.937342498568947
20
3.0
30
-35.019934242943144
 70
     192
  0
VERTEX
  8
Layer0
10
0.0
 20
 0.0
 30
0.0
 70
     128
 71
-1
 72
2
 73
3
  0
VERTEX
  8
Layer0
10
0.0
 20
 0.0
 30
0.0
 70
     128
 71
-2
 72
1
 73
4
  0
SEQEND
  0
POLYLINE
 8
Layer0
 66
     1
10
0.0
 20
 0.0
 30
0.0
70
    64
71
4
72
   1
  0
VERTEX
  8
Layer0
10
10.604384908739494
20
3.0
30
-36.908230568846626
 70
     192
  0
VERTEX
  8
Layer0
10
10.812086102694032
20
0.0
30
-35.971351027055135
 70
     192
  0
VERTEX
  8
Layer0
10
10.604384908739494
20
0.0
30
-36.908230568846626
 70
     192
  0
VERTEX
  8
Layer0
10
10.812086102694032
20
3.0
30
-35.971351027055135
 70
     192
  0
VERTEX
  8
Layer0
10
0.0
 20
 0.0
 30
0.0
 70
     128
 71
-1
 72
2
 73
3
  0
VERTEX
  8
Layer0
10
0.0
 20
 0.0
 30
0.0
 70
     128
 71
-2
 72
1
 73
4
  0
SEQEND
  0
POLYLINE
 8
Layer0
 66
     1
10
0.0
 20
 0.0
 30
0.0
70
    64
71
4
72
   1
  0
VERTEX
  8
Layer0
10
10.315819648204734
20
3.0
30
-37.823442649301256
 70
     192
  0
VERTEX
  8
Layer0
10
10.604384908739494
20
0.0
30
-36.908230568846626
 70
     192
  0
VERTEX
  8
Layer0
10
10.315819648204734
20
0.0
30
-37.823442649301256
 70
     192
  0
VERTEX
  8
Layer0
10
10.604384908739494
20
3.0
30
-36.908230568846626
 70
     192
  0
VERTEX
  8
Layer0
10
0.0
 20
 0.0
 30
0.0
 70
     128
 71
-1
 72
2
 73
3
  0
VERTEX
  8
Layer0
10
0.0
 20
 0.0
 30
0.0
 70
     128
 71
-2
 72
1
 73
4
  0
SEQEND
  0
POLYLINE
 8
Layer0
 66
     1
10
0.0
 20
 0.0
 30
0.0
70
    64
71
4
72
   1
  0
VERTEX
  8
Layer0
10
9.94858647696289
20
3.0
30
-38.710021951866594
 70
     192
  0
VERTEX
  8
Layer0
10
10.315819648204734
20
0.0
30
-37.823442649301256
 70
     192
  0
VERTEX
  8
Layer0
10
9.94858647696289
20
0.0
30
-38.710021951866594
 70
     192
  0
VERTEX
  8
Layer0
10
10.315819648204734
20
3.0
30
-37.823442649301256
 70
     192
  0
VERTEX
  8
Layer0
10
0.0
 20
 0.0
 30
0.0
 70
     128
 71
-1
 72
2
 73
3
  0
VERTEX
  8
Layer0
10
0.0
 20
 0.0
 30
0.0
 70
     128
 71
-2
 72
1
 73
4
  0
SEQEND
  0
POLYLINE
 8
Layer0
 66
     1
10
0.0
 20
 0.0
 30
0.0
70
    64
71
4
72
   1
  0
VERTEX
  8
Layer0
10
9.505480261188563
20
3.0
30
-39.561221072718894
 70
     192
  0
VERTEX
  8
Layer0
10
9.94858647696289
20
0.0
30
-38.710021951866594
 70
     192
  0
VERTEX
  8
Layer0
10
9.505480261188563
20
0.0
30
-39.561221072718894
 70
     192
  0
VERTEX
  8
Layer0
10
9.94858647696289
20
3.0
30
-38.710021951866594
 70
     192
  0
VERTEX
  8
Layer0
10
0.0
 20
 0.0
 30
0.0
 70
     128
 71
-1
 72
2
 73
3
  0
VERTEX
  8
Layer0
10
0.0
 20
 0.0
 30
0.0
 70
     128
 71
-2
 72
1
 73
4
  0
SEQEND
  0
POLYLINE
 8
Layer0
 66
     1
10
0.0
 20
 0.0
 30
0.0
70
    64
71
4
72
   1
  0
VERTEX
  8
Layer0
10
8.989873306738648
20
3.0
30
-40.3705618725804
 70
     192
  0
VERTEX
  8
Layer0
10
9.505480261188563
20
0.0
30
-39.561221072718894
 70
     192
  0
VERTEX
  8
Layer0
10
8.989873306738648
20
0.0
30
-40.3705618725804
 70
     192
  0
VERTEX
  8
Layer0
10
9.505480261188563
20
3.0
30
-39.561221072718894
 70
     192
  0
VERTEX
  8
Layer0
10
0.0
 20
 0.0
 30
0.0
 70
     128
 71
-1
 72
2
 73
3
  0
VERTEX
  8
Layer0
10
0.0
 20
 0.0
 30
0.0
 70
     128
 71
-2
 72
1
 73
4
  0
SEQEND
  0
POLYLINE
 8
Layer0
 66
     1
10
0.0
 20
 0.0
 30
0.0
70
    64
71
4
72
   1
  0
VERTEX
  8
Layer0
10
8.405689693868494
20
3.0
30
-41.13188477927083
 70
     192
  0
VERTEX
  8
Layer0
10
8.989873306738648
20
0.0
30
-40.3705618725804
 70
     192
  0
VERTEX
  8
Layer0
10
8.405689693868494
20
0.0
30
-41.13188477927083
 70
     192
  0
VERTEX
  8
Layer0
10
8.989873306738648
20
3.0
30
-40.3705618725804
 70
     192
  0
VERTEX
  8
Layer0
10
0.0
 20
 0.0
 30
0.0
 70
     128
 71
-1
 72
2
 73
3
  0
VERTEX
  8
Layer0
10
0.0
 20
 0.0
 30
0.0
 70
     128
 71
-2
 72
1
 73
4
  0
SEQEND
  0
POLYLINE
 8
Layer0
 66
     1
10
0.0
 20
 0.0
 30
0.0
70
    64
71
4
72
   1
  0
VERTEX
  8
Layer0
10
7.7573754126117604
20
3.0
30
-41.83939566577091
 70
     192
  0
VERTEX
  8
Layer0
10
8.405689693868494
20
0.0
30
-41.13188477927083
 70
     192
  0
VERTEX
  8
Layer0
10
7.7573754126117604
20
0.0
30
-41.83939566577091
 70
     192
  0
VERTEX
  8
Layer0
10
8.405689693868494
20
3.0
30
-41.13188477927083
 70
     192
  0
VERTEX
  8
Layer0
10
0.0
 20
 0.0
 30
0.0
 70
     128
 71
-1
 72
2
 73
3
  0
VERTEX
  8
Layer0
10
0.0
 20
 0.0
 30
0.0
 70
     128
 71
-2
 72
1
 73
4
  0
SEQEND
  0
POLYLINE
 8
Layer0
 66
     1
10
0.0
 20
 0.0
 30
0.0
70
    64
71
4
72
   1
  0
VERTEX
  8
Layer0
10
7.7573754126117604
20
3.0
30
-41.83939566577091
 70
     192
  0
VERTEX
  8
Layer0
10
7.049864526111669
20
0.0
30
-42.487709947027646
 70
     192
  0
VERTEX
  8
Layer0
10
7.049864526111669
20
3.0
30
-42.487709947027646
 70
     192
  0
VERTEX
  8
Layer0
10
7.7573754126117604
20
0.0
30
-41.83939566577091
 70
     192
  0
VERTEX
  8
Layer0
10
0.0
 20
 0.0
 30
0.0
 70
     128
 71
-1
 72
2
 73
3
  0
VERTEX
  8
Layer0
10
0.0
 20
 0.0
 30
0.0
 70
     128
 71
-2
 72
1
 73
4
  0
SEQEND
  0
POLYLINE
 8
Layer0
 66
     1
10
0.0
 20
 0.0
 30
0.0
70
    64
71
222
72
   1
  0
VERTEX
  8
Layer0
10
0.9379139897839779
20
0.0
30
-45.01936275172808
 70
     192
  0
VERTEX
  8
Layer0
10
-0.9795123506644995
20
0.0
30
-45.019362751728075
 70
     192
  0
VERTEX
  8
Layer0
10
-0.020799180440260998
20
0.0
30
-45.06122107271888
 70
     192
  0
VERTEX
  8
Layer0
10
1.8893307738959708
20
0.0
30
-44.89410635585317
 70
     192
  0
VERTEX
  8
Layer0
10
-1.9309291347764925
20
0.0
30
-44.89410635585317
 70
     192
  0
VERTEX
  8
Layer0
10
2.8262103156874647
20
0.0
30
-44.686405161898634
 70
     192
  0
VERTEX
  8
Layer0
10
-2.8678086765679858
20
0.0
30
-44.68640516189863
 70
     192
  0
VERTEX
  8
Layer0
10
3.741422396142091
20
0.0
30
-44.397839901363874
 70
     192
  0
VERTEX
  8
Layer0
10
-3.783020757022612
20
0.0
30
-44.397839901363874
 70
     192
  0
VERTEX
  8
Layer0
10
4.628001698707431
20
0.0
30
-44.03060673012203
 70
     192
  0
VERTEX
  8
Layer0
10
-4.669600059587949
20
0.0
30
-44.03060673012203
 70
     192
  0
VERTEX
  8
Layer0
10
5.479200819559735
20
0.0
30
-43.58750051434771
 70
     192
  0
VERTEX
  8
Layer0
10
-5.520799180440254
20
0.0
30
-43.5875005143477
 70
     192
  0
VERTEX
  8
Layer0
10
6.288541619421243
20
0.0
30
-43.071893559897795
 70
     192
  0
VERTEX
  8
Layer0
10
-6.330139980301761
20
0.0
30
-43.07189355989779
 70
     192
  0
VERTEX
  8
Layer0
10
7.049864526111669
20
0.0
30
-42.487709947027646
 70
     192
  0
VERTEX
  8
Layer0
10
-7.091462886992185
20
0.0
30
-42.48770994702764
 70
     192
  0
VERTEX
  8
Layer0
10
7.7573754126117604
20
0.0
30
-41.83939566577091
 70
     192
  0
VERTEX
  8
Layer0
10
-0.02079918044025088
20
0.0
30
-42.06122107271887
 70
     192
  0
VERTEX
  8
Layer0
10
0.7606176190609361
20
0.0
30
-41.99285596127381
 70
     192
  0
VERTEX
  8
Layer0
10
1.5182914645252594
20
0.0
30
-41.78983786625546
 70
     192
  0
VERTEX
  8
Layer0
10
8.405689693868494
20
0.0
30
-41.13188477927083
 70
     192
  0
VERTEX
  8
Layer0
10
2.2292008195597504
20
0.0
30
-41.458335389748854
 70
     192
  0
VERTEX
  8
Layer0
10
2.8717450631491777
20
0.0
30
-41.00842106675428
 70
     192
  0
VERTEX
  8
Layer0
10
8.989873306738648
20
0.0
30
-40.3705618725804
 70
     192
  0
VERTEX
  8
Layer0
10
3.4264008135951523
20
0.0
30
-40.4537653163083
 70
     192
  0
VERTEX
  8
Layer0
10
3.8763151365897253
20
0.0
30
-39.81122107271887
 70
     192
  0
VERTEX
  8
Layer0
10
9.505480261188563
20
0.0
30
-39.561221072718894
 70
     192
  0
VERTEX
  8
Layer0
10
4.207817613096339
20
0.0
30
-39.100311717684384
 70
     192
  0
VERTEX
  8
Layer0
10
9.94858647696289
20
0.0
30
-38.710021951866594
 70
     192
  0
VERTEX
  8
Layer0
10
4.410835708114688
20
0.0
30
-38.34263787222006
 70
     192
  0
VERTEX
  8
Layer0
10
10.315819648204734
20
0.0
30
-37.823442649301256
 70
     192
  0
VERTEX
  8
Layer0
10
4.479200819559752
20
0.0
30
-37.56122107271887
 70
     192
  0
VERTEX
  8
Layer0
10
10.604384908739494
20
0.0
30
-36.908230568846626
 70
     192
  0
VERTEX
  8
Layer0
10
4.4792008195597495
20
0.0
30
-32.56122107271887
 70
     192
  0
VERTEX
  8
Layer0
10
10.812086102694032
20
0.0
30
-35.971351027055135
 70
     192
  0
VERTEX
  8
Layer0
10
10.937342498568947
20
0.0
30
-35.019934242943144
 70
     192
  0
VERTEX
  8
Layer0
10
10.979200819559749
20
0.0
30
-34.06122107271891
 70
     192
  0
VERTEX
  8
Layer0
10
10.979200819559749
20
0.0
30
-22.06122107271888
 70
     192
  0
VERTEX
  8
Layer0
10
4.410835708114686
20
0.0
30
-31.779804273217685
 70
     192
  0
VERTEX
  8
Layer0
10
4.207817613096337
20
0.0
30
-31.022130427753364
 70
     192
  0
VERTEX
  8
Layer0
10
3.876315136589724
20
0.0
30
-30.31122107271887
 70
     192
  0
VERTEX
  8
Layer0
10
3.426400813595151
20
0.0
30
-29.668676829129442
 70
     192
  0
VERTEX
  8
Layer0
10
2.8717450631491777
20
0.0
30
-29.11402107868347
 70
     192
  0
VERTEX
  8
Layer0
10
2.2292008195597512
20
0.0
30
-28.6641067556889
 70
     192
  0
VERTEX
  8
Layer0
10
1.5182914645252612
20
0.0
30
-28.33260427918228
 70
     192
  0
VERTEX
  8
Layer0
10
0.7606176190609356
20
0.0
30
-28.129586184163934
 70
     192
  0
VERTEX
  8
Layer0
10
-0.020799180440250056
20
0.0
30
-28.061221072718865
 70
     192
  0
VERTEX
  8
Layer0
10
10.979200819559749
20
0.0
30
-16.061221072718872
 70
     192
  0
VERTEX
  8
Layer0
10
8.109727011779796
20
0.0
30
2.0813090659073
 70
     192
  0
VERTEX
  8
Layer0
10
7.979200819559746
20
0.0
30
2.0727539272811106
 70
     192
  0
VERTEX
  8
Layer0
10
8.238019864662265
20
0.0
30
2.1068281009920424
 70
     192
  0
VERTEX
  8
Layer0
10
8.361884251924835
20
0.0
30
2.1488743947698232
 70
     192
  0
VERTEX
  8
Layer0
10
8.479200819559745
20
0.0
30
2.2067285234966714
 70
     192
  0
VERTEX
  8
Layer0
10
8.587962248568465
20
0.0
30
2.2794005869898744
 70
     192
  0
VERTEX
  8
Layer0
10
8.686307600746293
20
0.0
30
2.3656471460945623
 70
     192
  0
VERTEX
  8
Layer0
10
8.77255415985098
20
0.0
30
2.4639924982723898
 70
     192
  0
VERTEX
  8
Layer0
10
8.845226223344184
20
0.0
30
2.5727539272811097
 70
     192
  0
VERTEX
  8
Layer0
10
8.903080352071033
20
0.0
30
2.6900704949160192
 70
     192
  0
VERTEX
  8
Layer0
10
8.945126645848813
20
0.0
30
2.813934882178589
 70
     192
  0
VERTEX
  8
Layer0
10
8.970645680933556
20
0.0
30
2.9422277350610577
 70
     192
  0
VERTEX
  8
Layer0
10
10.979200819559749
20
0.0
30
19.938779331065547
 70
     192
  0
VERTEX
  8
Layer0
10
8.979200819559745
20
0.0
30
3.07275392728111
 70
     192
  0
VERTEX
  8
Layer0
10
8.979200819559745
20
0.0
30
19.938779331065547
 70
     192
  0
VERTEX
  8
Layer0
10
-7.798973773492273
20
0.0
30
-41.8393956657709
 70
     192
  0
VERTEX
  8
Layer0
10
-0.802215979941438
20
0.0
30
-41.99285596127381
 70
     192
  0
VERTEX
  8
Layer0
10
-1.559889825405764
20
0.0
30
-41.78983786625546
 70
     192
  0
VERTEX
  8
Layer0
10
-8.44728805474901
20
0.0
30
-41.13188477927081
 70
     192
  0
VERTEX
  8
Layer0
10
-2.2707991804402545
20
0.0
30
-41.45833538974885
 70
     192
  0
VERTEX
  8
Layer0
10
-2.9133434240296814
20
0.0
30
-41.00842106675428
 70
     192
  0
VERTEX
  8
Layer0
10
-9.031471667619162
20
0.0
30
-40.37056187258038
 70
     192
  0
VERTEX
  8
Layer0
10
-3.4679991744756546
20
0.0
30
-40.4537653163083
 70
     192
  0
VERTEX
  8
Layer0
10
-3.917913497470227
20
0.0
30
-39.81122107271887
 70
     192
  0
VERTEX
  8
Layer0
10
-9.547078622069076
20
0.0
30
-39.56122107271888
 70
     192
  0
VERTEX
  8
Layer0
10
-4.249415973976842
20
0.0
30
-39.10031171768438
 70
     192
  0
VERTEX
  8
Layer0
10
-9.990184837843401
20
0.0
30
-38.71002195186657
 70
     192
  0
VERTEX
  8
Layer0
10
-4.45243406899519
20
0.0
30
-38.34263787222005
 70
     192
  0
VERTEX
  8
Layer0
10
-10.357418009085245
20
0.0
30
-37.823442649301235
 70
     192
  0
VERTEX
  8
Layer0
10
-4.520799180440254
20
0.0
30
-37.56122107271887
 70
     192
  0
VERTEX
  8
Layer0
10
-10.645983269620004
20
0.0
30
-36.908230568846605
 70
     192
  0
VERTEX
  8
Layer0
10
-4.520799180440251
20
0.0
30
-32.56122107271887
 70
     192
  0
VERTEX
  8
Layer0
10
-10.85368446357454
20
0.0
30
-35.971351027055114
 70
     192
  0
VERTEX
  8
Layer0
10
-10.978940859449452
20
0.0
30
-35.019934242943116
 70
     192
  0
VERTEX
  8
Layer0
10
-11.020799180440251
20
0.0
30
-34.06122107271888
 70
     192
  0
VERTEX
  8
Layer0
10
-9.01224404181406
20
0.0
30
2.942227735061059
 70
     192
  0
VERTEX
  8
Layer0
10
-11.020799180440251
20
0.0
30
19.938779331065547
 70
     192
  0
VERTEX
  8
Layer0
10
-4.452434068995188
20
0.0
30
-31.77980427321768
 70
     192
  0
VERTEX
  8
Layer0
10
-4.249415973976838
20
0.0
30
-31.022130427753357
 70
     192
  0
VERTEX
  8
Layer0
10
-3.9179134974702237
20
0.0
30
-30.31122107271887
 70
     192
  0
VERTEX
  8
Layer0
10
-3.467999174475652
20
0.0
30
-29.668676829129442
 70
     192
  0
VERTEX
  8
Layer0
10
-2.913343424029678
20
0.0
30
-29.11402107868347
 70
     192
  0
VERTEX
  8
Layer0
10
-8.986725006729317
20
0.0
30
2.8139348821785903
 70
     192
  0
VERTEX
  8
Layer0
10
-2.270799180440251
20
0.0
30
-28.6641067556889
 70
     192
  0
VERTEX
  8
Layer0
10
-1.5598898254057578
20
0.0
30
-28.33260427918228
 70
     192
  0
VERTEX
  8
Layer0
10
-0.8022159799414356
20
0.0
30
-28.129586184163934
 70
     192
  0
VERTEX
  8
Layer0
10
-8.944678712951537
20
0.0
30
2.690070494916021
 70
     192
  0
VERTEX
  8
Layer0
10
-8.886824584224689
20
0.0
30
2.572753927281111
 70
     192
  0
VERTEX
  8
Layer0
10
-8.814152520731486
20
0.0
30
2.4639924982723898
 70
     192
  0
VERTEX
  8
Layer0
10
-8.727905961626798
20
0.0
30
2.3656471460945623
 70
     192
  0
VERTEX
  8
Layer0
10
-8.629560609448971
20
0.0
30
2.2794005869898757
 70
     192
  0
VERTEX
  8
Layer0
10
-8.520799180440251
20
0.0
30
2.2067285234966714
 70
     192
  0
VERTEX
  8
Layer0
10
-8.40348261280534
20
0.0
30
2.1488743947698232
 70
     192
  0
VERTEX
  8
Layer0
10
-8.279618225542771
20
0.0
30
2.1068281009920424
 70
     192
  0
VERTEX
  8
Layer0
10
-8.151325372660303
20
0.0
30
2.0813090659073
 70
     192
  0
VERTEX
  8
Layer0
10
-8.02079918044025
20
0.0
30
2.0727539272811106
 70
     192
  0
VERTEX
  8
Layer0
10
-9.02079918044025
20
0.0
30
3.07275392728111
 70
     192
  0
VERTEX
  8
Layer0
10
-9.02079918044025
20
0.0
30
19.938779331065547
 70
     192
  0
VERTEX
  8
Layer0
10
7.848674627339693
20
0.0
30
2.0813090659073
 70
     192
  0
VERTEX
  8
Layer0
10
-7.890272988220199
20
0.0
30
2.0813090659073
 70
     192
  0
VERTEX
  8
Layer0
10
7.720381774457224
20
0.0
30
2.1068281009920424
 70
     192
  0
VERTEX
  8
Layer0
10
-7.761980135337731
20
0.0
30
2.1068281009920424
 70
     192
  0
VERTEX
  8
Layer0
10
7.5965173871946545
20
0.0
30
2.1488743947698232
 70
     192
  0
VERTEX
  8
Layer0
10
-7.638115748075161
20
0.0
30
2.1488743947698232
 70
     192
  0
VERTEX
  8
Layer0
10
7.479200819559745
20
0.0
30
2.2067285234966727
 70
     192
  0
VERTEX
  8
Layer0
10
-7.520799180440251
20
0.0
30
2.2067285234966714
 70
     192
  0
VERTEX
  8
Layer0
10
-7.412037751431529
20
0.0
30
2.2794005869898744
 70
     192
  0
VERTEX
  8
Layer0
10
7.370439390551025
20
0.0
30
2.2794005869898757
 70
     192
  0
VERTEX
  8
Layer0
10
-7.3136923992537035
20
0.0
30
2.3656471460945623
 70
     192
  0
VERTEX
  8
Layer0
10
7.272094038373198
20
0.0
30
2.365647146094564
 70
     192
  0
VERTEX
  8
Layer0
10
-7.227445840149016
20
0.0
30
2.4639924982723898
 70
     192
  0
VERTEX
  8
Layer0
10
7.18584747926851
20
0.0
30
2.4639924982723898
 70
     192
  0
VERTEX
  8
Layer0
10
7.113175415775307
20
0.0
30
2.572753927281111
 70
     192
  0
VERTEX
  8
Layer0
10
-7.154773776655813
20
0.0
30
2.5727539272811097
 70
     192
  0
VERTEX
  8
Layer0
10
-7.096919647928964
20
0.0
30
2.6900704949160192
 70
     192
  0
VERTEX
  8
Layer0
10
7.055321287048458
20
0.0
30
2.690070494916021
 70
     192
  0
VERTEX
  8
Layer0
10
-7.054873354151183
20
0.0
30
2.813934882178589
 70
     192
  0
VERTEX
  8
Layer0
10
7.013274993270678
20
0.0
30
2.8139348821785903
 70
     192
  0
VERTEX
  8
Layer0
10
-7.0293543190664405
20
0.0
30
2.9422277350610577
 70
     192
  0
VERTEX
  8
Layer0
10
6.987755958185935
20
0.0
30
2.942227735061059
 70
     192
  0
VERTEX
  8
Layer0
10
-7.0207991804402505
20
0.0
30
3.07275392728111
 70
     192
  0
VERTEX
  8
Layer0
10
6.979200819559746
20
0.0
30
3.07275392728111
 70
     192
  0
VERTEX
  8
Layer0
10
6.987755958185935
20
0.0
30
3.2032801195011618
 70
     192
  0
VERTEX
  8
Layer0
10
-7.0293543190664405
20
0.0
30
3.2032801195011618
 70
     192
  0
VERTEX
  8
Layer0
10
7.013274993270678
20
0.0
30
3.331572972383632
 70
     192
  0
VERTEX
  8
Layer0
10
-7.054873354151183
20
0.0
30
3.3315729723836305
 70
     192
  0
VERTEX
  8
Layer0
10
-7.096919647928964
20
0.0
30
3.4554373596462
 70
     192
  0
VERTEX
  8
Layer0
10
7.055321287048458
20
0.0
30
3.4554373596462
 70
     192
  0
VERTEX
  8
Layer0
10
7.113175415775307
20
0.0
30
3.5727539272811106
 70
     192
  0
VERTEX
  8
Layer0
10
-7.154773776655811
20
0.0
30
3.5727539272811093
 70
     192
  0
VERTEX
  8
Layer0
10
-7.227445840149015
20
0.0
30
3.6815153562898297
 70
     192
  0
VERTEX
  8
Layer0
10
7.185847479268511
20
0.0
30
3.681515356289831
 70
     192
  0
VERTEX
  8
Layer0
10
-7.313692399253703
20
0.0
30
3.779860708467658
 70
     192
  0
VERTEX
  8
Layer0
10
7.272094038373198
20
0.0
30
3.779860708467658
 70
     192
  0
VERTEX
  8
Layer0
10
7.370439390551025
20
0.0
30
3.8661072675723465
 70
     192
  0
VERTEX
  8
Layer0
10
-7.412037751431529
20
0.0
30
3.8661072675723465
 70
     192
  0
VERTEX
  8
Layer0
10
7.479200819559747
20
0.0
30
3.9387793310655494
 70
     192
  0
VERTEX
  8
Layer0
10
-7.52079918044025
20
0.0
30
3.9387793310655494
 70
     192
  0
VERTEX
  8
Layer0
10
2.8717450631491777
20
0.0
30
13.991579337030148
 70
     192
  0
VERTEX
  8
Layer0
10
3.4264008135951523
20
0.0
30
14.546235087476123
 70
     192
  0
VERTEX
  8
Layer0
10
3.8763151365897253
20
0.0
30
15.188779331065552
 70
     192
  0
VERTEX
  8
Layer0
10
7.479200819559747
20
0.0
30
22.438779331065568
 70
     192
  0
VERTEX
  8
Layer0
10
2.22920081955975
20
0.0
30
13.541665014035575
 70
     192
  0
VERTEX
  8
Layer0
10
1.5182914645252603
20
0.0
30
13.210162537528964
 70
     192
  0
VERTEX
  8
Layer0
10
0.7606176190609373
20
0.0
30
13.007144442510615
 70
     192
  0
VERTEX
  8
Layer0
10
-0.020799180440249334
20
0.0
30
12.93877933106555
 70
     192
  0
VERTEX
  8
Layer0
10
4.207817613096339
20
0.0
30
15.89968868610004
 70
     192
  0
VERTEX
  8
Layer0
10
4.410835708114687
20
0.0
30
16.65736253156436
 70
     192
  0
VERTEX
  8
Layer0
10
4.479200819559751
20
0.0
30
17.438779331065554
 70
     192
  0
VERTEX
  8
Layer0
10
4.479200819559751
20
0.0
30
22.43877933106555
 70
     192
  0
VERTEX
  8
Layer0
10
4.410835708114687
20
0.0
30
23.220196130566734
 70
     192
  0
VERTEX
  8
Layer0
10
7.450661055247835
20
0.0
30
23.092447401673
 70
     192
  0
VERTEX
  8
Layer0
10
7.365258967151304
20
0.0
30
23.741140663567542
 70
     192
  0
VERTEX
  8
Layer0
10
4.207817613096339
20
0.0
30
23.977869976031055
 70
     192
  0
VERTEX
  8
Layer0
10
7.223644516727753
20
0.0
30
24.37992216933447
 70
     192
  0
VERTEX
  8
Layer0
10
3.876315136589726
20
0.0
30
24.68877933106555
 70
     192
  0
VERTEX
  8
Layer0
10
7.026895475454055
20
0.0
30
25.003930406008074
 70
     192
  0
VERTEX
  8
Layer0
10
3.4264008135951527
20
0.0
30
25.331323574654977
 70
     192
  0
VERTEX
  8
Layer0
10
6.7765092223346155
20
0.0
30
25.608416294120808
 70
     192
  0
VERTEX
  8
Layer0
10
2.8717450631491794
20
0.0
30
25.88597932510095
 70
     192
  0
VERTEX
  8
Layer0
10
6.474391347943029
20
0.0
30
26.18877933106556
 70
     192
  0
VERTEX
  8
Layer0
10
2.229200819559753
20
0.0
30
26.335893648095524
 70
     192
  0
VERTEX
  8
Layer0
10
6.122841151727179
20
0.0
30
26.740602603698406
 70
     192
  0
VERTEX
  8
Layer0
10
1.518291464525263
20
0.0
30
26.66739612460214
 70
     192
  0
VERTEX
  8
Layer0
10
0.7606176190609375
20
0.0
30
26.870414219620486
 70
     192
  0
VERTEX
  8
Layer0
10
5.724534142952074
20
0.0
30
27.259686403714603
 70
     192
  0
VERTEX
  8
Layer0
10
-0.020799180440248234
20
0.0
30
26.938779331065554
 70
     192
  0
VERTEX
  8
Layer0
10
-5.766132503832585
20
0.0
30
27.259686403714593
 70
     192
  0
VERTEX
  8
Layer0
10
-5.324100039339355
20
0.0
30
27.742080189964653
 70
     192
  0
VERTEX
  8
Layer0
10
5.282501678458845
20
0.0
30
27.742080189964664
 70
     192
  0
VERTEX
  8
Layer0
10
-4.841706253089295
20
0.0
30
28.18411265445788
 70
     192
  0
VERTEX
  8
Layer0
10
4.800107892208784
20
0.0
30
28.184112654457888
 70
     192
  0
VERTEX
  8
Layer0
10
-4.322622453073096
20
0.0
30
28.582419663232983
 70
     192
  0
VERTEX
  8
Layer0
10
4.2810240921925855
20
0.0
30
28.58241966323299
 70
     192
  0
VERTEX
  8
Layer0
10
-3.7707991804402505
20
0.0
30
28.933969859448833
 70
     192
  0
VERTEX
  8
Layer0
10
3.72920081955974
20
0.0
30
28.93396985944884
 70
     192
  0
VERTEX
  8
Layer0
10
-3.1904361434954964
20
0.0
30
29.23608773384042
 70
     192
  0
VERTEX
  8
Layer0
10
3.1488377826149865
20
0.0
30
29.236087733840428
 70
     192
  0
VERTEX
  8
Layer0
10
-2.5859502553827682
20
0.0
30
29.48647398695986
 70
     192
  0
VERTEX
  8
Layer0
10
2.544351894502255
20
0.0
30
29.48647398695986
 70
     192
  0
VERTEX
  8
Layer0
10
1.9203436578286466
20
0.0
30
29.683223028233563
 70
     192
  0
VERTEX
  8
Layer0
10
-1.9619420187091594
20
0.0
30
29.683223028233563
 70
     192
  0
VERTEX
  8
Layer0
10
1.2815621520617193
20
0.0
30
29.824837478657106
 70
     192
  0
VERTEX
  8
Layer0
10
-1.3231605129422321
20
0.0
30
29.824837478657106
 70
     192
  0
VERTEX
  8
Layer0
10
0.6328688901671787
20
0.0
30
29.910239566753642
 70
     192
  0
VERTEX
  8
Layer0
10
-0.6744672510476919
20
0.0
30
29.910239566753642
 70
     192
  0
VERTEX
  8
Layer0
10
-0.02079918044025663
20
0.0
30
29.938779331065547
 70
     192
  0
VERTEX
  8
Layer0
10
-3.917913497470223
20
0.0
30
15.188779331065552
 70
     192
  0
VERTEX
  8
Layer0
10
-7.520799180440249
20
0.0
30
22.43877933106555
 70
     192
  0
VERTEX
  8
Layer0
10
-3.4679991744756506
20
0.0
30
14.546235087476123
 70
     192
  0
VERTEX
  8
Layer0
10
-2.9133434240296765
20
0.0
30
13.99157933703015
 70
     192
  0
VERTEX
  8
Layer0
10
-2.2707991804402496
20
0.0
30
13.541665014035576
 70
     192
  0
VERTEX
  8
Layer0
10
-1.559889825405759
20
0.0
30
13.210162537528964
 70
     192
  0
VERTEX
  8
Layer0
10
-0.8022159799414359
20
0.0
30
13.007144442510615
 70
     192
  0
VERTEX
  8
Layer0
10
-4.249415973976837
20
0.0
30
15.89968868610004
 70
     192
  0
VERTEX
  8
Layer0
10
-4.452434068995185
20
0.0
30
16.657362531564363
 70
     192
  0
VERTEX
  8
Layer0
10
-4.520799180440249
20
0.0
30
17.438779331065554
 70
     192
  0
VERTEX
  8
Layer0
10
-4.520799180440249
20
0.0
30
22.43877933106555
 70
     192
  0
VERTEX
  8
Layer0
10
-4.452434068995185
20
0.0
30
23.220196130566737
 70
     192
  0
VERTEX
  8
Layer0
10
-7.492259416128342
20
0.0
30
23.092447401672988
 70
     192
  0
VERTEX
  8
Layer0
10
-7.406857328031808
20
0.0
30
23.741140663567528
 70
     192
  0
VERTEX
  8
Layer0
10
-4.249415973976836
20
0.0
30
23.977869976031062
 70
     192
  0
VERTEX
  8
Layer0
10
-7.2652428776082605
20
0.0
30
24.379922169334453
 70
     192
  0
VERTEX
  8
Layer0
10
-3.9179134974702214
20
0.0
30
24.68877933106555
 70
     192
  0
VERTEX
  8
Layer0
10
-7.068493836334563
20
0.0
30
25.003930406008063
 70
     192
  0
VERTEX
  8
Layer0
10
-3.4679991744756498
20
0.0
30
25.331323574654977
 70
     192
  0
VERTEX
  8
Layer0
10
-6.818107583215124
20
0.0
30
25.608416294120797
 70
     192
  0
VERTEX
  8
Layer0
10
-2.913343424029676
20
0.0
30
25.88597932510095
 70
     192
  0
VERTEX
  8
Layer0
10
-6.515989708823539
20
0.0
30
26.188779331065547
 70
     192
  0
VERTEX
  8
Layer0
10
-2.270799180440249
20
0.0
30
26.335893648095524
 70
     192
  0
VERTEX
  8
Layer0
10
-6.164439512607688
20
0.0
30
26.74060260369839
 70
     192
  0
VERTEX
  8
Layer0
10
-1.559889825405756
20
0.0
30
26.66739612460214
 70
     192
  0
VERTEX
  8
Layer0
10
-0.8022159799414338
20
0.0
30
26.870414219620486
 70
     192
  0
VERTEX
  8
Layer0
10
0.0
 20
 0.0
 30
0.0
 70
     128
 71
-1
 72
2
 73
3
  0
VERTEX
  8
Layer0
10
0.0
 20
 0.0
 30
0.0
 70
     128
 71
-2
 72
1
 73
-4
  0
VERTEX
  8
Layer0
10
0.0
 20
 0.0
 30
0.0
 70
     128
 71
-2
 72
-4
 73
5
  0
VERTEX
  8
Layer0
10
0.0
 20
 0.0
 30
0.0
 70
     128
 71
-5
 72
4
 73
-6
  0
VERTEX
  8
Layer0
10
0.0
 20
 0.0
 30
0.0
 70
     128
 71
-5
 72
-6
 73
7
  0
VERTEX
  8
Layer0
10
0.0
 20
 0.0
 30
0.0
 70
     128
 71
-7
 72
6
 73
-8
  0
VERTEX
  8
Layer0
10
0.0
 20
 0.0
 30
0.0
 70
     128
 71
-7
 72
-8
 73
9
  0
VERTEX
  8
Layer0
10
0.0
 20
 0.0
 30
0.0
 70
     128
 71
-9
 72
8
 73
-10
  0
VERTEX
  8
Layer0
10
0.0
 20
 0.0
 30
0.0
 70
     128
 71
-9
 72
-10
 73
11
  0
VERTEX
  8
Layer0
10
0.0
 20
 0.0
 30
0.0
 70
     128
 71
-11
 72
10
 73
-12
  0
VERTEX
  8
Layer0
10
0.0
 20
 0.0
 30
0.0
 70
     128
 71
-11
 72
-12
 73
13
  0
VERTEX
  8
Layer0
10
0.0
 20
 0.0
 30
0.0
 70
     128
 71
-13
 72
12
 73
-14
  0
VERTEX
  8
Layer0
10
0.0
 20
 0.0
 30
0.0
 70
     128
 71
-13
 72
-14
 73
15
  0
VERTEX
  8
Layer0
10
0.0
 20
 0.0
 30
0.0
 70
     128
 71
-15
 72
14
 73
-16
  0
VERTEX
  8
Layer0
10
0.0
 20
 0.0
 30
0.0
 70
     128
 71
-15
 72
-16
 73
17
  0
VERTEX
  8
Layer0
10
0.0
 20
 0.0
 30
0.0
 70
     128
 71
-17
 72
16
 73
-18
  0
VERTEX
  8
Layer0
10
0.0
 20
 0.0
 30
0.0
 70
     128
 71
-17
 72
-18
 73
-19
  0
VERTEX
  8
Layer0
10
0.0
 20
 0.0
 30
0.0
 70
     128
 71
-19
 72
-18
 73
20
  0
VERTEX
  8
Layer0
10
0.0
 20
 0.0
 30
0.0
 70
     128
 71
-20
 72
-18
 73
21
  0
VERTEX
  8
Layer0
10
0.0
 20
 0.0
 30
0.0
 70
     128
 71
-21
 72
18
 73
-22
  0
VERTEX
  8
Layer0
10
0.0
 20
 0.0
 30
0.0
 70
     128
 71
-21
 72
-22
 73
23
  0
VERTEX
  8
Layer0
10
0.0
 20
 0.0
 30
0.0
 70
     128
 71
-23
 72
-22
 73
24
  0
VERTEX
  8
Layer0
10
0.0
 20
 0.0
 30
0.0
 70
     128
 71
-24
 72
22
 73
-25
  0
VERTEX
  8
Layer0
10
0.0
 20
 0.0
 30
0.0
 70
     128
 71
-24
 72
-25
 73
26
  0
VERTEX
  8
Layer0
10
0.0
 20
 0.0
 30
0.0
 70
     128
 71
-26
 72
-25
 73
27
  0
VERTEX
  8
Layer0
10
0.0
 20
 0.0
 30
0.0
 70
     128
 71
-27
 72
25
 73
-28
  0
VERTEX
  8
Layer0
10
0.0
 20
 0.0
 30
0.0
 70
     128
 71
-27
 72
-28
 73
29
  0
VERTEX
  8
Layer0
10
0.0
 20
 0.0
 30
0.0
 70
     128
 71
-29
 72
28
 73
-30
  0
VERTEX
  8
Layer0
10
0.0
 20
 0.0
 30
0.0
 70
     128
 71
-29
 72
-30
 73
31
  0
VERTEX
  8
Layer0
10
0.0
 20
 0.0
 30
0.0
 70
     128
 71
-31
 72
30
 73
-32
  0
VERTEX
  8
Layer0
10
0.0
 20
 0.0
 30
0.0
 70
     128
 71
-31
 72
-32
 73
33
  0
VERTEX
  8
Layer0
10
0.0
 20
 0.0
 30
0.0
 70
     128
 71
-33
 72
32
 73
-34
  0
VERTEX
  8
Layer0
10
0.0
 20
 0.0
 30
0.0
 70
     128
 71
-33
 72
-34
 73
35
  0
VERTEX
  8
Layer0
10
0.0
 20
 0.0
 30
0.0
 70
     128
 71
-35
 72
34
 73
-36
  0
VERTEX
  8
Layer0
10
0.0
 20
 0.0
 30
0.0
 70
     128
 71
-35
 72
36
 73
-37
  0
VERTEX
  8
Layer0
10
0.0
 20
 0.0
 30
0.0
 70
     128
 71
-35
 72
37
 73
-38
  0
VERTEX
  8
Layer0
10
0.0
 20
 0.0
 30
0.0
 70
     128
 71
-35
 72
38
 73
-39
  0
VERTEX
  8
Layer0
10
0.0
 20
 0.0
 30
0.0
 70
     128
 71
-35
 72
-39
 73
40
  0
VERTEX
  8
Layer0
10
0.0
 20
 0.0
 30
0.0
 70
     128
 71
-40
 72
-39
 73
41
  0
VERTEX
  8
Layer0
10
0.0
 20
 0.0
 30
0.0
 70
     128
 71
-41
 72
-39
 73
42
  0
VERTEX
  8
Layer0
10
0.0
 20
 0.0
 30
0.0
 70
     128
 71
-42
 72
-39
 73
43
  0
VERTEX
  8
Layer0
10
0.0
 20
 0.0
 30
0.0
 70
     128
 71
-43
 72
-39
 73
44
  0
VERTEX
  8
Layer0
10
0.0
 20
 0.0
 30
0.0
 70
     128
 71
-44
 72
-39
 73
45
  0
VERTEX
  8
Layer0
10
0.0
 20
 0.0
 30
0.0
 70
     128
 71
-45
 72
-39
 73
46
  0
VERTEX
  8
Layer0
10
0.0
 20
 0.0
 30
0.0
 70
     128
 71
-46
 72
-39
 73
47
  0
VERTEX
  8
Layer0
10
0.0
 20
 0.0
 30
0.0
 70
     128
 71
-47
 72
-39
 73
48
  0
VERTEX
  8
Layer0
10
0.0
 20
 0.0
 30
0.0
 70
     128
 71
-49
 72
50
 73
-51
  0
VERTEX
  8
Layer0
10
0.0
 20
 0.0
 30
0.0
 70
     128
 71
-50
 72
-49
 73
52
  0
VERTEX
  8
Layer0
10
0.0
 20
 0.0
 30
0.0
 70
     128
 71
-52
 72
-49
 73
53
  0
VERTEX
  8
Layer0
10
0.0
 20
 0.0
 30
0.0
 70
     128
 71
-53
 72
-49
 73
54
  0
VERTEX
  8
Layer0
10
0.0
 20
 0.0
 30
0.0
 70
     128
 71
-54
 72
-49
 73
55
  0
VERTEX
  8
Layer0
10
0.0
 20
 0.0
 30
0.0
 70
     128
 71
-55
 72
-49
 73
56
  0
VERTEX
  8
Layer0
10
0.0
 20
 0.0
 30
0.0
 70
     128
 71
-56
 72
-49
 73
57
  0
VERTEX
  8
Layer0
10
0.0
 20
 0.0
 30
0.0
 70
     128
 71
-57
 72
-49
 73
58
  0
VERTEX
  8
Layer0
10
0.0
 20
 0.0
 30
0.0
 70
     128
 71
-58
 72
-49
 73
59
  0
VERTEX
  8
Layer0
10
0.0
 20
 0.0
 30
0.0
 70
     128
 71
-59
 72
-49
 73
60
  0
VERTEX
  8
Layer0
10
0.0
 20
 0.0
 30
0.0
 70
     128
 71
-60
 72
-49
 73
61
  0
VERTEX
  8
Layer0
10
0.0
 20
 0.0
 30
0.0
 70
     128
 71
-61
 72
49
 73
-62
  0
VERTEX
  8
Layer0
10
0.0
 20
 0.0
 30
0.0
 70
     128
 71
-61
 72
-62
 73
63
  0
VERTEX
  8
Layer0
10
0.0
 20
 0.0
 30
0.0
 70
     128
 71
-63
 72
62
 73
64
  0
VERTEX
  8
Layer0
10
0.0
 20
 0.0
 30
0.0
 70
     128
 71
-19
 72
65
 73
-17
  0
VERTEX
  8
Layer0
10
0.0
 20
 0.0
 30
0.0
 70
     128
 71
-65
 72
19
 73
-66
  0
VERTEX
  8
Layer0
10
0.0
 20
 0.0
 30
0.0
 70
     128
 71
-65
 72
66
 73
-67
  0
VERTEX
  8
Layer0
10
0.0
 20
 0.0
 30
0.0
 70
     128
 71
-65
 72
-67
 73
68
  0
VERTEX
  8
Layer0
10
0.0
 20
 0.0
 30
0.0
 70
     128
 71
-68
 72
67
 73
-69
  0
VERTEX
  8
Layer0
10
0.0
 20
 0.0
 30
0.0
 70
     128
 71
-68
 72
69
 73
-70
  0
VERTEX
  8
Layer0
10
0.0
 20
 0.0
 30
0.0
 70
     128
 71
-68
 72
-70
 73
71
  0
VERTEX
  8
Layer0
10
0.0
 20
 0.0
 30
0.0
 70
     128
 71
-71
 72
70
 73
-72
  0
VERTEX
  8
Layer0
10
0.0
 20
 0.0
 30
0.0
 70
     128
 71
-71
 72
72
 73
-73
  0
VERTEX
  8
Layer0
10
0.0
 20
 0.0
 30
0.0
 70
     128
 71
-71
 72
-73
 73
74
  0
VERTEX
  8
Layer0
10
0.0
 20
 0.0
 30
0.0
 70
     128
 71
-74
 72
73
 73
-75
  0
VERTEX
  8
Layer0
10
0.0
 20
 0.0
 30
0.0
 70
     128
 71
-74
 72
-75
 73
76
  0
VERTEX
  8
Layer0
10
0.0
 20
 0.0
 30
0.0
 70
     128
 71
-76
 72
75
 73
-77
  0
VERTEX
  8
Layer0
10
0.0
 20
 0.0
 30
0.0
 70
     128
 71
-76
 72
-77
 73
78
  0
VERTEX
  8
Layer0
10
0.0
 20
 0.0
 30
0.0
 70
     128
 71
-78
 72
77
 73
-79
  0
VERTEX
  8
Layer0
10
0.0
 20
 0.0
 30
0.0
 70
     128
 71
-78
 72
-79
 73
80
  0
VERTEX
  8
Layer0
10
0.0
 20
 0.0
 30
0.0
 70
     128
 71
-80
 72
79
 73
-81
  0
VERTEX
  8
Layer0
10
0.0
 20
 0.0
 30
0.0
 70
     128
 71
-80
 72
-81
 73
82
  0
VERTEX
  8
Layer0
10
0.0
 20
 0.0
 30
0.0
 70
     128
 71
-82
 72
-81
 73
83
  0
VERTEX
  8
Layer0
10
0.0
 20
 0.0
 30
0.0
 70
     128
 71
-83
 72
-81
 73
84
  0
VERTEX
  8
Layer0
10
0.0
 20
 0.0
 30
0.0
 70
     128
 71
-84
 72
-81
 73
-85
  0
VERTEX
  8
Layer0
10
0.0
 20
 0.0
 30
0.0
 70
     128
 71
-84
 72
-85
 73
86
  0
VERTEX
  8
Layer0
10
0.0
 20
 0.0
 30
0.0
 70
     128
 71
-85
 72
81
 73
-87
  0
VERTEX
  8
Layer0
10
0.0
 20
 0.0
 30
0.0
 70
     128
 71
-85
 72
87
 73
-88
  0
VERTEX
  8
Layer0
10
0.0
 20
 0.0
 30
0.0
 70
     128
 71
-85
 72
88
 73
-89
  0
VERTEX
  8
Layer0
10
0.0
 20
 0.0
 30
0.0
 70
     128
 71
-85
 72
89
 73
-90
  0
VERTEX
  8
Layer0
10
0.0
 20
 0.0
 30
0.0
 70
     128
 71
-85
 72
90
 73
-91
  0
VERTEX
  8
Layer0
10
0.0
 20
 0.0
 30
0.0
 70
     128
 71
-85
 72
-91
 73
92
  0
VERTEX
  8
Layer0
10
0.0
 20
 0.0
 30
0.0
 70
     128
 71
-92
 72
91
 73
-93
  0
VERTEX
  8
Layer0
10
0.0
 20
 0.0
 30
0.0
 70
     128
 71
-92
 72
93
 73
-94
  0
VERTEX
  8
Layer0
10
0.0
 20
 0.0
 30
0.0
 70
     128
 71
-92
 72
94
 73
-95
  0
VERTEX
  8
Layer0
10
0.0
 20
 0.0
 30
0.0
 70
     128
 71
-92
 72
95
 73
-48
  0
VERTEX
  8
Layer0
10
0.0
 20
 0.0
 30
0.0
 70
     128
 71
-92
 72
-48
 73
96
  0
VERTEX
  8
Layer0
10
0.0
 20
 0.0
 30
0.0
 70
     128
 71
-96
 72
-48
 73
97
  0
VERTEX
  8
Layer0
10
0.0
 20
 0.0
 30
0.0
 70
     128
 71
-97
 72
-48
 73
98
  0
VERTEX
  8
Layer0
10
0.0
 20
 0.0
 30
0.0
 70
     128
 71
-98
 72
-48
 73
-39
  0
VERTEX
  8
Layer0
10
0.0
 20
 0.0
 30
0.0
 70
     128
 71
-98
 72
-39
 73
99
  0
VERTEX
  8
Layer0
10
0.0
 20
 0.0
 30
0.0
 70
     128
 71
-99
 72
39
 73
-49
  0
VERTEX
  8
Layer0
10
0.0
 20
 0.0
 30
0.0
 70
     128
 71
-99
 72
-49
 73
100
  0
VERTEX
  8
Layer0
10
0.0
 20
 0.0
 30
0.0
 70
     128
 71
-100
 72
-49
 73
101
  0
VERTEX
  8
Layer0
10
0.0
 20
 0.0
 30
0.0
 70
     128
 71
-101
 72
-49
 73
102
  0
VERTEX
  8
Layer0
10
0.0
 20
 0.0
 30
0.0
 70
     128
 71
-102
 72
-49
 73
103
  0
VERTEX
  8
Layer0
10
0.0
 20
 0.0
 30
0.0
 70
     128
 71
-103
 72
-49
 73
104
  0
VERTEX
  8
Layer0
10
0.0
 20
 0.0
 30
0.0
 70
     128
 71
-104
 72
-49
 73
105
  0
VERTEX
  8
Layer0
10
0.0
 20
 0.0
 30
0.0
 70
     128
 71
-105
 72
-49
 73
-51
  0
VERTEX
  8
Layer0
10
0.0
 20
 0.0
 30
0.0
 70
     128
 71
-86
 72
85
 73
-106
  0
VERTEX
  8
Layer0
10
0.0
 20
 0.0
 30
0.0
 70
     128
 71
-86
 72
106
 73
107
  0
VERTEX
  8
Layer0
10
0.0
 20
 0.0
 30
0.0
 70
     128
 71
-108
 72
-105
 73
51
  0
VERTEX
  8
Layer0
10
0.0
 20
 0.0
 30
0.0
 70
     128
 71
-105
 72
-108
 73
109
  0
VERTEX
  8
Layer0
10
0.0
 20
 0.0
 30
0.0
 70
     128
 71
-109
 72
108
 73
-110
  0
VERTEX
  8
Layer0
10
0.0
 20
 0.0
 30
0.0
 70
     128
 71
-109
 72
-110
 73
111
  0
VERTEX
  8
Layer0
10
0.0
 20
 0.0
 30
0.0
 70
     128
 71
-111
 72
110
 73
-112
  0
VERTEX
  8
Layer0
10
0.0
 20
 0.0
 30
0.0
 70
     128
 71
-111
 72
-112
 73
113
  0
VERTEX
  8
Layer0
10
0.0
 20
 0.0
 30
0.0
 70
     128
 71
-113
 72
112
 73
-114
  0
VERTEX
  8
Layer0
10
0.0
 20
 0.0
 30
0.0
 70
     128
 71
-113
 72
-114
 73
115
  0
VERTEX
  8
Layer0
10
0.0
 20
 0.0
 30
0.0
 70
     128
 71
-115
 72
-114
 73
116
  0
VERTEX
  8
Layer0
10
0.0
 20
 0.0
 30
0.0
 70
     128
 71
-116
 72
114
 73
-117
  0
VERTEX
  8
Layer0
10
0.0
 20
 0.0
 30
0.0
 70
     128
 71
-116
 72
-117
 73
118
  0
VERTEX
  8
Layer0
10
0.0
 20
 0.0
 30
0.0
 70
     128
 71
-118
 72
117
 73
-119
  0
VERTEX
  8
Layer0
10
0.0
 20
 0.0
 30
0.0
 70
     128
 71
-118
 72
-119
 73
120
  0
VERTEX
  8
Layer0
10
0.0
 20
 0.0
 30
0.0
 70
     128
 71
-120
 72
119
 73
-121
  0
VERTEX
  8
Layer0
10
0.0
 20
 0.0
 30
0.0
 70
     128
 71
-120
 72
121
 73
-122
  0
VERTEX
  8
Layer0
10
0.0
 20
 0.0
 30
0.0
 70
     128
 71
-120
 72
-122
 73
123
  0
VERTEX
  8
Layer0
10
0.0
 20
 0.0
 30
0.0
 70
     128
 71
-123
 72
-122
 73
124
  0
VERTEX
  8
Layer0
10
0.0
 20
 0.0
 30
0.0
 70
     128
 71
-124
 72
122
 73
-125
  0
VERTEX
  8
Layer0
10
0.0
 20
 0.0
 30
0.0
 70
     128
 71
-124
 72
-125
 73
126
  0
VERTEX
  8
Layer0
10
0.0
 20
 0.0
 30
0.0
 70
     128
 71
-126
 72
125
 73
-127
  0
VERTEX
  8
Layer0
10
0.0
 20
 0.0
 30
0.0
 70
     128
 71
-126
 72
-127
 73
128
  0
VERTEX
  8
Layer0
10
0.0
 20
 0.0
 30
0.0
 70
     128
 71
-128
 72
127
 73
-129
  0
VERTEX
  8
Layer0
10
0.0
 20
 0.0
 30
0.0
 70
     128
 71
-128
 72
-129
 73
130
  0
VERTEX
  8
Layer0
10
0.0
 20
 0.0
 30
0.0
 70
     128
 71
-130
 72
129
 73
-131
  0
VERTEX
  8
Layer0
10
0.0
 20
 0.0
 30
0.0
 70
     128
 71
-130
 72
131
 73
-132
  0
VERTEX
  8
Layer0
10
0.0
 20
 0.0
 30
0.0
 70
     128
 71
-130
 72
-132
 73
133
  0
VERTEX
  8
Layer0
10
0.0
 20
 0.0
 30
0.0
 70
     128
 71
-133
 72
132
 73
-134
  0
VERTEX
  8
Layer0
10
0.0
 20
 0.0
 30
0.0
 70
     128
 71
-133
 72
-134
 73
135
  0
VERTEX
  8
Layer0
10
0.0
 20
 0.0
 30
0.0
 70
     128
 71
-135
 72
-134
 73
136
  0
VERTEX
  8
Layer0
10
0.0
 20
 0.0
 30
0.0
 70
     128
 71
-136
 72
134
 73
-137
  0
VERTEX
  8
Layer0
10
0.0
 20
 0.0
 30
0.0
 70
     128
 71
-136
 72
137
 73
-138
  0
VERTEX
  8
Layer0
10
0.0
 20
 0.0
 30
0.0
 70
     128
 71
-136
 72
-138
 73
139
  0
VERTEX
  8
Layer0
10
0.0
 20
 0.0
 30
0.0
 70
     128
 71
-139
 72
-138
 73
140
  0
VERTEX
  8
Layer0
10
0.0
 20
 0.0
 30
0.0
 70
     128
 71
-140
 72
138
 73
-141
  0
VERTEX
  8
Layer0
10
0.0
 20
 0.0
 30
0.0
 70
     128
 71
-140
 72
-141
 73
142
  0
VERTEX
  8
Layer0
10
0.0
 20
 0.0
 30
0.0
 70
     128
 71
-142
 72
141
 73
-143
  0
VERTEX
  8
Layer0
10
0.0
 20
 0.0
 30
0.0
 70
     128
 71
-142
 72
143
 73
-144
  0
VERTEX
  8
Layer0
10
0.0
 20
 0.0
 30
0.0
 70
     128
 71
-142
 72
-144
 73
145
  0
VERTEX
  8
Layer0
10
0.0
 20
 0.0
 30
0.0
 70
     128
 71
-145
 72
144
 73
-146
  0
VERTEX
  8
Layer0
10
0.0
 20
 0.0
 30
0.0
 70
     128
 71
-145
 72
-146
 73
147
  0
VERTEX
  8
Layer0
10
0.0
 20
 0.0
 30
0.0
 70
     128
 71
-147
 72
-146
 73
-148
  0
VERTEX
  8
Layer0
10
0.0
 20
 0.0
 30
0.0
 70
     128
 71
-148
 72
-146
 73
149
  0
VERTEX
  8
Layer0
10
0.0
 20
 0.0
 30
0.0
 70
     128
 71
-149
 72
-146
 73
150
  0
VERTEX
  8
Layer0
10
0.0
 20
 0.0
 30
0.0
 70
     128
 71
-150
 72
146
 73
-151
  0
VERTEX
  8
Layer0
10
0.0
 20
 0.0
 30
0.0
 70
     128
 71
-147
 72
148
 73
-152
  0
VERTEX
  8
Layer0
10
0.0
 20
 0.0
 30
0.0
 70
     128
 71
-147
 72
152
 73
-153
  0
VERTEX
  8
Layer0
10
0.0
 20
 0.0
 30
0.0
 70
     128
 71
-147
 72
153
 73
-154
  0
VERTEX
  8
Layer0
10
0.0
 20
 0.0
 30
0.0
 70
     128
 71
-147
 72
154
 73
-155
  0
VERTEX
  8
Layer0
10
0.0
 20
 0.0
 30
0.0
 70
     128
 71
-150
 72
-151
 73
156
  0
VERTEX
  8
Layer0
10
0.0
 20
 0.0
 30
0.0
 70
     128
 71
-156
 72
-151
 73
157
  0
VERTEX
  8
Layer0
10
0.0
 20
 0.0
 30
0.0
 70
     128
 71
-157
 72
-151
 73
158
  0
VERTEX
  8
Layer0
10
0.0
 20
 0.0
 30
0.0
 70
     128
 71
-158
 72
-151
 73
159
  0
VERTEX
  8
Layer0
10
0.0
 20
 0.0
 30
0.0
 70
     128
 71
-159
 72
-151
 73
160
  0
VERTEX
  8
Layer0
10
0.0
 20
 0.0
 30
0.0
 70
     128
 71
-160
 72
151
 73
-161
  0
VERTEX
  8
Layer0
10
0.0
 20
 0.0
 30
0.0
 70
     128
 71
-160
 72
161
 73
-162
  0
VERTEX
  8
Layer0
10
0.0
 20
 0.0
 30
0.0
 70
     128
 71
-160
 72
-162
 73
163
  0
VERTEX
  8
Layer0
10
0.0
 20
 0.0
 30
0.0
 70
     128
 71
-163
 72
162
 73
-164
  0
VERTEX
  8
Layer0
10
0.0
 20
 0.0
 30
0.0
 70
     128
 71
-163
 72
-164
 73
165
  0
VERTEX
  8
Layer0
10
0.0
 20
 0.0
 30
0.0
 70
     128
 71
-165
 72
164
 73
-166
  0
VERTEX
  8
Layer0
10
0.0
 20
 0.0
 30
0.0
 70
     128
 71
-165
 72
-166
 73
167
  0
VERTEX
  8
Layer0
10
0.0
 20
 0.0
 30
0.0
 70
     128
 71
-167
 72
166
 73
-168
  0
VERTEX
  8
Layer0
10
0.0
 20
 0.0
 30
0.0
 70
     128
 71
-167
 72
-168
 73
169
  0
VERTEX
  8
Layer0
10
0.0
 20
 0.0
 30
0.0
 70
     128
 71
-169
 72
168
 73
-170
  0
VERTEX
  8
Layer0
10
0.0
 20
 0.0
 30
0.0
 70
     128
 71
-169
 72
-170
 73
171
  0
VERTEX
  8
Layer0
10
0.0
 20
 0.0
 30
0.0
 70
     128
 71
-171
 72
170
 73
-172
  0
VERTEX
  8
Layer0
10
0.0
 20
 0.0
 30
0.0
 70
     128
 71
-171
 72
-172
 73
173
  0
VERTEX
  8
Layer0
10
0.0
 20
 0.0
 30
0.0
 70
     128
 71
-173
 72
-172
 73
174
  0
VERTEX
  8
Layer0
10
0.0
 20
 0.0
 30
0.0
 70
     128
 71
-174
 72
172
 73
-175
  0
VERTEX
  8
Layer0
10
0.0
 20
 0.0
 30
0.0
 70
     128
 71
-174
 72
-175
 73
176
  0
VERTEX
  8
Layer0
10
0.0
 20
 0.0
 30
0.0
 70
     128
 71
-176
 72
-175
 73
-177
  0
VERTEX
  8
Layer0
10
0.0
 20
 0.0
 30
0.0
 70
     128
 71
-177
 72
-175
 73
178
  0
VERTEX
  8
Layer0
10
0.0
 20
 0.0
 30
0.0
 70
     128
 71
-178
 72
175
 73
-179
  0
VERTEX
  8
Layer0
10
0.0
 20
 0.0
 30
0.0
 70
     128
 71
-178
 72
-179
 73
180
  0
VERTEX
  8
Layer0
10
0.0
 20
 0.0
 30
0.0
 70
     128
 71
-180
 72
179
 73
-181
  0
VERTEX
  8
Layer0
10
0.0
 20
 0.0
 30
0.0
 70
     128
 71
-180
 72
-181
 73
182
  0
VERTEX
  8
Layer0
10
0.0
 20
 0.0
 30
0.0
 70
     128
 71
-182
 72
181
 73
-183
  0
VERTEX
  8
Layer0
10
0.0
 20
 0.0
 30
0.0
 70
     128
 71
-182
 72
-183
 73
184
  0
VERTEX
  8
Layer0
10
0.0
 20
 0.0
 30
0.0
 70
     128
 71
-184
 72
183
 73
-185
  0
VERTEX
  8
Layer0
10
0.0
 20
 0.0
 30
0.0
 70
     128
 71
-184
 72
-185
 73
186
  0
VERTEX
  8
Layer0
10
0.0
 20
 0.0
 30
0.0
 70
     128
 71
-186
 72
185
 73
-187
  0
VERTEX
  8
Layer0
10
0.0
 20
 0.0
 30
0.0
 70
     128
 71
-186
 72
-187
 73
188
  0
VERTEX
  8
Layer0
10
0.0
 20
 0.0
 30
0.0
 70
     128
 71
-188
 72
187
 73
-189
  0
VERTEX
  8
Layer0
10
0.0
 20
 0.0
 30
0.0
 70
     128
 71
-188
 72
189
 73
-190
  0
VERTEX
  8
Layer0
10
0.0
 20
 0.0
 30
0.0
 70
     128
 71
-188
 72
-190
 73
191
  0
VERTEX
  8
Layer0
10
0.0
 20
 0.0
 30
0.0
 70
     128
 71
-191
 72
190
 73
-192
  0
VERTEX
  8
Layer0
10
0.0
 20
 0.0
 30
0.0
 70
     128
 71
-191
 72
-192
 73
193
  0
VERTEX
  8
Layer0
10
0.0
 20
 0.0
 30
0.0
 70
     128
 71
-193
 72
192
 73
-194
  0
VERTEX
  8
Layer0
10
0.0
 20
 0.0
 30
0.0
 70
     128
 71
-193
 72
-194
 73
195
  0
VERTEX
  8
Layer0
10
0.0
 20
 0.0
 30
0.0
 70
     128
 71
-195
 72
194
 73
196
  0
VERTEX
  8
Layer0
10
0.0
 20
 0.0
 30
0.0
 70
     128
 71
-147
 72
-197
 73
198
  0
VERTEX
  8
Layer0
10
0.0
 20
 0.0
 30
0.0
 70
     128
 71
-197
 72
-147
 73
199
  0
VERTEX
  8
Layer0
10
0.0
 20
 0.0
 30
0.0
 70
     128
 71
-199
 72
-147
 73
200
  0
VERTEX
  8
Layer0
10
0.0
 20
 0.0
 30
0.0
 70
     128
 71
-200
 72
-147
 73
201
  0
VERTEX
  8
Layer0
10
0.0
 20
 0.0
 30
0.0
 70
     128
 71
-201
 72
-147
 73
202
  0
VERTEX
  8
Layer0
10
0.0
 20
 0.0
 30
0.0
 70
     128
 71
-202
 72
-147
 73
203
  0
VERTEX
  8
Layer0
10
0.0
 20
 0.0
 30
0.0
 70
     128
 71
-203
 72
-147
 73
155
  0
VERTEX
  8
Layer0
10
0.0
 20
 0.0
 30
0.0
 70
     128
 71
-198
 72
197
 73
-204
  0
VERTEX
  8
Layer0
10
0.0
 20
 0.0
 30
0.0
 70
     128
 71
-198
 72
204
 73
-205
  0
VERTEX
  8
Layer0
10
0.0
 20
 0.0
 30
0.0
 70
     128
 71
-198
 72
205
 73
-206
  0
VERTEX
  8
Layer0
10
0.0
 20
 0.0
 30
0.0
 70
     128
 71
-198
 72
206
 73
-207
  0
VERTEX
  8
Layer0
10
0.0
 20
 0.0
 30
0.0
 70
     128
 71
-198
 72
207
 73
-208
  0
VERTEX
  8
Layer0
10
0.0
 20
 0.0
 30
0.0
 70
     128
 71
-198
 72
-208
 73
209
  0
VERTEX
  8
Layer0
10
0.0
 20
 0.0
 30
0.0
 70
     128
 71
-209
 72
-208
 73
210
  0
VERTEX
  8
Layer0
10
0.0
 20
 0.0
 30
0.0
 70
     128
 71
-210
 72
208
 73
-211
  0
VERTEX
  8
Layer0
10
0.0
 20
 0.0
 30
0.0
 70
     128
 71
-210
 72
-211
 73
212
  0
VERTEX
  8
Layer0
10
0.0
 20
 0.0
 30
0.0
 70
     128
 71
-212
 72
211
 73
-213
  0
VERTEX
  8
Layer0
10
0.0
 20
 0.0
 30
0.0
 70
     128
 71
-212
 72
-213
 73
214
  0
VERTEX
  8
Layer0
10
0.0
 20
 0.0
 30
0.0
 70
     128
 71
-214
 72
213
 73
-215
  0
VERTEX
  8
Layer0
10
0.0
 20
 0.0
 30
0.0
 70
     128
 71
-214
 72
-215
 73
216
  0
VERTEX
  8
Layer0
10
0.0
 20
 0.0
 30
0.0
 70
     128
 71
-216
 72
215
 73
-217
  0
VERTEX
  8
Layer0
10
0.0
 20
 0.0
 30
0.0
 70
     128
 71
-216
 72
-217
 73
218
  0
VERTEX
  8
Layer0
10
0.0
 20
 0.0
 30
0.0
 70
     128
 71
-218
 72
217
 73
-219
  0
VERTEX
  8
Layer0
10
0.0
 20
 0.0
 30
0.0
 70
     128
 71
-218
 72
-219
 73
220
  0
VERTEX
  8
Layer0
10
0.0
 20
 0.0
 30
0.0
 70
     128
 71
-220
 72
219
 73
-221
  0
VERTEX
  8
Layer0
10
0.0
 20
 0.0
 30
0.0
 70
     128
 71
-220
 72
221
 73
-222
  0
VERTEX
  8
Layer0
10
0.0
 20
 0.0
 30
0.0
 70
     128
 71
-220
 72
-222
 73
177
  0
VERTEX
  8
Layer0
10
0.0
 20
 0.0
 30
0.0
 70
     128
 71
-177
 72
222
 73
-176
  0
SEQEND
  0
POLYLINE
 8
Layer0
 66
     1
10
0.0
 20
 0.0
 30
0.0
70
    64
71
4
72
   1
  0
VERTEX
  8
Layer0
10
10.979200819559749
20
3.0
30
-22.06122107271888
 70
     192
  0
VERTEX
  8
Layer0
10
10.979200819559749
20
0.0
30
-16.061221072718872
 70
     192
  0
VERTEX
  8
Layer0
10
10.979200819559749
20
0.0
30
-22.06122107271888
 70
     192
  0
VERTEX
  8
Layer0
10
10.979200819559749
20
3.0
30
-16.061221072718872
 70
     192
  0
VERTEX
  8
Layer0
10
0.0
 20
 0.0
 30
0.0
 70
     128
 71
-1
 72
2
 73
3
  0
VERTEX
  8
Layer0
10
0.0
 20
 0.0
 30
0.0
 70
     128
 71
-2
 72
1
 73
4
  0
SEQEND
  0
POLYLINE
 8
Layer0
 66
     1
10
0.0
 20
 0.0
 30
0.0
70
    64
71
4
72
   1
  0
VERTEX
  8
Layer0
10
-7.520799180440249
20
3.0
30
22.43877933106555
 70
     192
  0
VERTEX
  8
Layer0
10
-7.52079918044025
20
0.0
30
3.9387793310655494
 70
     192
  0
VERTEX
  8
Layer0
10
-7.520799180440249
20
0.0
30
22.43877933106555
 70
     192
  0
VERTEX
  8
Layer0
10
-7.52079918044025
20
3.0
30
3.9387793310655494
 70
     192
  0
VERTEX
  8
Layer0
10
0.0
 20
 0.0
 30
0.0
 70
     128
 71
-1
 72
2
 73
3
  0
VERTEX
  8
Layer0
10
0.0
 20
 0.0
 30
0.0
 70
     128
 71
-2
 72
1
 73
4
  0
SEQEND
  0
POLYLINE
 8
Layer0
 66
     1
10
0.0
 20
 0.0
 30
0.0
70
    64
71
4
72
   1
  0
VERTEX
  8
Layer0
10
7.479200819559747
20
3.0
30
3.9387793310655494
 70
     192
  0
VERTEX
  8
Layer0
10
7.479200819559747
20
0.0
30
22.438779331065568
 70
     192
  0
VERTEX
  8
Layer0
10
7.479200819559747
20
0.0
30
3.9387793310655494
 70
     192
  0
VERTEX
  8
Layer0
10
7.479200819559747
20
3.0
30
22.438779331065568
 70
     192
  0
VERTEX
  8
Layer0
10
0.0
 20
 0.0
 30
0.0
 70
     128
 71
-1
 72
2
 73
3
  0
VERTEX
  8
Layer0
10
0.0
 20
 0.0
 30
0.0
 70
     128
 71
-2
 72
1
 73
4
  0
SEQEND
 0
ENDSEC
 0
EOF
