ISO-10303-21;
HEADER;
/* Generated by software containing ST-Developer
 * from STEP Tools, Inc. (www.steptools.com) 
 */

FILE_DESCRIPTION(
/* description */ (''),
/* implementation_level */ '2;1');

FILE_NAME(
/* name */ 
'E:/devis client impression 3d/cotes d''armor habitat/paumelle alu/art
iculation.step',
/* time_stamp */ '2016-07-05T10:56:45+02:00',
/* author */ (''),
/* organization */ (''),
/* preprocessor_version */ 'ST-DEVELOPER v16.5',
/* originating_system */ 'Autodesk Translation Framework v5.1.0.2740',
/* authorisation */ '');

FILE_SCHEMA (('AUTOMOTIVE_DESIGN { 1 0 10303 214 3 1 1 }'));
ENDSEC;

DATA;
#10=MECHANICAL_DESIGN_GEOMETRIC_PRESENTATION_REPRESENTATION('',(#16),#286);
#11=DIMENSIONAL_EXPONENTS(0.,0.,0.,0.,0.,0.,0.);
#12=(
CONVERSION_BASED_UNIT('degree',#13)
NAMED_UNIT(#11)
PLANE_ANGLE_UNIT()
);
#13=PLANE_ANGLE_MEASURE_WITH_UNIT(PLANE_ANGLE_MEASURE(0.01745329252),#290);
#14=SHAPE_REPRESENTATION_RELATIONSHIP('SRR','None',#293,#15);
#15=ADVANCED_BREP_SHAPE_REPRESENTATION('',(#17),#285);
#16=STYLED_ITEM('',(#302),#17);
#17=MANIFOLD_SOLID_BREP('Body1',#168);
#18=FACE_BOUND('',#39,.T.);
#19=FACE_BOUND('',#46,.T.);
#20=PLANE('',#173);
#21=PLANE('',#177);
#22=PLANE('',#184);
#23=PLANE('',#185);
#24=PLANE('',#186);
#25=PLANE('',#187);
#26=FACE_OUTER_BOUND('',#36,.T.);
#27=FACE_OUTER_BOUND('',#37,.T.);
#28=FACE_OUTER_BOUND('',#38,.T.);
#29=FACE_OUTER_BOUND('',#40,.T.);
#30=FACE_OUTER_BOUND('',#41,.T.);
#31=FACE_OUTER_BOUND('',#42,.T.);
#32=FACE_OUTER_BOUND('',#43,.T.);
#33=FACE_OUTER_BOUND('',#44,.T.);
#34=FACE_OUTER_BOUND('',#45,.T.);
#35=FACE_OUTER_BOUND('',#47,.T.);
#36=EDGE_LOOP('',(#114,#115,#116,#117));
#37=EDGE_LOOP('',(#118,#119,#120,#121));
#38=EDGE_LOOP('',(#122));
#39=EDGE_LOOP('',(#123));
#40=EDGE_LOOP('',(#124));
#41=EDGE_LOOP('',(#125,#126,#127,#128));
#42=EDGE_LOOP('',(#129,#130,#131,#132));
#43=EDGE_LOOP('',(#133,#134,#135,#136));
#44=EDGE_LOOP('',(#137,#138,#139,#140));
#45=EDGE_LOOP('',(#141,#142,#143,#144,#145,#146));
#46=EDGE_LOOP('',(#147));
#47=EDGE_LOOP('',(#148,#149,#150,#151,#152,#153));
#48=LINE('',#244,#60);
#49=LINE('',#247,#61);
#50=LINE('',#250,#62);
#51=LINE('',#252,#63);
#52=LINE('',#253,#64);
#53=LINE('',#265,#65);
#54=LINE('',#268,#66);
#55=LINE('',#274,#67);
#56=LINE('',#276,#68);
#57=LINE('',#277,#69);
#58=LINE('',#279,#70);
#59=LINE('',#280,#71);
#60=VECTOR('',#194,1.);
#61=VECTOR('',#197,1.);
#62=VECTOR('',#200,1.);
#63=VECTOR('',#201,1.);
#64=VECTOR('',#202,1.);
#65=VECTOR('',#215,1.);
#66=VECTOR('',#218,1.);
#67=VECTOR('',#227,1.);
#68=VECTOR('',#228,1.);
#69=VECTOR('',#229,1.);
#70=VECTOR('',#232,1.);
#71=VECTOR('',#233,1.);
#72=CIRCLE('',#171,0.3);
#73=CIRCLE('',#172,0.3);
#74=CIRCLE('',#175,0.35);
#75=CIRCLE('',#176,0.35);
#76=CIRCLE('',#179,0.3);
#77=CIRCLE('',#180,0.3);
#78=CIRCLE('',#182,0.65);
#79=CIRCLE('',#183,0.65);
#80=VERTEX_POINT('',#240);
#81=VERTEX_POINT('',#241);
#82=VERTEX_POINT('',#243);
#83=VERTEX_POINT('',#245);
#84=VERTEX_POINT('',#249);
#85=VERTEX_POINT('',#251);
#86=VERTEX_POINT('',#255);
#87=VERTEX_POINT('',#257);
#88=VERTEX_POINT('',#261);
#89=VERTEX_POINT('',#262);
#90=VERTEX_POINT('',#264);
#91=VERTEX_POINT('',#266);
#92=VERTEX_POINT('',#273);
#93=VERTEX_POINT('',#275);
#94=EDGE_CURVE('',#80,#81,#72,.T.);
#95=EDGE_CURVE('',#81,#82,#48,.T.);
#96=EDGE_CURVE('',#82,#83,#73,.T.);
#97=EDGE_CURVE('',#83,#80,#49,.T.);
#98=EDGE_CURVE('',#81,#84,#50,.T.);
#99=EDGE_CURVE('',#84,#85,#51,.T.);
#100=EDGE_CURVE('',#82,#85,#52,.T.);
#101=EDGE_CURVE('',#86,#86,#74,.T.);
#102=EDGE_CURVE('',#87,#87,#75,.T.);
#103=EDGE_CURVE('',#88,#89,#76,.T.);
#104=EDGE_CURVE('',#89,#90,#53,.T.);
#105=EDGE_CURVE('',#90,#91,#77,.T.);
#106=EDGE_CURVE('',#91,#88,#54,.T.);
#107=EDGE_CURVE('',#90,#83,#78,.T.);
#108=EDGE_CURVE('',#89,#80,#79,.T.);
#109=EDGE_CURVE('',#92,#91,#55,.T.);
#110=EDGE_CURVE('',#93,#92,#56,.T.);
#111=EDGE_CURVE('',#93,#88,#57,.T.);
#112=EDGE_CURVE('',#84,#93,#58,.T.);
#113=EDGE_CURVE('',#85,#92,#59,.T.);
#114=ORIENTED_EDGE('',*,*,#94,.T.);
#115=ORIENTED_EDGE('',*,*,#95,.T.);
#116=ORIENTED_EDGE('',*,*,#96,.T.);
#117=ORIENTED_EDGE('',*,*,#97,.T.);
#118=ORIENTED_EDGE('',*,*,#95,.F.);
#119=ORIENTED_EDGE('',*,*,#98,.T.);
#120=ORIENTED_EDGE('',*,*,#99,.T.);
#121=ORIENTED_EDGE('',*,*,#100,.F.);
#122=ORIENTED_EDGE('',*,*,#101,.T.);
#123=ORIENTED_EDGE('',*,*,#102,.F.);
#124=ORIENTED_EDGE('',*,*,#101,.F.);
#125=ORIENTED_EDGE('',*,*,#103,.T.);
#126=ORIENTED_EDGE('',*,*,#104,.T.);
#127=ORIENTED_EDGE('',*,*,#105,.T.);
#128=ORIENTED_EDGE('',*,*,#106,.T.);
#129=ORIENTED_EDGE('',*,*,#97,.F.);
#130=ORIENTED_EDGE('',*,*,#107,.F.);
#131=ORIENTED_EDGE('',*,*,#104,.F.);
#132=ORIENTED_EDGE('',*,*,#108,.T.);
#133=ORIENTED_EDGE('',*,*,#106,.F.);
#134=ORIENTED_EDGE('',*,*,#109,.F.);
#135=ORIENTED_EDGE('',*,*,#110,.F.);
#136=ORIENTED_EDGE('',*,*,#111,.T.);
#137=ORIENTED_EDGE('',*,*,#112,.T.);
#138=ORIENTED_EDGE('',*,*,#110,.T.);
#139=ORIENTED_EDGE('',*,*,#113,.F.);
#140=ORIENTED_EDGE('',*,*,#99,.F.);
#141=ORIENTED_EDGE('',*,*,#107,.T.);
#142=ORIENTED_EDGE('',*,*,#96,.F.);
#143=ORIENTED_EDGE('',*,*,#100,.T.);
#144=ORIENTED_EDGE('',*,*,#113,.T.);
#145=ORIENTED_EDGE('',*,*,#109,.T.);
#146=ORIENTED_EDGE('',*,*,#105,.F.);
#147=ORIENTED_EDGE('',*,*,#102,.T.);
#148=ORIENTED_EDGE('',*,*,#103,.F.);
#149=ORIENTED_EDGE('',*,*,#111,.F.);
#150=ORIENTED_EDGE('',*,*,#112,.F.);
#151=ORIENTED_EDGE('',*,*,#98,.F.);
#152=ORIENTED_EDGE('',*,*,#94,.F.);
#153=ORIENTED_EDGE('',*,*,#108,.F.);
#154=CYLINDRICAL_SURFACE('',#170,0.3);
#155=CYLINDRICAL_SURFACE('',#174,0.35);
#156=CYLINDRICAL_SURFACE('',#178,0.3);
#157=CYLINDRICAL_SURFACE('',#181,0.65);
#158=ADVANCED_FACE('',(#26),#154,.F.);
#159=ADVANCED_FACE('',(#27),#20,.T.);
#160=ADVANCED_FACE('',(#28,#18),#155,.F.);
#161=ADVANCED_FACE('',(#29),#21,.T.);
#162=ADVANCED_FACE('',(#30),#156,.F.);
#163=ADVANCED_FACE('',(#31),#157,.T.);
#164=ADVANCED_FACE('',(#32),#22,.T.);
#165=ADVANCED_FACE('',(#33),#23,.T.);
#166=ADVANCED_FACE('',(#34,#19),#24,.T.);
#167=ADVANCED_FACE('',(#35),#25,.F.);
#168=CLOSED_SHELL('',(#158,#159,#160,#161,#162,#163,#164,#165,#166,#167));
#169=AXIS2_PLACEMENT_3D('placement',#238,#188,#189);
#170=AXIS2_PLACEMENT_3D('',#239,#190,#191);
#171=AXIS2_PLACEMENT_3D('',#242,#192,#193);
#172=AXIS2_PLACEMENT_3D('',#246,#195,#196);
#173=AXIS2_PLACEMENT_3D('',#248,#198,#199);
#174=AXIS2_PLACEMENT_3D('',#254,#203,#204);
#175=AXIS2_PLACEMENT_3D('',#256,#205,#206);
#176=AXIS2_PLACEMENT_3D('',#258,#207,#208);
#177=AXIS2_PLACEMENT_3D('',#259,#209,#210);
#178=AXIS2_PLACEMENT_3D('',#260,#211,#212);
#179=AXIS2_PLACEMENT_3D('',#263,#213,#214);
#180=AXIS2_PLACEMENT_3D('',#267,#216,#217);
#181=AXIS2_PLACEMENT_3D('',#269,#219,#220);
#182=AXIS2_PLACEMENT_3D('',#270,#221,#222);
#183=AXIS2_PLACEMENT_3D('',#271,#223,#224);
#184=AXIS2_PLACEMENT_3D('',#272,#225,#226);
#185=AXIS2_PLACEMENT_3D('',#278,#230,#231);
#186=AXIS2_PLACEMENT_3D('',#281,#234,#235);
#187=AXIS2_PLACEMENT_3D('',#282,#236,#237);
#188=DIRECTION('axis',(0.,0.,1.));
#189=DIRECTION('refdir',(1.,0.,0.));
#190=DIRECTION('center_axis',(0.,1.,0.));
#191=DIRECTION('ref_axis',(0.251312511182914,0.,0.967905998391857));
#192=DIRECTION('center_axis',(0.,-1.,0.));
#193=DIRECTION('ref_axis',(0.251312511182914,0.,0.967905998391857));
#194=DIRECTION('',(0.,1.,0.));
#195=DIRECTION('center_axis',(0.,1.,0.));
#196=DIRECTION('ref_axis',(0.251312511182914,0.,0.967905998391857));
#197=DIRECTION('',(0.,-1.,0.));
#198=DIRECTION('center_axis',(0.,0.,-1.));
#199=DIRECTION('ref_axis',(-1.,0.,0.));
#200=DIRECTION('',(-1.,0.,0.));
#201=DIRECTION('',(0.,1.,0.));
#202=DIRECTION('',(-1.,0.,0.));
#203=DIRECTION('center_axis',(0.,-1.,0.));
#204=DIRECTION('ref_axis',(-1.,0.,0.));
#205=DIRECTION('center_axis',(0.,-1.,0.));
#206=DIRECTION('ref_axis',(-1.,0.,0.));
#207=DIRECTION('center_axis',(0.,-1.,0.));
#208=DIRECTION('ref_axis',(-1.,0.,0.));
#209=DIRECTION('center_axis',(0.,1.,0.));
#210=DIRECTION('ref_axis',(-1.,0.,0.));
#211=DIRECTION('center_axis',(0.,1.,0.));
#212=DIRECTION('ref_axis',(0.59824297179481,0.,-0.801314761313002));
#213=DIRECTION('center_axis',(0.,-1.,0.));
#214=DIRECTION('ref_axis',(0.59824297179481,0.,-0.801314761313002));
#215=DIRECTION('',(0.,1.,0.));
#216=DIRECTION('center_axis',(0.,1.,0.));
#217=DIRECTION('ref_axis',(0.59824297179481,0.,-0.801314761313002));
#218=DIRECTION('',(0.,-1.,0.));
#219=DIRECTION('center_axis',(0.,1.,0.));
#220=DIRECTION('ref_axis',(-0.99893435471315,0.,-0.0461536019593575));
#221=DIRECTION('center_axis',(0.,1.,0.));
#222=DIRECTION('ref_axis',(-0.99893435471315,0.,-0.0461536019593575));
#223=DIRECTION('center_axis',(0.,1.,0.));
#224=DIRECTION('ref_axis',(-0.99893435471315,0.,-0.0461536019593575));
#225=DIRECTION('center_axis',(9.37512829643567E-19,0.,1.));
#226=DIRECTION('ref_axis',(1.,0.,-9.37512829643567E-19));
#227=DIRECTION('',(1.,0.,-9.37512829643567E-19));
#228=DIRECTION('',(0.,1.,0.));
#229=DIRECTION('',(1.,0.,-9.37512829643567E-19));
#230=DIRECTION('center_axis',(-1.,0.,0.));
#231=DIRECTION('ref_axis',(0.,0.,1.));
#232=DIRECTION('',(0.,0.,1.));
#233=DIRECTION('',(0.,0.,1.));
#234=DIRECTION('center_axis',(0.,1.,0.));
#235=DIRECTION('ref_axis',(1.,0.,0.));
#236=DIRECTION('center_axis',(0.,1.,0.));
#237=DIRECTION('ref_axis',(1.,0.,0.));
#238=CARTESIAN_POINT('',(0.,0.,0.));
#239=CARTESIAN_POINT('Origin',(-0.462169085385239,0.,-0.829999841273582));
#240=CARTESIAN_POINT('',(-0.316220953158321,0.,-0.567894628239819));
#241=CARTESIAN_POINT('',(-0.462169085385239,0.,-0.529999841273582));
#242=CARTESIAN_POINT('Origin',(-0.462169085385239,0.,-0.829999841273582));
#243=CARTESIAN_POINT('',(-0.462169085385239,3.4,-0.529999841273582));
#244=CARTESIAN_POINT('',(-0.462169085385239,0.,-0.529999841273582));
#245=CARTESIAN_POINT('',(-0.316220953158321,3.4,-0.567894628239819));
#246=CARTESIAN_POINT('Origin',(-0.462169085385239,3.4,-0.829999841273582));
#247=CARTESIAN_POINT('',(-0.316220953158321,0.,-0.567894628239819));
#248=CARTESIAN_POINT('Origin',(-0.376297978004105,0.,-0.529999841273582));
#249=CARTESIAN_POINT('',(-4.35000010217358,0.,-0.529999841273582));
#250=CARTESIAN_POINT('',(-0.376297978004105,0.,-0.529999841273582));
#251=CARTESIAN_POINT('',(-4.35000010217358,3.4,-0.529999841273582));
#252=CARTESIAN_POINT('',(-4.35000010217358,0.,-0.529999841273582));
#253=CARTESIAN_POINT('',(-0.376297978004105,3.4,-0.529999841273582));
#254=CARTESIAN_POINT('Origin',(0.,3.4,0.));
#255=CARTESIAN_POINT('',(0.35,0.7,-4.28626379701574E-17));
#256=CARTESIAN_POINT('Origin',(0.,0.7,0.));
#257=CARTESIAN_POINT('',(0.35,3.4,-4.28626379701574E-17));
#258=CARTESIAN_POINT('Origin',(0.,3.4,0.));
#259=CARTESIAN_POINT('Origin',(0.,0.7,0.));
#260=CARTESIAN_POINT('Origin',(-0.910823755886785,0.,0.270000158726418));
#261=CARTESIAN_POINT('',(-0.910823755886785,0.,-0.0299998412735824));
#262=CARTESIAN_POINT('',(-0.623195201396221,0.,0.184736950707549));
#263=CARTESIAN_POINT('Origin',(-0.910823755886785,0.,0.270000158726418));
#264=CARTESIAN_POINT('',(-0.623195201396221,3.4,0.184736950707549));
#265=CARTESIAN_POINT('',(-0.623195201396221,0.,0.184736950707549));
#266=CARTESIAN_POINT('',(-0.910823755886785,3.4,-0.0299998412735824));
#267=CARTESIAN_POINT('Origin',(-0.910823755886785,3.4,0.270000158726418));
#268=CARTESIAN_POINT('',(-0.910823755886785,0.,-0.0299998412735824));
#269=CARTESIAN_POINT('Origin',(0.,0.,0.));
#270=CARTESIAN_POINT('Origin',(0.,3.4,0.));
#271=CARTESIAN_POINT('Origin',(0.,0.,0.));
#272=CARTESIAN_POINT('Origin',(-4.35000010217358,0.,-0.0299998412735824));
#273=CARTESIAN_POINT('',(-4.35000010217358,3.4,-0.0299998412735824));
#274=CARTESIAN_POINT('',(-4.35000010217358,3.4,-0.0299998412735824));
#275=CARTESIAN_POINT('',(-4.35000010217358,0.,-0.0299998412735824));
#276=CARTESIAN_POINT('',(-4.35000010217358,0.,-0.0299998412735824));
#277=CARTESIAN_POINT('',(-4.35000010217358,0.,-0.0299998412735824));
#278=CARTESIAN_POINT('Origin',(-4.35000010217358,0.,-0.529999841273582));
#279=CARTESIAN_POINT('',(-4.35000010217358,0.,-0.529999841273582));
#280=CARTESIAN_POINT('',(-4.35000010217358,3.4,-0.529999841273582));
#281=CARTESIAN_POINT('Origin',(-1.85000005108679,3.4,0.));
#282=CARTESIAN_POINT('Origin',(-1.85000005108679,0.,0.));
#283=UNCERTAINTY_MEASURE_WITH_UNIT(LENGTH_MEASURE(0.001),#287,
'DISTANCE_ACCURACY_VALUE',
'Maximum model space distance between geometric entities at asserted c
onnectivities');
#284=UNCERTAINTY_MEASURE_WITH_UNIT(LENGTH_MEASURE(1.E-6),#288,
'DISTANCE_ACCURACY_VALUE',
'Maximum model space distance between geometric entities at asserted c
onnectivities');
#285=(
GEOMETRIC_REPRESENTATION_CONTEXT(3)
GLOBAL_UNCERTAINTY_ASSIGNED_CONTEXT((#283))
GLOBAL_UNIT_ASSIGNED_CONTEXT((#287,#290,#289))
REPRESENTATION_CONTEXT('','3D')
);
#286=(
GEOMETRIC_REPRESENTATION_CONTEXT(3)
GLOBAL_UNCERTAINTY_ASSIGNED_CONTEXT((#284))
GLOBAL_UNIT_ASSIGNED_CONTEXT((#288,#12,#289))
REPRESENTATION_CONTEXT('','3D')
);
#287=(
LENGTH_UNIT()
NAMED_UNIT(*)
SI_UNIT(.CENTI.,.METRE.)
);
#288=(
LENGTH_UNIT()
NAMED_UNIT(*)
SI_UNIT(.MILLI.,.METRE.)
);
#289=(
NAMED_UNIT(*)
SI_UNIT($,.STERADIAN.)
SOLID_ANGLE_UNIT()
);
#290=(
NAMED_UNIT(*)
PLANE_ANGLE_UNIT()
SI_UNIT($,.RADIAN.)
);
#291=SHAPE_DEFINITION_REPRESENTATION(#292,#293);
#292=PRODUCT_DEFINITION_SHAPE('',$,#295);
#293=SHAPE_REPRESENTATION('',(#169),#285);
#294=PRODUCT_DEFINITION_CONTEXT('part definition',#299,'design');
#295=PRODUCT_DEFINITION('Untitled v3','Untitled v3',#296,#294);
#296=PRODUCT_DEFINITION_FORMATION('',$,#301);
#297=PRODUCT_RELATED_PRODUCT_CATEGORY('Untitled v3','Untitled v3',(#301));
#298=APPLICATION_PROTOCOL_DEFINITION('international standard',
'automotive_design',2009,#299);
#299=APPLICATION_CONTEXT(
'Core Data for Automotive Mechanical Design Process');
#300=PRODUCT_CONTEXT('part definition',#299,'mechanical');
#301=PRODUCT('Untitled v3','Untitled v3',$,(#300));
#302=PRESENTATION_STYLE_ASSIGNMENT((#303));
#303=SURFACE_STYLE_USAGE(.BOTH.,#304);
#304=SURFACE_SIDE_STYLE('',(#305));
#305=SURFACE_STYLE_FILL_AREA(#306);
#306=FILL_AREA_STYLE('Steel - Satin',(#307));
#307=FILL_AREA_STYLE_COLOUR('Steel - Satin',#308);
#308=COLOUR_RGB('Steel - Satin',0.627450980392157,0.627450980392157,0.627450980392157);
ENDSEC;
END-ISO-10303-21;
