ISO-10303-21;
HEADER;
/* Generated by software containing ST-Developer
 * from STEP Tools, Inc. (www.steptools.com) 
 */

FILE_DESCRIPTION(
/* description */ (''),
/* implementation_level */ '2;1');

FILE_NAME(
/* name */ 
'E:/devis client impression 3d/FMP/sous traitance/pi\X\E8ce articulati
on.step',
/* time_stamp */ '2016-06-27T15:30:57+02:00',
/* author */ (''),
/* organization */ (''),
/* preprocessor_version */ 'ST-DEVELOPER v16.5',
/* originating_system */ 'Autodesk Translation Framework v5.1.0.2740',
/* authorisation */ '');

FILE_SCHEMA (('AUTOMOTIVE_DESIGN { 1 0 10303 214 3 1 1 }'));
ENDSEC;

DATA;
#10=MECHANICAL_DESIGN_GEOMETRIC_PRESENTATION_REPRESENTATION('',(#16),#176);
#11=DIMENSIONAL_EXPONENTS(0.,0.,0.,0.,0.,0.,0.);
#12=(
CONVERSION_BASED_UNIT('degree',#13)
NAMED_UNIT(#11)
PLANE_ANGLE_UNIT()
);
#13=PLANE_ANGLE_MEASURE_WITH_UNIT(PLANE_ANGLE_MEASURE(0.01745329252),#180);
#14=SHAPE_REPRESENTATION_RELATIONSHIP('SRR','None',#183,#15);
#15=ADVANCED_BREP_SHAPE_REPRESENTATION('',(#17),#175);
#16=STYLED_ITEM('',(#192),#17);
#17=MANIFOLD_SOLID_BREP('Body1',#108);
#18=PLANE('',#113);
#19=PLANE('',#114);
#20=PLANE('',#115);
#21=PLANE('',#116);
#22=PLANE('',#117);
#23=FACE_OUTER_BOUND('',#29,.T.);
#24=FACE_OUTER_BOUND('',#30,.T.);
#25=FACE_OUTER_BOUND('',#31,.T.);
#26=FACE_OUTER_BOUND('',#32,.T.);
#27=FACE_OUTER_BOUND('',#33,.T.);
#28=FACE_OUTER_BOUND('',#34,.T.);
#29=EDGE_LOOP('',(#77,#78,#79,#80));
#30=EDGE_LOOP('',(#81,#82,#83,#84));
#31=EDGE_LOOP('',(#85,#86,#87,#88));
#32=EDGE_LOOP('',(#89,#90,#91,#92));
#33=EDGE_LOOP('',(#93,#94,#95,#96));
#34=EDGE_LOOP('',(#97,#98,#99,#100));
#35=LINE('',#152,#45);
#36=LINE('',#155,#46);
#37=LINE('',#158,#47);
#38=LINE('',#160,#48);
#39=LINE('',#161,#49);
#40=LINE('',#164,#50);
#41=LINE('',#166,#51);
#42=LINE('',#167,#52);
#43=LINE('',#169,#53);
#44=LINE('',#170,#54);
#45=VECTOR('',#124,1.);
#46=VECTOR('',#127,1.);
#47=VECTOR('',#130,1.);
#48=VECTOR('',#131,1.);
#49=VECTOR('',#132,1.);
#50=VECTOR('',#135,1.);
#51=VECTOR('',#136,1.);
#52=VECTOR('',#137,1.);
#53=VECTOR('',#140,1.);
#54=VECTOR('',#141,1.);
#55=CIRCLE('',#111,0.5);
#56=CIRCLE('',#112,0.5);
#57=VERTEX_POINT('',#148);
#58=VERTEX_POINT('',#149);
#59=VERTEX_POINT('',#151);
#60=VERTEX_POINT('',#153);
#61=VERTEX_POINT('',#157);
#62=VERTEX_POINT('',#159);
#63=VERTEX_POINT('',#163);
#64=VERTEX_POINT('',#165);
#65=EDGE_CURVE('',#57,#58,#55,.T.);
#66=EDGE_CURVE('',#58,#59,#35,.T.);
#67=EDGE_CURVE('',#60,#59,#56,.T.);
#68=EDGE_CURVE('',#57,#60,#36,.T.);
#69=EDGE_CURVE('',#61,#57,#37,.T.);
#70=EDGE_CURVE('',#62,#60,#38,.T.);
#71=EDGE_CURVE('',#61,#62,#39,.T.);
#72=EDGE_CURVE('',#63,#61,#40,.T.);
#73=EDGE_CURVE('',#64,#62,#41,.T.);
#74=EDGE_CURVE('',#63,#64,#42,.T.);
#75=EDGE_CURVE('',#58,#63,#43,.T.);
#76=EDGE_CURVE('',#59,#64,#44,.T.);
#77=ORIENTED_EDGE('',*,*,#65,.T.);
#78=ORIENTED_EDGE('',*,*,#66,.T.);
#79=ORIENTED_EDGE('',*,*,#67,.F.);
#80=ORIENTED_EDGE('',*,*,#68,.F.);
#81=ORIENTED_EDGE('',*,*,#69,.T.);
#82=ORIENTED_EDGE('',*,*,#68,.T.);
#83=ORIENTED_EDGE('',*,*,#70,.F.);
#84=ORIENTED_EDGE('',*,*,#71,.F.);
#85=ORIENTED_EDGE('',*,*,#72,.T.);
#86=ORIENTED_EDGE('',*,*,#71,.T.);
#87=ORIENTED_EDGE('',*,*,#73,.F.);
#88=ORIENTED_EDGE('',*,*,#74,.F.);
#89=ORIENTED_EDGE('',*,*,#75,.T.);
#90=ORIENTED_EDGE('',*,*,#74,.T.);
#91=ORIENTED_EDGE('',*,*,#76,.F.);
#92=ORIENTED_EDGE('',*,*,#66,.F.);
#93=ORIENTED_EDGE('',*,*,#76,.T.);
#94=ORIENTED_EDGE('',*,*,#73,.T.);
#95=ORIENTED_EDGE('',*,*,#70,.T.);
#96=ORIENTED_EDGE('',*,*,#67,.T.);
#97=ORIENTED_EDGE('',*,*,#75,.F.);
#98=ORIENTED_EDGE('',*,*,#65,.F.);
#99=ORIENTED_EDGE('',*,*,#69,.F.);
#100=ORIENTED_EDGE('',*,*,#72,.F.);
#101=CYLINDRICAL_SURFACE('',#110,0.5);
#102=ADVANCED_FACE('',(#23),#101,.T.);
#103=ADVANCED_FACE('',(#24),#18,.T.);
#104=ADVANCED_FACE('',(#25),#19,.T.);
#105=ADVANCED_FACE('',(#26),#20,.T.);
#106=ADVANCED_FACE('',(#27),#21,.T.);
#107=ADVANCED_FACE('',(#28),#22,.F.);
#108=CLOSED_SHELL('',(#102,#103,#104,#105,#106,#107));
#109=AXIS2_PLACEMENT_3D('placement',#146,#118,#119);
#110=AXIS2_PLACEMENT_3D('',#147,#120,#121);
#111=AXIS2_PLACEMENT_3D('',#150,#122,#123);
#112=AXIS2_PLACEMENT_3D('',#154,#125,#126);
#113=AXIS2_PLACEMENT_3D('',#156,#128,#129);
#114=AXIS2_PLACEMENT_3D('',#162,#133,#134);
#115=AXIS2_PLACEMENT_3D('',#168,#138,#139);
#116=AXIS2_PLACEMENT_3D('',#171,#142,#143);
#117=AXIS2_PLACEMENT_3D('',#172,#144,#145);
#118=DIRECTION('axis',(0.,0.,1.));
#119=DIRECTION('refdir',(1.,0.,0.));
#120=DIRECTION('center_axis',(0.,1.,0.));
#121=DIRECTION('ref_axis',(-0.932952350378535,0.,-0.359999877671045));
#122=DIRECTION('center_axis',(0.,1.,0.));
#123=DIRECTION('ref_axis',(-0.932952350378535,0.,-0.359999877671045));
#124=DIRECTION('',(0.,1.,0.));
#125=DIRECTION('center_axis',(0.,1.,0.));
#126=DIRECTION('ref_axis',(-0.932952350378535,0.,-0.359999877671045));
#127=DIRECTION('',(0.,1.,0.));
#128=DIRECTION('center_axis',(-7.4341498589569E-18,0.,1.));
#129=DIRECTION('ref_axis',(1.,0.,7.4341498589569E-18));
#130=DIRECTION('',(1.,0.,7.4341498589569E-18));
#131=DIRECTION('',(1.,0.,7.4341498589569E-18));
#132=DIRECTION('',(0.,1.,0.));
#133=DIRECTION('center_axis',(-1.,0.,0.));
#134=DIRECTION('ref_axis',(0.,0.,1.));
#135=DIRECTION('',(0.,0.,1.));
#136=DIRECTION('',(0.,0.,1.));
#137=DIRECTION('',(0.,1.,0.));
#138=DIRECTION('center_axis',(-1.43253164514952E-17,0.,-1.));
#139=DIRECTION('ref_axis',(-1.,0.,1.43253164514952E-17));
#140=DIRECTION('',(-1.,0.,1.43253164514952E-17));
#141=DIRECTION('',(-1.,0.,1.43253164514952E-17));
#142=DIRECTION('center_axis',(0.,1.,0.));
#143=DIRECTION('ref_axis',(1.,0.,0.));
#144=DIRECTION('center_axis',(0.,1.,0.));
#145=DIRECTION('ref_axis',(1.,0.,0.));
#146=CARTESIAN_POINT('',(0.,0.,0.));
#147=CARTESIAN_POINT('Origin',(0.,0.,0.));
#148=CARTESIAN_POINT('',(-0.466476175189267,0.,-0.179999938835523));
#149=CARTESIAN_POINT('',(-0.324961607709279,0.,-0.379999938835523));
#150=CARTESIAN_POINT('Origin',(0.,0.,0.));
#151=CARTESIAN_POINT('',(-0.324961607709279,3.1,-0.379999938835523));
#152=CARTESIAN_POINT('',(-0.324961607709279,0.,-0.379999938835523));
#153=CARTESIAN_POINT('',(-0.466476175189267,3.1,-0.179999938835523));
#154=CARTESIAN_POINT('Origin',(0.,3.1,0.));
#155=CARTESIAN_POINT('',(-0.466476175189267,0.,-0.179999938835523));
#156=CARTESIAN_POINT('Origin',(-4.2,0.,-0.179999938835523));
#157=CARTESIAN_POINT('',(-4.2,0.,-0.179999938835523));
#158=CARTESIAN_POINT('',(-4.2,0.,-0.179999938835523));
#159=CARTESIAN_POINT('',(-4.2,3.1,-0.179999938835523));
#160=CARTESIAN_POINT('',(-4.2,3.1,-0.179999938835523));
#161=CARTESIAN_POINT('',(-4.2,0.,-0.179999938835523));
#162=CARTESIAN_POINT('Origin',(-4.2,0.,-0.379999938835523));
#163=CARTESIAN_POINT('',(-4.2,0.,-0.379999938835523));
#164=CARTESIAN_POINT('',(-4.2,0.,-0.379999938835523));
#165=CARTESIAN_POINT('',(-4.2,3.1,-0.379999938835523));
#166=CARTESIAN_POINT('',(-4.2,3.1,-0.379999938835523));
#167=CARTESIAN_POINT('',(-4.2,0.,-0.379999938835523));
#168=CARTESIAN_POINT('Origin',(-0.324961607709279,0.,-0.379999938835523));
#169=CARTESIAN_POINT('',(-0.324961607709279,0.,-0.379999938835523));
#170=CARTESIAN_POINT('',(-0.324961607709279,3.1,-0.379999938835523));
#171=CARTESIAN_POINT('Origin',(-1.85,3.1,5.55111512312578E-17));
#172=CARTESIAN_POINT('Origin',(-1.85,0.,5.55111512312578E-17));
#173=UNCERTAINTY_MEASURE_WITH_UNIT(LENGTH_MEASURE(0.001),#177,
'DISTANCE_ACCURACY_VALUE',
'Maximum model space distance between geometric entities at asserted c
onnectivities');
#174=UNCERTAINTY_MEASURE_WITH_UNIT(LENGTH_MEASURE(1.E-6),#178,
'DISTANCE_ACCURACY_VALUE',
'Maximum model space distance between geometric entities at asserted c
onnectivities');
#175=(
GEOMETRIC_REPRESENTATION_CONTEXT(3)
GLOBAL_UNCERTAINTY_ASSIGNED_CONTEXT((#173))
GLOBAL_UNIT_ASSIGNED_CONTEXT((#177,#180,#179))
REPRESENTATION_CONTEXT('','3D')
);
#176=(
GEOMETRIC_REPRESENTATION_CONTEXT(3)
GLOBAL_UNCERTAINTY_ASSIGNED_CONTEXT((#174))
GLOBAL_UNIT_ASSIGNED_CONTEXT((#178,#12,#179))
REPRESENTATION_CONTEXT('','3D')
);
#177=(
LENGTH_UNIT()
NAMED_UNIT(*)
SI_UNIT(.CENTI.,.METRE.)
);
#178=(
LENGTH_UNIT()
NAMED_UNIT(*)
SI_UNIT(.MILLI.,.METRE.)
);
#179=(
NAMED_UNIT(*)
SI_UNIT($,.STERADIAN.)
SOLID_ANGLE_UNIT()
);
#180=(
NAMED_UNIT(*)
PLANE_ANGLE_UNIT()
SI_UNIT($,.RADIAN.)
);
#181=SHAPE_DEFINITION_REPRESENTATION(#182,#183);
#182=PRODUCT_DEFINITION_SHAPE('',$,#185);
#183=SHAPE_REPRESENTATION('',(#109),#175);
#184=PRODUCT_DEFINITION_CONTEXT('part definition',#189,'design');
#185=PRODUCT_DEFINITION('(Unsaved)','(Unsaved)',#186,#184);
#186=PRODUCT_DEFINITION_FORMATION('',$,#191);
#187=PRODUCT_RELATED_PRODUCT_CATEGORY('(Unsaved)','(Unsaved)',(#191));
#188=APPLICATION_PROTOCOL_DEFINITION('international standard',
'automotive_design',2009,#189);
#189=APPLICATION_CONTEXT(
'Core Data for Automotive Mechanical Design Process');
#190=PRODUCT_CONTEXT('part definition',#189,'mechanical');
#191=PRODUCT('(Unsaved)','(Unsaved)',$,(#190));
#192=PRESENTATION_STYLE_ASSIGNMENT((#193));
#193=SURFACE_STYLE_USAGE(.BOTH.,#194);
#194=SURFACE_SIDE_STYLE('',(#195));
#195=SURFACE_STYLE_FILL_AREA(#196);
#196=FILL_AREA_STYLE('Steel - Satin',(#197));
#197=FILL_AREA_STYLE_COLOUR('Steel - Satin',#198);
#198=COLOUR_RGB('Steel - Satin',0.627450980392157,0.627450980392157,0.627450980392157);
ENDSEC;
END-ISO-10303-21;
