ISO-10303-21;
HEADER;
FILE_DESCRIPTION(('CATIA V5 STEP Exchange'),'2;1');

FILE_NAME('D:\\Users\\Victor TABOUILLOT\\Desktop\\Tambour.stp','2016-05-16T17:16:30+00:00',('none'),('none'),'CATIA Version 5 Release 20 GA (IN-10)','CATIA V5 STEP AP203','none');

FILE_SCHEMA(('CONFIG_CONTROL_DESIGN'));

ENDSEC;
/* file written by CATIA V5R20 */
DATA;
#5=PRODUCT('Tambour','','',(#2)) ;
#1=APPLICATION_CONTEXT('configuration controlled 3D design of mechanical parts and assemblies') ;
#14=PRODUCT_DEFINITION('',' ',#6,#3) ;
#16=SECURITY_CLASSIFICATION(' ',' ',#15) ;
#15=SECURITY_CLASSIFICATION_LEVEL('unclassified') ;
#47=CARTESIAN_POINT(' ',(0.,0.,0.)) ;
#52=CARTESIAN_POINT('Axis2P3D Location',(65.1593447221,6.27099115662,-148.258403078)) ;
#57=CARTESIAN_POINT('Axis2P3D Location',(65.1593447221,6.27099115662,-159.258403078)) ;
#61=CARTESIAN_POINT('Vertex',(54.6593447221,6.27099115662,-159.258403078)) ;
#63=CARTESIAN_POINT('Vertex',(75.6593447221,6.27099115662,-159.258403078)) ;
#66=CARTESIAN_POINT('Line Origine',(75.6593447221,6.27099115662,-148.258403078)) ;
#70=CARTESIAN_POINT('Vertex',(75.6593447221,6.27099115662,-137.258403078)) ;
#73=CARTESIAN_POINT('Axis2P3D Location',(65.1593447221,6.27099115662,-137.258403078)) ;
#77=CARTESIAN_POINT('Vertex',(68.4093447221,16.2553539305,-137.258403078)) ;
#80=CARTESIAN_POINT('Axis2P3D Location',(65.1593447221,6.27099115662,-137.258403078)) ;
#84=CARTESIAN_POINT('Vertex',(61.9093447221,16.2553539305,-137.258403078)) ;
#87=CARTESIAN_POINT('Axis2P3D Location',(65.1593447221,6.27099115662,-137.258403078)) ;
#91=CARTESIAN_POINT('Vertex',(54.6593447221,6.27099115662,-137.258403078)) ;
#94=CARTESIAN_POINT('Line Origine',(54.6593447221,6.27099115662,-148.258403078)) ;
#108=CARTESIAN_POINT('Axis2P3D Location',(65.1593447221,6.27099115662,-159.258403078)) ;
#113=CARTESIAN_POINT('Axis2P3D Location',(65.1593447221,6.27099115662,-137.258403078)) ;
#125=CARTESIAN_POINT('Axis2P3D Location',(0.,2.7500977637,-137.258403078)) ;
#130=CARTESIAN_POINT('Line Origine',(68.4093447221,18.0053539305,-137.258403078)) ;
#134=CARTESIAN_POINT('Vertex',(68.4093447221,19.7553539305,-137.258403078)) ;
#137=CARTESIAN_POINT('Line Origine',(65.1593447221,19.7553539305,-137.258403078)) ;
#141=CARTESIAN_POINT('Vertex',(61.9093447221,19.7553539305,-137.258403078)) ;
#144=CARTESIAN_POINT('Line Origine',(61.9093447221,18.0053539305,-137.258403078)) ;
#156=CARTESIAN_POINT('Axis2P3D Location',(61.9093447221,16.2553539305,-137.258403078)) ;
#161=CARTESIAN_POINT('Line Origine',(61.9093447221,18.0053539305,-87.258403078)) ;
#165=CARTESIAN_POINT('Vertex',(61.9093447221,19.7553539305,-87.258403078)) ;
#167=CARTESIAN_POINT('Vertex',(61.9093447221,16.2553539305,-87.258403078)) ;
#170=CARTESIAN_POINT('Line Origine',(61.9093447221,16.2553539305,-112.258403078)) ;
#175=CARTESIAN_POINT('Line Origine',(61.9093447221,19.7553539305,-112.258403078)) ;
#187=CARTESIAN_POINT('Axis2P3D Location',(61.9093447221,19.7553539305,-137.258403078)) ;
#192=CARTESIAN_POINT('Line Origine',(65.1593447221,19.7553539305,-87.258403078)) ;
#196=CARTESIAN_POINT('Vertex',(68.4093447221,19.7553539305,-87.258403078)) ;
#199=CARTESIAN_POINT('Line Origine',(68.4093447221,19.7553539305,-112.258403078)) ;
#211=CARTESIAN_POINT('Axis2P3D Location',(68.4093447221,19.7553539305,-137.258403078)) ;
#216=CARTESIAN_POINT('Line Origine',(68.4093447221,18.0053539305,-87.258403078)) ;
#220=CARTESIAN_POINT('Vertex',(68.4093447221,16.2553539305,-87.258403078)) ;
#223=CARTESIAN_POINT('Line Origine',(68.4093447221,16.2553539305,-112.258403078)) ;
#235=CARTESIAN_POINT('Axis2P3D Location',(65.1593447221,6.27099115662,-112.258403078)) ;
#240=CARTESIAN_POINT('Axis2P3D Location',(65.1593447221,6.27099115662,-87.258403078)) ;
#254=CARTESIAN_POINT('Axis2P3D Location',(103.378094722,25.9770092333,-123.258403078)) ;
#259=CARTESIAN_POINT('Axis2P3D Location',(103.378094722,25.9770092333,-87.258403078)) ;
#263=CARTESIAN_POINT('Vertex',(107.82213542,28.268406684,-87.258403078)) ;
#265=CARTESIAN_POINT('Vertex',(105.601106086,21.4983687613,-87.258403078)) ;
#268=CARTESIAN_POINT('Line Origine',(105.601106086,21.4983687613,-123.258403078)) ;
#272=CARTESIAN_POINT('Vertex',(105.601106086,21.4983687613,-159.258403078)) ;
#275=CARTESIAN_POINT('Axis2P3D Location',(103.378094722,25.9770092333,-159.258403078)) ;
#279=CARTESIAN_POINT('Vertex',(107.82213542,28.268406684,-159.258403078)) ;
#282=CARTESIAN_POINT('Line Origine',(107.82213542,28.268406684,-123.258403078)) ;
#294=CARTESIAN_POINT('Axis2P3D Location',(65.1593447221,6.27099115662,-148.258403078)) ;
#299=CARTESIAN_POINT('Axis2P3D Location',(65.1593447221,6.27099115662,-87.258403078)) ;
#303=CARTESIAN_POINT('Vertex',(107.82213542,-15.7264243708,-87.258403078)) ;
#306=CARTESIAN_POINT('Axis2P3D Location',(65.1593447221,6.27099115662,-159.258403078)) ;
#310=CARTESIAN_POINT('Vertex',(107.82213542,-15.7264243708,-159.258403078)) ;
#313=CARTESIAN_POINT('Line Origine',(107.82213542,-15.7264243708,-148.258403078)) ;
#325=CARTESIAN_POINT('Axis2P3D Location',(113.159344722,6.27099115662,-148.258403078)) ;
#330=CARTESIAN_POINT('Line Origine',(105.601106086,-8.95638644807,-148.258403078)) ;
#334=CARTESIAN_POINT('Vertex',(105.601106086,-8.95638644807,-159.258403078)) ;
#336=CARTESIAN_POINT('Vertex',(105.601106086,-8.95638644807,-87.258403078)) ;
#339=CARTESIAN_POINT('Axis2P3D Location',(113.159344722,6.27099115662,-159.258403078)) ;
#344=CARTESIAN_POINT('Axis2P3D Location',(113.159344722,6.27099115662,-87.258403078)) ;
#356=CARTESIAN_POINT('Axis2P3D Location',(103.378094722,-13.43502692,-123.258403078)) ;
#361=CARTESIAN_POINT('Axis2P3D Location',(103.378094722,-13.43502692,-87.258403078)) ;
#366=CARTESIAN_POINT('Axis2P3D Location',(103.378094722,-13.43502692,-159.258403078)) ;
#378=CARTESIAN_POINT('Axis2P3D Location',(0.,0.,-159.258403078)) ;
#389=CARTESIAN_POINT('Axis2P3D Location',(34.6593447221,6.27099115662,-159.258403078)) ;
#393=CARTESIAN_POINT('Vertex',(38.6593447221,6.27099115662,-159.258403078)) ;
#395=CARTESIAN_POINT('Vertex',(30.6593447221,6.27099115662,-159.258403078)) ;
#398=CARTESIAN_POINT('Axis2P3D Location',(34.6593447221,6.27099115662,-159.258403078)) ;
#412=CARTESIAN_POINT('Axis2P3D Location',(0.,2.7500977637,-87.258403078)) ;
#423=CARTESIAN_POINT('Axis2P3D Location',(34.6593447221,6.27099115662,-87.258403078)) ;
#427=CARTESIAN_POINT('Vertex',(38.6593447221,6.27099115662,-87.258403078)) ;
#429=CARTESIAN_POINT('Vertex',(30.6593447221,6.27099115662,-87.258403078)) ;
#432=CARTESIAN_POINT('Axis2P3D Location',(34.6593447221,6.27099115662,-87.258403078)) ;
#448=CARTESIAN_POINT('Axis2P3D Location',(34.6593447221,6.27099115662,-123.868403079)) ;
#453=CARTESIAN_POINT('Line Origine',(38.6593447221,6.27099115662,-123.868403079)) ;
#458=CARTESIAN_POINT('Line Origine',(30.6593447221,6.27099115662,-123.868403079)) ;
#53=DIRECTION('Axis2P3D Direction',(0.,0.,-1.)) ;
#54=DIRECTION('Axis2P3D XDirection',(1.,0.,0.)) ;
#58=DIRECTION('Axis2P3D Direction',(0.,0.,-1.)) ;
#67=DIRECTION('Vector Direction',(0.,0.,-1.)) ;
#74=DIRECTION('Axis2P3D Direction',(0.,0.,-1.)) ;
#81=DIRECTION('Axis2P3D Direction',(0.,0.,-1.)) ;
#88=DIRECTION('Axis2P3D Direction',(0.,0.,-1.)) ;
#95=DIRECTION('Vector Direction',(0.,0.,-1.)) ;
#109=DIRECTION('Axis2P3D Direction',(0.,0.,-1.)) ;
#114=DIRECTION('Axis2P3D Direction',(0.,0.,-1.)) ;
#126=DIRECTION('Axis2P3D Direction',(0.,0.,1.)) ;
#127=DIRECTION('Axis2P3D XDirection',(1.,0.,0.)) ;
#131=DIRECTION('Vector Direction',(0.,-1.,0.)) ;
#138=DIRECTION('Vector Direction',(1.,0.,0.)) ;
#145=DIRECTION('Vector Direction',(0.,1.,0.)) ;
#157=DIRECTION('Axis2P3D Direction',(1.,0.,0.)) ;
#158=DIRECTION('Axis2P3D XDirection',(0.,1.,0.)) ;
#162=DIRECTION('Vector Direction',(0.,1.,0.)) ;
#171=DIRECTION('Vector Direction',(0.,0.,1.)) ;
#176=DIRECTION('Vector Direction',(0.,0.,1.)) ;
#188=DIRECTION('Axis2P3D Direction',(0.,-1.,0.)) ;
#189=DIRECTION('Axis2P3D XDirection',(1.,0.,0.)) ;
#193=DIRECTION('Vector Direction',(1.,0.,0.)) ;
#200=DIRECTION('Vector Direction',(0.,0.,1.)) ;
#212=DIRECTION('Axis2P3D Direction',(-1.,0.,0.)) ;
#213=DIRECTION('Axis2P3D XDirection',(0.,-1.,0.)) ;
#217=DIRECTION('Vector Direction',(0.,-1.,0.)) ;
#224=DIRECTION('Vector Direction',(0.,0.,1.)) ;
#236=DIRECTION('Axis2P3D Direction',(0.,0.,1.)) ;
#237=DIRECTION('Axis2P3D XDirection',(-0.309523809524,0.950891692748,0.)) ;
#241=DIRECTION('Axis2P3D Direction',(0.,0.,1.)) ;
#255=DIRECTION('Axis2P3D Direction',(0.,-0.,1.)) ;
#256=DIRECTION('Axis2P3D XDirection',(0.444602272727,-0.895728094393,-0.)) ;
#260=DIRECTION('Axis2P3D Direction',(0.,-0.,1.)) ;
#269=DIRECTION('Vector Direction',(0.,0.,1.)) ;
#276=DIRECTION('Axis2P3D Direction',(0.,-0.,1.)) ;
#283=DIRECTION('Vector Direction',(0.,0.,1.)) ;
#295=DIRECTION('Axis2P3D Direction',(0.,0.,-1.)) ;
#296=DIRECTION('Axis2P3D XDirection',(0.937282986111,-0.348569367482,0.)) ;
#300=DIRECTION('Axis2P3D Direction',(0.,0.,-1.)) ;
#307=DIRECTION('Axis2P3D Direction',(0.,0.,-1.)) ;
#314=DIRECTION('Vector Direction',(0.,0.,-1.)) ;
#326=DIRECTION('Axis2P3D Direction',(0.,0.,-1.)) ;
#327=DIRECTION('Axis2P3D XDirection',(-0.177083333333,-0.984195861125,0.)) ;
#331=DIRECTION('Vector Direction',(0.,0.,-1.)) ;
#340=DIRECTION('Axis2P3D Direction',(0.,0.,-1.)) ;
#345=DIRECTION('Axis2P3D Direction',(0.,0.,-1.)) ;
#357=DIRECTION('Axis2P3D Direction',(0.,-0.,1.)) ;
#358=DIRECTION('Axis2P3D XDirection',(0.888808139535,-0.458279490155,-0.)) ;
#362=DIRECTION('Axis2P3D Direction',(0.,-0.,1.)) ;
#367=DIRECTION('Axis2P3D Direction',(0.,-0.,1.)) ;
#379=DIRECTION('Axis2P3D Direction',(0.,0.,-1.)) ;
#380=DIRECTION('Axis2P3D XDirection',(1.,0.,0.)) ;
#390=DIRECTION('Axis2P3D Direction',(0.,0.,-1.)) ;
#399=DIRECTION('Axis2P3D Direction',(0.,0.,-1.)) ;
#413=DIRECTION('Axis2P3D Direction',(0.,0.,1.)) ;
#414=DIRECTION('Axis2P3D XDirection',(1.,0.,0.)) ;
#424=DIRECTION('Axis2P3D Direction',(0.,0.,1.)) ;
#433=DIRECTION('Axis2P3D Direction',(0.,0.,1.)) ;
#449=DIRECTION('Axis2P3D Direction',(0.,0.,1.)) ;
#450=DIRECTION('Axis2P3D XDirection',(1.,0.,0.)) ;
#454=DIRECTION('Vector Direction',(0.,0.,1.)) ;
#459=DIRECTION('Vector Direction',(0.,0.,1.)) ;
#48=AXIS2_PLACEMENT_3D(' ',#47,$,$) ;
#55=AXIS2_PLACEMENT_3D('Cylinder Axis2P3D',#52,#53,#54) ;
#59=AXIS2_PLACEMENT_3D('Circle Axis2P3D',#57,#58,$) ;
#75=AXIS2_PLACEMENT_3D('Circle Axis2P3D',#73,#74,$) ;
#82=AXIS2_PLACEMENT_3D('Circle Axis2P3D',#80,#81,$) ;
#89=AXIS2_PLACEMENT_3D('Circle Axis2P3D',#87,#88,$) ;
#110=AXIS2_PLACEMENT_3D('Circle Axis2P3D',#108,#109,$) ;
#115=AXIS2_PLACEMENT_3D('Circle Axis2P3D',#113,#114,$) ;
#128=AXIS2_PLACEMENT_3D('Plane Axis2P3D',#125,#126,#127) ;
#159=AXIS2_PLACEMENT_3D('Plane Axis2P3D',#156,#157,#158) ;
#190=AXIS2_PLACEMENT_3D('Plane Axis2P3D',#187,#188,#189) ;
#214=AXIS2_PLACEMENT_3D('Plane Axis2P3D',#211,#212,#213) ;
#238=AXIS2_PLACEMENT_3D('Cylinder Axis2P3D',#235,#236,#237) ;
#242=AXIS2_PLACEMENT_3D('Circle Axis2P3D',#240,#241,$) ;
#257=AXIS2_PLACEMENT_3D('Cylinder Axis2P3D',#254,#255,#256) ;
#261=AXIS2_PLACEMENT_3D('Circle Axis2P3D',#259,#260,$) ;
#277=AXIS2_PLACEMENT_3D('Circle Axis2P3D',#275,#276,$) ;
#297=AXIS2_PLACEMENT_3D('Cylinder Axis2P3D',#294,#295,#296) ;
#301=AXIS2_PLACEMENT_3D('Circle Axis2P3D',#299,#300,$) ;
#308=AXIS2_PLACEMENT_3D('Circle Axis2P3D',#306,#307,$) ;
#328=AXIS2_PLACEMENT_3D('Cylinder Axis2P3D',#325,#326,#327) ;
#341=AXIS2_PLACEMENT_3D('Circle Axis2P3D',#339,#340,$) ;
#346=AXIS2_PLACEMENT_3D('Circle Axis2P3D',#344,#345,$) ;
#359=AXIS2_PLACEMENT_3D('Cylinder Axis2P3D',#356,#357,#358) ;
#363=AXIS2_PLACEMENT_3D('Circle Axis2P3D',#361,#362,$) ;
#368=AXIS2_PLACEMENT_3D('Circle Axis2P3D',#366,#367,$) ;
#381=AXIS2_PLACEMENT_3D('Plane Axis2P3D',#378,#379,#380) ;
#391=AXIS2_PLACEMENT_3D('Circle Axis2P3D',#389,#390,$) ;
#400=AXIS2_PLACEMENT_3D('Circle Axis2P3D',#398,#399,$) ;
#415=AXIS2_PLACEMENT_3D('Plane Axis2P3D',#412,#413,#414) ;
#425=AXIS2_PLACEMENT_3D('Circle Axis2P3D',#423,#424,$) ;
#434=AXIS2_PLACEMENT_3D('Circle Axis2P3D',#432,#433,$) ;
#451=AXIS2_PLACEMENT_3D('Cylinder Axis2P3D',#448,#449,#450) ;
#40=PRODUCT_DEFINITION_SHAPE(' ',' ',#14) ;
#31=APPROVAL_PERSON_ORGANIZATION(#25,#21,#19) ;
#25=PERSON_AND_ORGANIZATION(#22,#23) ;
#22=PERSON(' ',' ',' ',$,$,$) ;
#23=ORGANIZATION(' ',' ',' ') ;
#21=APPROVAL(#20,' ') ;
#20=APPROVAL_STATUS('not_yet_approved') ;
#19=APPROVAL_ROLE('APPROVER') ;
#13=DATE_AND_TIME(#11,#12) ;
#12=LOCAL_TIME(19,16,24.,#10) ;
#10=COORDINATED_UNIVERSAL_TIME_OFFSET(0,0,.AHEAD.) ;
#100=ORIENTED_EDGE('',*,*,#65,.T.) ;
#101=ORIENTED_EDGE('',*,*,#72,.F.) ;
#102=ORIENTED_EDGE('',*,*,#79,.T.) ;
#103=ORIENTED_EDGE('',*,*,#86,.F.) ;
#104=ORIENTED_EDGE('',*,*,#93,.T.) ;
#105=ORIENTED_EDGE('',*,*,#98,.T.) ;
#119=ORIENTED_EDGE('',*,*,#112,.T.) ;
#120=ORIENTED_EDGE('',*,*,#98,.F.) ;
#121=ORIENTED_EDGE('',*,*,#117,.T.) ;
#122=ORIENTED_EDGE('',*,*,#72,.T.) ;
#150=ORIENTED_EDGE('',*,*,#86,.T.) ;
#151=ORIENTED_EDGE('',*,*,#136,.T.) ;
#152=ORIENTED_EDGE('',*,*,#143,.T.) ;
#153=ORIENTED_EDGE('',*,*,#148,.T.) ;
#181=ORIENTED_EDGE('',*,*,#169,.T.) ;
#182=ORIENTED_EDGE('',*,*,#174,.F.) ;
#183=ORIENTED_EDGE('',*,*,#148,.F.) ;
#184=ORIENTED_EDGE('',*,*,#179,.T.) ;
#205=ORIENTED_EDGE('',*,*,#198,.T.) ;
#206=ORIENTED_EDGE('',*,*,#179,.F.) ;
#207=ORIENTED_EDGE('',*,*,#143,.F.) ;
#208=ORIENTED_EDGE('',*,*,#203,.T.) ;
#229=ORIENTED_EDGE('',*,*,#222,.T.) ;
#230=ORIENTED_EDGE('',*,*,#203,.F.) ;
#231=ORIENTED_EDGE('',*,*,#136,.F.) ;
#232=ORIENTED_EDGE('',*,*,#227,.T.) ;
#246=ORIENTED_EDGE('',*,*,#244,.T.) ;
#247=ORIENTED_EDGE('',*,*,#227,.F.) ;
#248=ORIENTED_EDGE('',*,*,#79,.F.) ;
#249=ORIENTED_EDGE('',*,*,#117,.F.) ;
#250=ORIENTED_EDGE('',*,*,#93,.F.) ;
#251=ORIENTED_EDGE('',*,*,#174,.T.) ;
#288=ORIENTED_EDGE('',*,*,#267,.T.) ;
#289=ORIENTED_EDGE('',*,*,#274,.F.) ;
#290=ORIENTED_EDGE('',*,*,#281,.T.) ;
#291=ORIENTED_EDGE('',*,*,#286,.T.) ;
#319=ORIENTED_EDGE('',*,*,#305,.F.) ;
#320=ORIENTED_EDGE('',*,*,#286,.F.) ;
#321=ORIENTED_EDGE('',*,*,#312,.F.) ;
#322=ORIENTED_EDGE('',*,*,#317,.T.) ;
#350=ORIENTED_EDGE('',*,*,#338,.F.) ;
#351=ORIENTED_EDGE('',*,*,#343,.F.) ;
#352=ORIENTED_EDGE('',*,*,#274,.T.) ;
#353=ORIENTED_EDGE('',*,*,#348,.F.) ;
#372=ORIENTED_EDGE('',*,*,#365,.T.) ;
#373=ORIENTED_EDGE('',*,*,#317,.F.) ;
#374=ORIENTED_EDGE('',*,*,#370,.T.) ;
#375=ORIENTED_EDGE('',*,*,#338,.T.) ;
#384=ORIENTED_EDGE('',*,*,#312,.T.) ;
#385=ORIENTED_EDGE('',*,*,#281,.F.) ;
#386=ORIENTED_EDGE('',*,*,#343,.T.) ;
#387=ORIENTED_EDGE('',*,*,#370,.F.) ;
#404=ORIENTED_EDGE('',*,*,#397,.F.) ;
#405=ORIENTED_EDGE('',*,*,#402,.F.) ;
#408=ORIENTED_EDGE('',*,*,#65,.F.) ;
#409=ORIENTED_EDGE('',*,*,#112,.F.) ;
#418=ORIENTED_EDGE('',*,*,#348,.T.) ;
#419=ORIENTED_EDGE('',*,*,#267,.F.) ;
#420=ORIENTED_EDGE('',*,*,#305,.T.) ;
#421=ORIENTED_EDGE('',*,*,#365,.F.) ;
#438=ORIENTED_EDGE('',*,*,#431,.F.) ;
#439=ORIENTED_EDGE('',*,*,#436,.F.) ;
#442=ORIENTED_EDGE('',*,*,#169,.F.) ;
#443=ORIENTED_EDGE('',*,*,#198,.F.) ;
#444=ORIENTED_EDGE('',*,*,#222,.F.) ;
#445=ORIENTED_EDGE('',*,*,#244,.F.) ;
#464=ORIENTED_EDGE('',*,*,#402,.T.) ;
#465=ORIENTED_EDGE('',*,*,#457,.F.) ;
#466=ORIENTED_EDGE('',*,*,#431,.T.) ;
#467=ORIENTED_EDGE('',*,*,#462,.T.) ;
#471=ORIENTED_EDGE('',*,*,#397,.T.) ;
#472=ORIENTED_EDGE('',*,*,#462,.F.) ;
#473=ORIENTED_EDGE('',*,*,#436,.T.) ;
#474=ORIENTED_EDGE('',*,*,#457,.T.) ;
#406=FACE_BOUND('',#403,.T.) ;
#410=FACE_BOUND('',#407,.T.) ;
#440=FACE_BOUND('',#437,.T.) ;
#446=FACE_BOUND('',#441,.T.) ;
#51=CLOSED_SHELL('Closed Shell',(#107,#124,#155,#186,#210,#234,#253,#293,#324,#355,#377,#411,#447,#469,#476)) ;
#68=VECTOR('Line Direction',#67,1.) ;
#96=VECTOR('Line Direction',#95,1.) ;
#132=VECTOR('Line Direction',#131,1.) ;
#139=VECTOR('Line Direction',#138,1.) ;
#146=VECTOR('Line Direction',#145,1.) ;
#163=VECTOR('Line Direction',#162,1.) ;
#172=VECTOR('Line Direction',#171,1.) ;
#177=VECTOR('Line Direction',#176,1.) ;
#194=VECTOR('Line Direction',#193,1.) ;
#201=VECTOR('Line Direction',#200,1.) ;
#218=VECTOR('Line Direction',#217,1.) ;
#225=VECTOR('Line Direction',#224,1.) ;
#270=VECTOR('Line Direction',#269,1.) ;
#284=VECTOR('Line Direction',#283,1.) ;
#315=VECTOR('Line Direction',#314,1.) ;
#332=VECTOR('Line Direction',#331,1.) ;
#455=VECTOR('Line Direction',#454,1.) ;
#460=VECTOR('Line Direction',#459,1.) ;
#478=ADVANCED_BREP_SHAPE_REPRESENTATION('NONE',(#477),#46) ;
#49=SHAPE_REPRESENTATION(' ',(#48),#46) ;
#107=ADVANCED_FACE('Corps principal',(#106),#56,.F.) ;
#124=ADVANCED_FACE('Corps principal',(#123),#56,.F.) ;
#155=ADVANCED_FACE('Corps principal',(#154),#129,.T.) ;
#186=ADVANCED_FACE('Corps principal',(#185),#160,.T.) ;
#210=ADVANCED_FACE('Corps principal',(#209),#191,.T.) ;
#234=ADVANCED_FACE('Corps principal',(#233),#215,.T.) ;
#253=ADVANCED_FACE('Corps principal',(#252),#239,.F.) ;
#293=ADVANCED_FACE('Corps principal',(#292),#258,.T.) ;
#324=ADVANCED_FACE('Corps principal',(#323),#298,.T.) ;
#355=ADVANCED_FACE('Corps principal',(#354),#329,.F.) ;
#377=ADVANCED_FACE('Corps principal',(#376),#360,.T.) ;
#411=ADVANCED_FACE('Corps principal',(#388,#406,#410),#382,.T.) ;
#447=ADVANCED_FACE('Corps principal',(#422,#440,#446),#416,.T.) ;
#469=ADVANCED_FACE('Corps principal',(#468),#452,.F.) ;
#476=ADVANCED_FACE('Corps principal',(#475),#452,.F.) ;
#4=APPLICATION_PROTOCOL_DEFINITION('international standard','config_control_design',1994,#1) ;
#32=APPROVAL_DATE_TIME(#13,#21) ;
#477=MANIFOLD_SOLID_BREP('Corps principal',#51) ;
#11=CALENDAR_DATE(2016,16,5) ;
#30=CC_DESIGN_APPROVAL(#21,(#16,#6,#14)) ;
#18=CC_DESIGN_DATE_AND_TIME_ASSIGNMENT(#13,#17,(#16)) ;
#29=CC_DESIGN_DATE_AND_TIME_ASSIGNMENT(#13,#28,(#14)) ;
#17=DATE_TIME_ROLE('classification_date') ;
#28=DATE_TIME_ROLE('creation_date') ;
#27=CC_DESIGN_PERSON_AND_ORGANIZATION_ASSIGNMENT(#25,#26,(#16)) ;
#33=CC_DESIGN_PERSON_AND_ORGANIZATION_ASSIGNMENT(#25,#34,(#6)) ;
#35=CC_DESIGN_PERSON_AND_ORGANIZATION_ASSIGNMENT(#25,#36,(#6,#14)) ;
#37=CC_DESIGN_PERSON_AND_ORGANIZATION_ASSIGNMENT(#25,#38,(#5)) ;
#26=PERSON_AND_ORGANIZATION_ROLE('classification_officer') ;
#34=PERSON_AND_ORGANIZATION_ROLE('design_supplier') ;
#36=PERSON_AND_ORGANIZATION_ROLE('creator') ;
#38=PERSON_AND_ORGANIZATION_ROLE('design_owner') ;
#39=CC_DESIGN_SECURITY_CLASSIFICATION(#16,(#6)) ;
#60=CIRCLE('generated circle',#59,10.5) ;
#76=CIRCLE('generated circle',#75,10.5) ;
#83=CIRCLE('generated circle',#82,10.5) ;
#90=CIRCLE('generated circle',#89,10.5) ;
#111=CIRCLE('generated circle',#110,10.5) ;
#116=CIRCLE('generated circle',#115,10.5) ;
#243=CIRCLE('generated circle',#242,10.5) ;
#262=CIRCLE('generated circle',#261,5.) ;
#278=CIRCLE('generated circle',#277,5.) ;
#302=CIRCLE('generated circle',#301,48.) ;
#309=CIRCLE('generated circle',#308,48.) ;
#342=CIRCLE('generated circle',#341,17.) ;
#347=CIRCLE('generated circle',#346,17.) ;
#364=CIRCLE('generated circle',#363,5.) ;
#369=CIRCLE('generated circle',#368,5.) ;
#392=CIRCLE('generated circle',#391,4.) ;
#401=CIRCLE('generated circle',#400,4.) ;
#426=CIRCLE('generated circle',#425,4.) ;
#435=CIRCLE('generated circle',#434,4.) ;
#479=SHAPE_REPRESENTATION_RELATIONSHIP(' ',' ',#49,#478) ;
#56=CYLINDRICAL_SURFACE('generated cylinder',#55,10.5) ;
#239=CYLINDRICAL_SURFACE('generated cylinder',#238,10.5) ;
#258=CYLINDRICAL_SURFACE('generated cylinder',#257,5.) ;
#298=CYLINDRICAL_SURFACE('generated cylinder',#297,48.) ;
#329=CYLINDRICAL_SURFACE('generated cylinder',#328,17.) ;
#360=CYLINDRICAL_SURFACE('generated cylinder',#359,5.) ;
#452=CYLINDRICAL_SURFACE('generated cylinder',#451,4.) ;
#3=DESIGN_CONTEXT(' ',#1,'design') ;
#65=EDGE_CURVE('',#62,#64,#60,.T.) ;
#72=EDGE_CURVE('',#71,#64,#69,.T.) ;
#79=EDGE_CURVE('',#71,#78,#76,.F.) ;
#86=EDGE_CURVE('',#85,#78,#83,.T.) ;
#93=EDGE_CURVE('',#85,#92,#90,.F.) ;
#98=EDGE_CURVE('',#92,#62,#97,.T.) ;
#112=EDGE_CURVE('',#64,#62,#111,.T.) ;
#117=EDGE_CURVE('',#92,#71,#116,.F.) ;
#136=EDGE_CURVE('',#78,#135,#133,.F.) ;
#143=EDGE_CURVE('',#135,#142,#140,.F.) ;
#148=EDGE_CURVE('',#142,#85,#147,.F.) ;
#169=EDGE_CURVE('',#166,#168,#164,.F.) ;
#174=EDGE_CURVE('',#85,#168,#173,.T.) ;
#179=EDGE_CURVE('',#142,#166,#178,.T.) ;
#198=EDGE_CURVE('',#197,#166,#195,.F.) ;
#203=EDGE_CURVE('',#135,#197,#202,.T.) ;
#222=EDGE_CURVE('',#221,#197,#219,.F.) ;
#227=EDGE_CURVE('',#78,#221,#226,.T.) ;
#244=EDGE_CURVE('',#168,#221,#243,.T.) ;
#267=EDGE_CURVE('',#264,#266,#262,.F.) ;
#274=EDGE_CURVE('',#273,#266,#271,.T.) ;
#281=EDGE_CURVE('',#273,#280,#278,.T.) ;
#286=EDGE_CURVE('',#280,#264,#285,.T.) ;
#305=EDGE_CURVE('',#264,#304,#302,.F.) ;
#312=EDGE_CURVE('',#311,#280,#309,.T.) ;
#317=EDGE_CURVE('',#311,#304,#316,.F.) ;
#338=EDGE_CURVE('',#335,#337,#333,.F.) ;
#343=EDGE_CURVE('',#273,#335,#342,.F.) ;
#348=EDGE_CURVE('',#337,#266,#347,.T.) ;
#365=EDGE_CURVE('',#337,#304,#364,.F.) ;
#370=EDGE_CURVE('',#311,#335,#369,.T.) ;
#397=EDGE_CURVE('',#394,#396,#392,.T.) ;
#402=EDGE_CURVE('',#396,#394,#401,.T.) ;
#431=EDGE_CURVE('',#428,#430,#426,.T.) ;
#436=EDGE_CURVE('',#430,#428,#435,.T.) ;
#457=EDGE_CURVE('',#428,#394,#456,.F.) ;
#462=EDGE_CURVE('',#430,#396,#461,.F.) ;
#99=EDGE_LOOP('',(#100,#101,#102,#103,#104,#105)) ;
#118=EDGE_LOOP('',(#119,#120,#121,#122)) ;
#149=EDGE_LOOP('',(#150,#151,#152,#153)) ;
#180=EDGE_LOOP('',(#181,#182,#183,#184)) ;
#204=EDGE_LOOP('',(#205,#206,#207,#208)) ;
#228=EDGE_LOOP('',(#229,#230,#231,#232)) ;
#245=EDGE_LOOP('',(#246,#247,#248,#249,#250,#251)) ;
#287=EDGE_LOOP('',(#288,#289,#290,#291)) ;
#318=EDGE_LOOP('',(#319,#320,#321,#322)) ;
#349=EDGE_LOOP('',(#350,#351,#352,#353)) ;
#371=EDGE_LOOP('',(#372,#373,#374,#375)) ;
#383=EDGE_LOOP('',(#384,#385,#386,#387)) ;
#403=EDGE_LOOP('',(#404,#405)) ;
#407=EDGE_LOOP('',(#408,#409)) ;
#417=EDGE_LOOP('',(#418,#419,#420,#421)) ;
#437=EDGE_LOOP('',(#438,#439)) ;
#441=EDGE_LOOP('',(#442,#443,#444,#445)) ;
#463=EDGE_LOOP('',(#464,#465,#466,#467)) ;
#470=EDGE_LOOP('',(#471,#472,#473,#474)) ;
#106=FACE_OUTER_BOUND('',#99,.T.) ;
#123=FACE_OUTER_BOUND('',#118,.T.) ;
#154=FACE_OUTER_BOUND('',#149,.T.) ;
#185=FACE_OUTER_BOUND('',#180,.T.) ;
#209=FACE_OUTER_BOUND('',#204,.T.) ;
#233=FACE_OUTER_BOUND('',#228,.T.) ;
#252=FACE_OUTER_BOUND('',#245,.T.) ;
#292=FACE_OUTER_BOUND('',#287,.T.) ;
#323=FACE_OUTER_BOUND('',#318,.T.) ;
#354=FACE_OUTER_BOUND('',#349,.T.) ;
#376=FACE_OUTER_BOUND('',#371,.T.) ;
#388=FACE_OUTER_BOUND('',#383,.T.) ;
#422=FACE_OUTER_BOUND('',#417,.T.) ;
#468=FACE_OUTER_BOUND('',#463,.T.) ;
#475=FACE_OUTER_BOUND('',#470,.T.) ;
#45=UNCERTAINTY_MEASURE_WITH_UNIT(LENGTH_MEASURE(0.005),#41,'distance_accuracy_value','CONFUSED CURVE UNCERTAINTY') ;
#69=LINE('Line',#66,#68) ;
#97=LINE('Line',#94,#96) ;
#133=LINE('Line',#130,#132) ;
#140=LINE('Line',#137,#139) ;
#147=LINE('Line',#144,#146) ;
#164=LINE('Line',#161,#163) ;
#173=LINE('Line',#170,#172) ;
#178=LINE('Line',#175,#177) ;
#195=LINE('Line',#192,#194) ;
#202=LINE('Line',#199,#201) ;
#219=LINE('Line',#216,#218) ;
#226=LINE('Line',#223,#225) ;
#271=LINE('Line',#268,#270) ;
#285=LINE('Line',#282,#284) ;
#316=LINE('Line',#313,#315) ;
#333=LINE('Line',#330,#332) ;
#456=LINE('Line',#453,#455) ;
#461=LINE('Line',#458,#460) ;
#2=MECHANICAL_CONTEXT(' ',#1,'mechanical') ;
#24=PERSONAL_ADDRESS(' ',' ',' ',' ',' ',' ',' ',' ',' ',' ',' ',' ',(#22),' ') ;
#129=PLANE('Plane',#128) ;
#160=PLANE('Plane',#159) ;
#191=PLANE('Plane',#190) ;
#215=PLANE('Plane',#214) ;
#382=PLANE('Plane',#381) ;
#416=PLANE('Plane',#415) ;
#43=PLANE_ANGLE_MEASURE_WITH_UNIT(PLANE_ANGLE_MEASURE(0.0174532925199),#42) ;
#7=PRODUCT_CATEGORY('part',$) ;
#9=PRODUCT_CATEGORY_RELATIONSHIP(' ',' ',#7,#8) ;
#6=PRODUCT_DEFINITION_FORMATION_WITH_SPECIFIED_SOURCE('',' ',#5,.NOT_KNOWN.) ;
#8=PRODUCT_RELATED_PRODUCT_CATEGORY('detail',$,(#5)) ;
#50=SHAPE_DEFINITION_REPRESENTATION(#40,#49) ;
#62=VERTEX_POINT('',#61) ;
#64=VERTEX_POINT('',#63) ;
#71=VERTEX_POINT('',#70) ;
#78=VERTEX_POINT('',#77) ;
#85=VERTEX_POINT('',#84) ;
#92=VERTEX_POINT('',#91) ;
#135=VERTEX_POINT('',#134) ;
#142=VERTEX_POINT('',#141) ;
#166=VERTEX_POINT('',#165) ;
#168=VERTEX_POINT('',#167) ;
#197=VERTEX_POINT('',#196) ;
#221=VERTEX_POINT('',#220) ;
#264=VERTEX_POINT('',#263) ;
#266=VERTEX_POINT('',#265) ;
#273=VERTEX_POINT('',#272) ;
#280=VERTEX_POINT('',#279) ;
#304=VERTEX_POINT('',#303) ;
#311=VERTEX_POINT('',#310) ;
#335=VERTEX_POINT('',#334) ;
#337=VERTEX_POINT('',#336) ;
#394=VERTEX_POINT('',#393) ;
#396=VERTEX_POINT('',#395) ;
#428=VERTEX_POINT('',#427) ;
#430=VERTEX_POINT('',#429) ;
#41=(LENGTH_UNIT()NAMED_UNIT(*)SI_UNIT(.MILLI.,.METRE.)) ;
#42=(NAMED_UNIT(*)PLANE_ANGLE_UNIT()SI_UNIT($,.RADIAN.)) ;
#44=(NAMED_UNIT(*)SI_UNIT($,.STERADIAN.)SOLID_ANGLE_UNIT()) ;
#46=(GEOMETRIC_REPRESENTATION_CONTEXT(3)GLOBAL_UNCERTAINTY_ASSIGNED_CONTEXT((#45))GLOBAL_UNIT_ASSIGNED_CONTEXT((#41,#42,#44))REPRESENTATION_CONTEXT(' ',' ')) ;
ENDSEC;
END-ISO-10303-21;
