  0
SECTION
  2
HEADER
  9
$ACADVER
  1
AC1015
  9
$ACADMAINTVER
 70
     6
  9
$DWGCODEPAGE
  3
ANSI_1252
  9
$INSBASE
 10
0.0
 20
0.0
 30
0.0
  9
$EXTMIN
 10
-40.4076116962
 20
-20.5031849533
 30
0.0
  9
$EXTMAX
 10
39.3787813072
 20
23.5686094026
 30
0.0
  9
$LIMMIN
 10
0.0
 20
0.0
  9
$LIMMAX
 10
420.0
 20
297.0
  9
$ORTHOMODE
 70
     0
  9
$REGENMODE
 70
     1
  9
$FILLMODE
 70
     1
  9
$QTEXTMODE
 70
     0
  9
$MIRRTEXT
 70
     1
  9
$LTSCALE
 40
1.0
  9
$ATTMODE
 70
     1
  9
$TEXTSIZE
 40
3.5
  9
$TRACEWID
 40
1.0
  9
$TEXTSTYLE
  7
Standard
  9
$CLAYER
  8
0
  9
$CELTYPE
  6
ByLayer
  9
$CECOLOR
 62
   256
  9
$CELTSCALE
 40
1.0
  9
$DISPSILH
 70
     0
  9
$DIMSCALE
 40
1.0
  9
$DIMASZ
 40
3.302
  9
$DIMEXO
 40
1.0
  9
$DIMDLI
 40
3.75
  9
$DIMRND
 40
0.0
  9
$DIMDLE
 40
0.0
  9
$DIMEXE
 40
1.0
  9
$DIMTP
 40
0.0
  9
$DIMTM
 40
0.0
  9
$DIMTXT
 40
3.5
  9
$DIMCEN
 40
2.5
  9
$DIMTSZ
 40
0.0
  9
$DIMTOL
 70
     0
  9
$DIMLIM
 70
     0
  9
$DIMTIH
 70
     1
  9
$DIMTOH
 70
     1
  9
$DIMSE1
 70
     0
  9
$DIMSE2
 70
     0
  9
$DIMTAD
 70
     1
  9
$DIMZIN
 70
     0
  9
$DIMBLK
  1

  9
$DIMASO
 70
     1
  9
$DIMSHO
 70
     1
  9
$DIMPOST
  1

  9
$DIMAPOST
  1

  9
$DIMALT
 70
     0
  9
$DIMALTD
 70
     3
  9
$DIMALTF
 40
0.0393700787
  9
$DIMLFAC
 40
1.0
  9
$DIMTOFL
 70
     1
  9
$DIMTVP
 40
0.0
  9
$DIMTIX
 70
     0
  9
$DIMSOXD
 70
     0
  9
$DIMSAH
 70
     0
  9
$DIMBLK1
  1

  9
$DIMBLK2
  1

  9
$DIMSTYLE
  2
ISO-25
  9
$DIMCLRD
 70
     0
  9
$DIMCLRE
 70
     0
  9
$DIMCLRT
 70
     0
  9
$DIMTFAC
 40
1.0
  9
$DIMGAP
 40
1.524
  9
$DIMJUST
 70
     0
  9
$DIMSD1
 70
     0
  9
$DIMSD2
 70
     0
  9
$DIMTOLJ
 70
     0
  9
$DIMTZIN
 70
     0
  9
$DIMALTZ
 70
     0
  9
$DIMALTTZ
 70
     0
  9
$DIMUPT
 70
     0
  9
$DIMDEC
 70
     2
  9
$DIMTDEC
 70
     2
  9
$DIMALTU
 70
     2
  9
$DIMALTTD
 70
     3
  9
$DIMTXSTY
  7
Standard
  9
$DIMAUNIT
 70
     0
  9
$DIMADEC
 70
     2
  9
$DIMALTRND
 40
0.0
  9
$DIMAZIN
 70
     0
  9
$DIMDSEP
 70
    44
  9
$DIMATFIT
 70
     3
  9
$DIMFRAC
 70
     0
  9
$DIMLDRBLK
  1

  9
$DIMLUNIT
 70
     2
  9
$DIMLWD
 70
    -2
  9
$DIMLWE
 70
    -2
  9
$DIMTMOVE
 70
     0
  9
$LUNITS
 70
     2
  9
$LUPREC
 70
     2
  9
$SKETCHINC
 40
1.0
  9
$FILLETRAD
 40
10.0
  9
$AUNITS
 70
     0
  9
$AUPREC
 70
     2
  9
$MENU
  1
.
  9
$ELEVATION
 40
0.0
  9
$PELEVATION
 40
0.0
  9
$THICKNESS
 40
0.0
  9
$LIMCHECK
 70
     0
  9
$CHAMFERA
 40
0.0
  9
$CHAMFERB
 40
0.0
  9
$CHAMFERC
 40
0.0
  9
$CHAMFERD
 40
0.0
  9
$SKPOLY
 70
     0
  9
$TDCREATE
 40
2457497.995685903
  9
$TDUCREATE
 40
2457497.912352569
  9
$TDUPDATE
 40
2457497.996064028
  9
$TDUUPDATE
 40
2457497.912730694
  9
$TDINDWG
 40
0.0000000116
  9
$TDUSRTIMER
 40
0.0000000116
  9
$USRTIMER
 70
     1
  9
$ANGBASE
 50
0.0
  9
$ANGDIR
 70
     0
  9
$PDMODE
 70
     0
  9
$PDSIZE
 40
-1.0
  9
$PLINEWID
 40
0.0
  9
$SPLFRAME
 70
     0
  9
$SPLINETYPE
 70
     6
  9
$SPLINESEGS
 70
     8
  9
$HANDSEED
  5
12A
  9
$SURFTAB1
 70
     6
  9
$SURFTAB2
 70
     6
  9
$SURFTYPE
 70
     6
  9
$SURFU
 70
     6
  9
$SURFV
 70
     6
  9
$UCSBASE
  2

  9
$UCSNAME
  2

  9
$UCSORG
 10
0.0
 20
0.0
 30
0.0
  9
$UCSXDIR
 10
1.0
 20
0.0
 30
0.0
  9
$UCSYDIR
 10
0.0
 20
1.0
 30
0.0
  9
$UCSORTHOREF
  2

  9
$UCSORTHOVIEW
 70
     0
  9
$UCSORGTOP
 10
0.0
 20
0.0
 30
0.0
  9
$UCSORGBOTTOM
 10
0.0
 20
0.0
 30
0.0
  9
$UCSORGLEFT
 10
0.0
 20
0.0
 30
0.0
  9
$UCSORGRIGHT
 10
0.0
 20
0.0
 30
0.0
  9
$UCSORGFRONT
 10
0.0
 20
0.0
 30
0.0
  9
$UCSORGBACK
 10
0.0
 20
0.0
 30
0.0
  9
$PUCSBASE
  2

  9
$PUCSNAME
  2

  9
$PUCSORG
 10
0.0
 20
0.0
 30
0.0
  9
$PUCSXDIR
 10
1.0
 20
0.0
 30
0.0
  9
$PUCSYDIR
 10
0.0
 20
1.0
 30
0.0
  9
$PUCSORTHOREF
  2

  9
$PUCSORTHOVIEW
 70
     0
  9
$PUCSORGTOP
 10
0.0
 20
0.0
 30
0.0
  9
$PUCSORGBOTTOM
 10
0.0
 20
0.0
 30
0.0
  9
$PUCSORGLEFT
 10
0.0
 20
0.0
 30
0.0
  9
$PUCSORGRIGHT
 10
0.0
 20
0.0
 30
0.0
  9
$PUCSORGFRONT
 10
0.0
 20
0.0
 30
0.0
  9
$PUCSORGBACK
 10
0.0
 20
0.0
 30
0.0
  9
$USERI1
 70
     0
  9
$USERI2
 70
     0
  9
$USERI3
 70
     0
  9
$USERI4
 70
     0
  9
$USERI5
 70
     0
  9
$USERR1
 40
0.0
  9
$USERR2
 40
0.0
  9
$USERR3
 40
0.0
  9
$USERR4
 40
0.0
  9
$USERR5
 40
0.0
  9
$WORLDVIEW
 70
     1
  9
$SHADEDGE
 70
     3
  9
$SHADEDIF
 70
    70
  9
$TILEMODE
 70
     1
  9
$MAXACTVP
 70
    64
  9
$PINSBASE
 10
0.0
 20
0.0
 30
0.0
  9
$PLIMCHECK
 70
     0
  9
$PEXTMIN
 10
-42.0885674838
 20
-25.956429472
 30
0.0
  9
$PEXTMAX
 10
42.0885674838
 20
25.956429472
 30
0.0
  9
$PLIMMIN
 10
-48.6393172867
 20
-28.4129606481
  9
$PLIMMAX
 10
48.6393172867
 20
40.3699122826
  9
$UNITMODE
 70
     0
  9
$VISRETAIN
 70
     1
  9
$PLINEGEN
 70
     0
  9
$PSLTSCALE
 70
     1
  9
$TREEDEPTH
 70
  3020
  9
$CMLSTYLE
  2
Standard
  9
$CMLJUST
 70
     0
  9
$CMLSCALE
 40
20.0
  9
$PROXYGRAPHICS
 70
     1
  9
$MEASUREMENT
 70
     1
  9
$CELWEIGHT
370
    -1
  9
$ENDCAPS
280
     0
  9
$JOINSTYLE
280
     0
  9
$LWDISPLAY
290
     1
  9
$INSUNITS
 70
     4
  9
$HYPERLINKBASE
  1

  9
$STYLESHEET
  1

  9
$XEDIT
290
     1
  9
$CEPSNTYPE
380
     0
  9
$PSTYLEMODE
290
     1
  9
$FINGERPRINTGUID
  2
{9DAA5378-0898-4809-B707-F8D0C7962A1A}
  9
$VERSIONGUID
  2
{FAEB1C32-E019-11D5-929B-00C0DF256EC4}
  9
$EXTNAMES
290
     1
  9
$PSVPSCALE
 40
0.0
  9
$OLESTARTUP
290
     0
  0
ENDSEC
  0
SECTION
  2
CLASSES
  0
CLASS
  1
ACDBDICTIONARYWDFLT
  2
AcDbDictionaryWithDefault
  3
ObjectDBX Classes
 90
        0
280
     0
281
     0
  0
CLASS
  1
VISUALSTYLE
  2
AcDbVisualStyle
  3
ObjectDBX Classes
 90
     4095
280
     0
281
     0
  0
CLASS
  1
MATERIAL
  2
AcDbMaterial
  3
ObjectDBX Classes
 90
     1153
280
     0
281
     0
  0
CLASS
  1
SCALE
  2
AcDbScale
  3
ObjectDBX Classes
 90
     1153
280
     0
281
     0
  0
CLASS
  1
SUN
  2
AcDbSun
  3
SCENEOE
 90
     1153
280
     0
281
     0
  0
CLASS
  1
ACDBPLACEHOLDER
  2
AcDbPlaceHolder
  3
ObjectDBX Classes
 90
        0
280
     0
281
     0
  0
CLASS
  1
LAYOUT
  2
AcDbLayout
  3
ObjectDBX Classes
 90
        0
280
     0
281
     0
  0
ENDSEC
  0
SECTION
  2
TABLES
  0
TABLE
  2
VPORT
  5
8
330
0
100
AcDbSymbolTable
 70
     1
  0
VPORT
  5
29
330
8
100
AcDbSymbolTableRecord
100
AcDbViewportTableRecord
  2
*Active
 70
     0
 10
0.0
 20
0.0
 11
1.0
 21
1.0
 12
-0.5144151945
 22
1.5327122247
 13
0.0
 23
0.0
 14
10.0
 24
10.0
 15
10.0
 25
10.0
 16
0.0
 26
0.0
 36
1.0
 17
0.0
 27
0.0
 37
0.0
 40
44.953230243
 41
1.8103731461
 42
50.0
 43
0.0
 44
0.0
 50
0.0
 51
0.0
 71
     0
 72
   100
 73
     1
 74
     3
 75
     0
 76
     0
 77
     0
 78
     0
281
     0
 65
     1
110
0.0
120
0.0
130
0.0
111
1.0
121
0.0
131
0.0
112
0.0
122
1.0
132
0.0
 79
     0
146
0.0
  0
ENDTAB
  0
TABLE
  2
LTYPE
  5
5
330
0
100
AcDbSymbolTable
 70
     6
  0
LTYPE
  5
14
330
5
100
AcDbSymbolTableRecord
100
AcDbLinetypeTableRecord
  2
ByBlock
 70
     0
  3

 72
    65
 73
     0
 40
0.0
  0
LTYPE
  5
15
330
5
100
AcDbSymbolTableRecord
100
AcDbLinetypeTableRecord
  2
ByLayer
 70
     0
  3

 72
    65
 73
     0
 40
0.0
  0
LTYPE
  5
16
330
5
100
AcDbSymbolTableRecord
100
AcDbLinetypeTableRecord
  2
Continuous
 70
     0
  3
Solid line
 72
    65
 73
     0
 40
0.0
  0
LTYPE
  5
6A
330
5
100
AcDbSymbolTableRecord
100
AcDbLinetypeTableRecord
  2
HIDDEN
 70
     0
  3
Hidden __ __ __ __ __ __ __ __ __ __ __ __ __ __
 72
    65
 73
     2
 40
1.905
 49
1.27
 74
     0
 49
-0.635
 74
     0
  0
LTYPE
  5
6B
330
5
100
AcDbSymbolTableRecord
100
AcDbLinetypeTableRecord
  2
PHANTOM
 70
     0
  3
Phantom ______  __  __  ______  __  __  ______
 72
    65
 73
     6
 40
12.7
 49
6.35
 74
     0
 49
-1.27
 74
     0
 49
1.27
 74
     0
 49
-1.27
 74
     0
 49
1.27
 74
     0
 49
-1.27
 74
     0
  0
LTYPE
  5
6C
330
5
100
AcDbSymbolTableRecord
100
AcDbLinetypeTableRecord
  2
CENTER
 70
     0
  3
Center ____ _ ____ _ ____ _ ____ _ ____ _ ____
 72
    65
 73
     4
 40
10.16
 49
6.35
 74
     0
 49
-1.27
 74
     0
 49
1.27
 74
     0
 49
-1.27
 74
     0
  0
LTYPE
  5
6D
330
5
100
AcDbSymbolTableRecord
100
AcDbLinetypeTableRecord
  2
CENTERX2
 70
     0
  3
Center (2x) ________  __  ________  __  _____
 72
    65
 73
     4
 40
20.32
 49
12.7
 74
     0
 49
-2.54
 74
     0
 49
2.54
 74
     0
 49
-2.54
 74
     0
  0
LTYPE
  5
6E
330
5
100
AcDbSymbolTableRecord
100
AcDbLinetypeTableRecord
  2
DOT2
 70
     0
  3
Dot (.5x) ........................................
 72
    65
 73
     2
 40
0.635
 49
0.0
 74
     0
 49
-0.635
 74
     0
  0
ENDTAB
  0
TABLE
  2
LAYER
  5
2
330
0
100
AcDbSymbolTable
 70
     1
  0
LAYER
  5
10
330
2
100
AcDbSymbolTableRecord
100
AcDbLayerTableRecord
  2
0
 70
     0
 62
     7
  6
Continuous
370
    -3
390
F
  0
ENDTAB
  0
TABLE
  2
STYLE
  5
3
330
0
100
AcDbSymbolTable
 70
     1
  0
STYLE
  5
11
330
3
100
AcDbSymbolTableRecord
100
AcDbTextStyleTableRecord
  2
Standard
 70
     0
 40
0.0
 41
1.0
 50
0.0
 71
     0
 42
3.5
  3
txt
  4

  0
ENDTAB
  0
TABLE
  2
VIEW
  5
6
330
0
100
AcDbSymbolTable
 70
     0
  0
ENDTAB
  0
TABLE
  2
UCS
  5
7
330
0
100
AcDbSymbolTable
 70
     0
  0
ENDTAB
  0
TABLE
  2
APPID
  5
9
330
0
100
AcDbSymbolTable
 70
     1
  0
APPID
  5
12
330
9
100
AcDbSymbolTableRecord
100
AcDbRegAppTableRecord
  2
ACAD
 70
     0
  0
ENDTAB
  0
TABLE
  2
DIMSTYLE
  5
A
330
0
100
AcDbSymbolTable
 70
     1
100
AcDbDimStyleTable
  0
DIMSTYLE
105
27
330
A
100
AcDbSymbolTableRecord
100
AcDbDimStyleTableRecord
  2
ISO-25
 70
     0
 41
2.5
 42
0.625
 43
3.75
 44
1.25
 73
     0
 74
     0
 77
     1
 78
     8
140
2.5
141
2.5
143
0.0393700787
147
0.625
171
     3
172
     1
178
     0
271
     2
272
     2
274
     3
278
    44
283
     0
284
     8
340
11
  0
ENDTAB
  0
TABLE
  2
BLOCK_RECORD
  5
1
330
0
100
AcDbSymbolTable
 70
     3
  0
BLOCK_RECORD
  5
1F
330
1
100
AcDbSymbolTableRecord
100
AcDbBlockTableRecord
  2
*Model_Space
340
22
  0
BLOCK_RECORD
  5
1B
330
1
100
AcDbSymbolTableRecord
100
AcDbBlockTableRecord
  2
*Paper_Space
340
1E
  0
BLOCK_RECORD
  5
23
330
1
100
AcDbSymbolTableRecord
100
AcDbBlockTableRecord
  2
*Paper_Space0
340
26
  0
BLOCK_RECORD
  5
EA
330
1
100
AcDbSymbolTableRecord
100
AcDbBlockTableRecord
  2
*Paper_Space1
340
EB
  0
BLOCK_RECORD
  5
106
330
1
100
AcDbSymbolTableRecord
100
AcDbBlockTableRecord
  2
*Paper_Space2
340
107
  0
ENDTAB
  0
ENDSEC
  0
SECTION
  2
BLOCKS
  0
BLOCK
  5
20
330
1F
100
AcDbEntity
  8
0
100
AcDbBlockBegin
  2
*Model_Space
 70
     0
 10
0.0
 20
0.0
 30
0.0
  3
*Model_Space
  1
*Model_Space
  0
ENDBLK
  5
21
330
1F
100
AcDbEntity
  8
0
100
AcDbBlockEnd
  0
BLOCK
  5
1C
330
1B
100
AcDbEntity
 67
     1
  8
0
100
AcDbBlockBegin
  2
*Paper_Space
 70
     0
 10
0.0
 20
0.0
 30
0.0
  3
*Paper_Space
  1
*Paper_Space
  0
ENDBLK
  5
1D
330
1B
100
AcDbEntity
 67
     1
  8
0
100
AcDbBlockEnd
  0
BLOCK
  5
24
330
23
100
AcDbEntity
  8
0
100
AcDbBlockBegin
  2
*Paper_Space0
 70
     0
 10
0.0
 20
0.0
 30
0.0
  3
*Paper_Space0
  1
*Paper_Space0
  0
LINE
  5
E2
330
23
100
AcDbEntity
  8
0
  6
Continuous
 62
     7
370
    15
100
AcDbLine
 10
-42.0885674838
 20
5.0
 30
0.0
 11
-42.0885674838
 21
0.0
 31
0.0
  0
LINE
  5
E3
330
23
100
AcDbEntity
  8
0
  6
Continuous
 62
     7
370
    15
100
AcDbLine
 10
42.0885674838
 20
0.0
 30
0.0
 11
42.0885674838
 21
5.0
 31
0.0
  0
LINE
  5
E4
330
23
100
AcDbEntity
  8
0
  6
Continuous
 62
     7
370
    15
100
AcDbLine
 10
-13.072346317
 20
5.0
 30
0.0
 11
-13.072346317
 21
0.0
 31
0.0
  0
LINE
  5
E5
330
23
100
AcDbEntity
  8
0
  6
Continuous
 62
     7
370
    15
100
AcDbLine
 10
13.072346317
 20
5.0
 30
0.0
 11
13.072346317
 21
0.0
 31
0.0
  0
LINE
  5
E6
330
23
100
AcDbEntity
  8
0
  6
Continuous
 62
     7
370
    15
100
AcDbLine
 10
-42.0885674838
 20
0.0
 30
0.0
 11
42.0885674838
 21
0.0
 31
0.0
  0
LINE
  5
E7
330
23
100
AcDbEntity
  8
0
  6
Continuous
 62
     7
370
    15
100
AcDbLine
 10
-42.0885674838
 20
5.0
 30
0.0
 11
42.0885674838
 21
5.0
 31
0.0
  0
LINE
  5
E8
330
23
100
AcDbEntity
  8
0
  6
Continuous
 62
     7
370
    15
100
AcDbLine
 10
37.3290568997
 20
5.0
 30
0.0
 11
37.3290568997
 21
0.0
 31
0.0
  0
LINE
  5
E9
330
23
100
AcDbEntity
  8
0
  6
Continuous
 62
     7
370
    15
100
AcDbLine
 10
-37.3290568997
 20
5.0
 30
0.0
 11
-37.3290568997
 21
0.0
 31
0.0
  0
VIEWPORT
  5
124
330
23
100
AcDbEntity
  8
0
100
AcDbViewport
 10
0.0
 20
0.0
 30
0.0
 40
205.6
 41
156.0
 68
     1
 69
     1
 12
-0.5144151945
 22
1.5327122247
 13
0.0
 23
0.0
 14
10.0
 24
10.0
 15
10.0
 25
10.0
 16
0.0
 26
0.0
 36
1.0
 17
0.0
 27
0.0
 37
0.0
 42
50.0
 43
0.0
 44
0.0
 45
61.7490800326
 50
0.0
 51
0.0
 72
   100
 90
   557152
  1

281
     0
 71
     1
 74
     0
110
0.0
120
0.0
130
0.0
111
1.0
121
0.0
131
0.0
112
0.0
122
1.0
132
0.0
 79
     0
146
0.0
  0
ENDBLK
  5
25
330
23
100
AcDbEntity
  8
0
100
AcDbBlockEnd
  0
BLOCK
  5
EC
330
EA
100
AcDbEntity
  8
0
100
AcDbBlockBegin
  2
*Paper_Space1
 70
     0
 10
0.0
 20
0.0
 30
0.0
  3
*Paper_Space1
  1
*Paper_Space1
  0
LINE
  5
FE
330
EA
100
AcDbEntity
  8
0
  6
Continuous
 62
     7
370
    15
100
AcDbLine
 10
-42.0885674838
 20
5.0
 30
0.0
 11
-42.0885674838
 21
0.0
 31
0.0
  0
LINE
  5
FF
330
EA
100
AcDbEntity
  8
0
  6
Continuous
 62
     7
370
    15
100
AcDbLine
 10
42.0885674838
 20
0.0
 30
0.0
 11
42.0885674838
 21
5.0
 31
0.0
  0
LINE
  5
100
330
EA
100
AcDbEntity
  8
0
  6
Continuous
 62
     7
370
    15
100
AcDbLine
 10
-13.072346317
 20
5.0
 30
0.0
 11
-13.072346317
 21
0.0
 31
0.0
  0
LINE
  5
101
330
EA
100
AcDbEntity
  8
0
  6
Continuous
 62
     7
370
    15
100
AcDbLine
 10
13.072346317
 20
5.0
 30
0.0
 11
13.072346317
 21
0.0
 31
0.0
  0
LINE
  5
102
330
EA
100
AcDbEntity
  8
0
  6
Continuous
 62
     7
370
    15
100
AcDbLine
 10
-42.0885674838
 20
0.0
 30
0.0
 11
42.0885674838
 21
0.0
 31
0.0
  0
LINE
  5
103
330
EA
100
AcDbEntity
  8
0
  6
Continuous
 62
     7
370
    15
100
AcDbLine
 10
-42.0885674838
 20
5.0
 30
0.0
 11
42.0885674838
 21
5.0
 31
0.0
  0
LINE
  5
104
330
EA
100
AcDbEntity
  8
0
  6
Continuous
 62
     7
370
    15
100
AcDbLine
 10
37.3290568997
 20
5.0
 30
0.0
 11
37.3290568997
 21
0.0
 31
0.0
  0
LINE
  5
105
330
EA
100
AcDbEntity
  8
0
  6
Continuous
 62
     7
370
    15
100
AcDbLine
 10
-37.3290568997
 20
5.0
 30
0.0
 11
-37.3290568997
 21
0.0
 31
0.0
  0
VIEWPORT
  5
126
330
EA
100
AcDbEntity
  8
0
100
AcDbViewport
 10
0.0
 20
0.0
 30
0.0
 40
205.6
 41
156.0
 68
     1
 69
     1
 12
-0.5144151945
 22
1.5327122247
 13
0.0
 23
0.0
 14
10.0
 24
10.0
 15
10.0
 25
10.0
 16
0.0
 26
0.0
 36
1.0
 17
0.0
 27
0.0
 37
0.0
 42
50.0
 43
0.0
 44
0.0
 45
61.7490800326
 50
0.0
 51
0.0
 72
   100
 90
   557152
  1

281
     0
 71
     1
 74
     0
110
0.0
120
0.0
130
0.0
111
1.0
121
0.0
131
0.0
112
0.0
122
1.0
132
0.0
 79
     0
146
0.0
  0
ENDBLK
  5
ED
330
EA
100
AcDbEntity
  8
0
100
AcDbBlockEnd
  0
BLOCK
  5
108
330
106
100
AcDbEntity
  8
0
100
AcDbBlockBegin
  2
*Paper_Space2
 70
     0
 10
0.0
 20
0.0
 30
0.0
  3
*Paper_Space2
  1
*Paper_Space2
  0
LINE
  5
11A
330
106
100
AcDbEntity
  8
0
  6
Continuous
 62
     7
370
    15
100
AcDbLine
 10
25.956429472
 20
0.0
 30
0.0
 11
25.956429472
 21
5.0
 31
0.0
  0
LINE
  5
11B
330
106
100
AcDbEntity
  8
0
  6
Continuous
 62
     7
370
    15
100
AcDbLine
 10
-25.956429472
 20
5.0
 30
0.0
 11
-25.956429472
 21
0.0
 31
0.0
  0
LINE
  5
11C
330
106
100
AcDbEntity
  8
0
  6
Continuous
 62
     7
370
    15
100
AcDbLine
 10
-8.2837694229
 20
5.0
 30
0.0
 11
-8.2837694229
 21
0.0
 31
0.0
  0
LINE
  5
11D
330
106
100
AcDbEntity
  8
0
  6
Continuous
 62
     7
370
    15
100
AcDbLine
 10
8.2837694229
 20
5.0
 30
0.0
 11
8.2837694229
 21
0.0
 31
0.0
  0
LINE
  5
11E
330
106
100
AcDbEntity
  8
0
  6
Continuous
 62
     7
370
    15
100
AcDbLine
 10
-25.956429472
 20
0.0
 30
0.0
 11
25.956429472
 21
0.0
 31
0.0
  0
LINE
  5
11F
330
106
100
AcDbEntity
  8
0
  6
Continuous
 62
     7
370
    15
100
AcDbLine
 10
-25.956429472
 20
5.0
 30
0.0
 11
25.956429472
 21
5.0
 31
0.0
  0
LINE
  5
120
330
106
100
AcDbEntity
  8
0
  6
Continuous
 62
     7
370
    15
100
AcDbLine
 10
22.4243169952
 20
5.0
 30
0.0
 11
22.4243169952
 21
0.0
 31
0.0
  0
LINE
  5
121
330
106
100
AcDbEntity
  8
0
  6
Continuous
 62
     7
370
    15
100
AcDbLine
 10
-22.4243169952
 20
5.0
 30
0.0
 11
-22.4243169952
 21
0.0
 31
0.0
  0
VIEWPORT
  5
128
330
106
100
AcDbEntity
  8
0
100
AcDbViewport
 10
0.0
 20
0.0
 30
0.0
 40
205.6
 41
156.0
 68
     1
 69
     1
 12
-0.5144151945
 22
1.5327122247
 13
0.0
 23
0.0
 14
10.0
 24
10.0
 15
10.0
 25
10.0
 16
0.0
 26
0.0
 36
1.0
 17
0.0
 27
0.0
 37
0.0
 42
50.0
 43
0.0
 44
0.0
 45
61.7490800326
 50
0.0
 51
0.0
 72
   100
 90
   557152
  1

281
     0
 71
     1
 74
     0
110
0.0
120
0.0
130
0.0
111
1.0
121
0.0
131
0.0
112
0.0
122
1.0
132
0.0
 79
     0
146
0.0
  0
ENDBLK
  5
109
330
106
100
AcDbEntity
  8
0
100
AcDbBlockEnd
  0
ENDSEC
  0
SECTION
  2
ENTITIES
  0
LWPOLYLINE
  5
72
330
1F
100
AcDbEntity
  8
0
  6
Continuous
 62
     7
370
    15
100
AcDbPolyline
 90
       26
 70
   128
 43
0.0
 10
23.8112243457
 20
-4.3548479042
 10
23.3022263962
 20
-4.2496787766
 10
22.8243425341
 20
-4.0909585756
 10
22.3851092731
 20
-3.8811904136
 10
21.9914535843
 20
-3.6236824599
 10
21.649583653
 20
-3.3224957686
 10
21.3648909723
 20
-2.9823802339
 10
21.1418653158
 20
-2.6086996808
 10
20.9840239312
 20
-2.207347275
 10
20.8938560716
 20
-1.7846525836
 10
20.872783738
 20
-1.3472817544
 10
20.9211392536
 20
-0.9021323867
 10
21.0381600231
 20
-0.4562247519
 10
21.2220005591
 20
-0.0165910798
 10
21.4697615864
 20
0.409835344
 10
21.7775357657
 20
0.81632952
 10
22.1404693142
 20
1.1964807923
 10
22.5528385532
 20
1.5442939482
 10
23.0081401734
 20
1.8542837664
 10
23.4991937963
 20
2.1215615224
 10
24.0182552128
 20
2.3419120863
 10
24.5571385144
 20
2.511860398
 10
25.1073451895
 20
2.6287262712
 10
25.6601981502
 20
2.6906666611
 10
26.206978575
 20
2.696704731
 10
26.7390634099
 20
2.6467452567
  0
LWPOLYLINE
  5
74
330
1F
100
AcDbEntity
  8
0
  6
Continuous
 62
     7
370
    15
100
AcDbPolyline
 90
       26
 70
   128
 43
0.0
 10
30.4308492719
 20
2.0966433939
 10
30.9398472213
 20
1.9914742663
 10
31.4177310835
 20
1.8327540653
 10
31.8569643444
 20
1.6229859033
 10
32.2506200332
 20
1.3654779496
 10
32.5924899645
 20
1.0642912583
 10
32.8771826453
 20
0.7241757235
 10
33.1002083018
 20
0.3504951705
 10
33.2580496863
 20
-0.0508572353
 10
33.3482175459
 20
-0.4735519267
 10
33.3692898795
 20
-0.9109227559
 10
33.3209343639
 20
-1.3560721236
 10
33.2039135944
 20
-1.8019797584
 10
33.0200730585
 20
-2.2416134305
 10
32.7723120312
 20
-2.6680398543
 10
32.4645378519
 20
-3.0745340303
 10
32.1016043033
 20
-3.4546853026
 10
31.6892350643
 20
-3.8024984585
 10
31.2339334442
 20
-4.1124882767
 10
30.7428798213
 20
-4.3797660327
 10
30.2238184048
 20
-4.6001165966
 10
29.6849351031
 20
-4.7700649083
 10
29.134728428
 20
-4.8869307815
 10
28.5818754674
 20
-4.9488711715
 10
28.0350950426
 20
-4.9549092413
 10
27.5030102077
 20
-4.9049497671
  0
LWPOLYLINE
  5
75
330
1F
100
AcDbEntity
  8
0
  6
Continuous
 62
     7
370
    15
100
AcDbPolyline
 90
       26
 70
   128
 43
0.0
 10
-28.796724188
 20
3.484103642
 10
-28.2646393531
 20
3.4341441677
 10
-27.7178589283
 20
3.4401822376
 10
-27.1650059676
 20
3.5021226276
 10
-26.6147992925
 20
3.6189885007
 10
-26.0759159909
 20
3.7889368124
 10
-25.5568545744
 20
4.0092873763
 10
-25.0658009515
 20
4.2765651323
 10
-24.6104993313
 20
4.5865549506
 10
-24.1981300923
 20
4.9343681065
 10
-23.8351965438
 20
5.3145193787
 10
-23.5274223645
 20
5.7210135548
 10
-23.2796613372
 20
6.1474399786
 10
-23.0958208013
 20
6.5870736507
 10
-22.9788000318
 20
7.0329812855
 10
-22.9304445161
 20
7.4781306532
 10
-22.9515168498
 20
7.9155014823
 10
-23.0416847093
 20
8.3381961737
 10
-23.1995260939
 20
8.7395485796
 10
-23.4225517504
 20
9.1132291326
 10
-23.7072444312
 20
9.4533446673
 10
-24.0491143625
 20
9.7545313586
 10
-24.4427700513
 20
10.0120393124
 10
-24.8820033122
 20
10.2218074743
 10
-25.3598871744
 20
10.3805276753
 10
-25.8688851238
 20
10.4856968029
  0
LWPOLYLINE
  5
77
330
1F
100
AcDbEntity
  8
0
  6
Continuous
 62
     7
370
    15
100
AcDbPolyline
 90
       26
 70
   128
 43
0.0
 10
-29.5606709858
 20
11.0357986658
 10
-30.0927558207
 20
11.08575814
 10
-30.6395362455
 20
11.0797200702
 10
-31.1923892062
 20
11.0177796802
 10
-31.7425958813
 20
10.900913807
 10
-32.2814791829
 20
10.7309654953
 10
-32.8005405994
 20
10.5106149315
 10
-33.2915942223
 20
10.2433371755
 10
-33.7468958425
 20
9.9333473572
 10
-34.1592650815
 20
9.5855342013
 10
-34.52219863
 20
9.205382929
 10
-34.8299728093
 20
8.798888753
 10
-35.0777338366
 20
8.3724623292
 10
-35.2615743725
 20
7.9328286571
 10
-35.378595142
 20
7.4869210223
 10
-35.4269506577
 20
7.0417716546
 10
-35.405878324
 20
6.6044008254
 10
-35.3157104645
 20
6.181706134
 10
-35.1578690799
 20
5.7803537282
 10
-34.9348434234
 20
5.4066731752
 10
-34.6501507426
 20
5.0665576404
 10
-34.3082808113
 20
4.7653709492
 10
-33.9146251225
 20
4.5078629954
 10
-33.4753918616
 20
4.2980948334
 10
-32.9975079994
 20
4.1393746325
 10
-32.48851005
 20
4.0342055049
  0
LWPOLYLINE
  5
7A
330
1F
100
AcDbEntity
  8
0
  6
Continuous
 62
     7
370
    15
100
AcDbPolyline
 90
       25
 70
   128
 43
0.0
 10
-32.7867133246
 20
14.6435185331
 10
-33.5801194679
 20
14.389460309
 10
-34.354231819
 20
14.0836521358
 10
-35.1032059664
 20
13.7284028112
 10
-35.8213872873
 20
13.326394405
 10
-36.5033536398
 20
12.8806620095
 10
-37.1439562983
 20
12.3945708256
 10
-37.7383588259
 20
11.871790756
 10
-38.2820735884
 20
11.3162686978
 10
-38.7709956354
 20
10.7321987444
 10
-39.2014336918
 20
10.1239905209
 10
-39.5701380263
 20
9.496235892
 10
-39.8743249863
 20
8.8536742941
 10
-40.111698014
 20
8.201156954
 10
-40.2804649848
 20
7.5436102623
 10
-40.3793517381
 20
6.8859985803
 10
-40.4076116962
 20
6.2332867602
 10
-40.3650315016
 20
5.5904026609
 10
-40.251932627
 20
4.9621999439
 10
-40.0691689491
 20
4.3534214286
 10
-39.8181203014
 20
3.7686632854
 10
-39.5006820567
 20
3.2123403351
 10
-39.1192508179
 20
2.6886527175
 10
-38.6767063233
 20
2.2015541818
 10
-38.1763897058
 20
1.7547222358
  0
LWPOLYLINE
  5
7C
330
1F
100
AcDbEntity
  8
0
  6
Continuous
 62
     7
370
    15
100
AcDbPolyline
 90
       21
 70
   128
 43
0.0
 10
18.3312222498
 20
18.7127488798
 10
17.4367762901
 20
19.3901494355
 10
16.4909037795
 20
20.0220857768
 10
15.4962389645
 20
20.6067979666
 10
14.4555519778
 20
21.1426575866
 10
13.3717411235
 20
21.6281722726
 10
12.2478248051
 20
22.0619898704
 10
11.0869331197
 20
22.4429022019
 10
9.8922991404
 20
22.7698484296
 10
8.6672499121
 20
23.0419180112
 10
7.4151971861
 20
23.2583532353
 10
6.1396279181
 20
23.4185513316
 10
4.8440945573
 20
23.52206615
 10
3.5322051526
 20
23.5686094026
 10
2.2076133043
 20
23.5580514669
 10
0.874007989
 20
23.4904217465
 10
-0.4648967143
 20
23.3659085897
 10
-1.8053719679
 20
23.1848587644
 10
-3.14368456
 20
22.947776493
 10
-4.4761073021
 20
22.6553220473
 10
-5.7989294085
 20
22.3083099105
  0
LWPOLYLINE
  5
7E
330
1F
100
AcDbEntity
  8
0
  6
Continuous
 62
     7
370
    15
100
AcDbPolyline
 90
       25
 70
   128
 43
0.0
 10
36.1187289276
 20
4.3761266629
 10
36.6190455452
 20
3.9292947169
 10
37.0615900397
 20
3.4421961812
 10
37.4430212786
 20
2.9185085637
 10
37.7604595232
 20
2.3621856133
 10
38.011508171
 20
1.7774274701
 10
38.1942718489
 20
1.1686489548
 10
38.3073707234
 20
0.5404462378
 10
38.3499509181
 20
-0.1024378615
 10
38.32169096
 20
-0.7551496816
 10
38.2228042067
 20
-1.4127613636
 10
38.0540372358
 20
-2.0703080553
 10
37.8166642082
 20
-2.7228253954
 10
37.5124772482
 20
-3.3653869933
 10
37.1437729137
 20
-3.9931416222
 10
36.7133348573
 20
-4.6013498457
 10
36.2244128102
 20
-5.185419799
 10
35.6806980477
 20
-5.7409418572
 10
35.0862955202
 20
-6.2637219269
 10
34.4456928617
 20
-6.7498131107
 10
33.7637265092
 20
-7.1955455062
 10
33.0455451882
 20
-7.5975539125
 10
32.2965710409
 20
-7.9528032371
 10
31.5224586898
 20
-8.2586114103
 10
30.7290525465
 20
-8.5126696344
  0
LWPOLYLINE
  5
80
330
1F
100
AcDbEntity
  8
0
  6
Continuous
 62
     7
370
    15
100
AcDbPolyline
 90
       21
 70
   128
 43
0.0
 10
-20.3888830279
 20
-12.5818999811
 10
-19.4944370682
 20
-13.2593005368
 10
-18.5485645576
 20
-13.8912368781
 10
-17.5538997426
 20
-14.4759490679
 10
-16.5132127559
 20
-15.0118086879
 10
-15.4294019016
 20
-15.4973233739
 10
-14.3054855832
 20
-15.9311409717
 10
-13.1445938978
 20
-16.3120533032
 10
-11.9499599185
 20
-16.6389995309
 10
-10.7249106902
 20
-16.9110691125
 10
-9.4728579642
 20
-17.1275043365
 10
-8.1972886962
 20
-17.2877024329
 10
-6.9017553354
 20
-17.3912172513
 10
-5.5898659307
 20
-17.4377605039
 10
-4.2652740824
 20
-17.4272025681
 10
-2.9316687671
 20
-17.3595728478
 10
-1.5927640638
 20
-17.2350596909
 10
-0.2522888102
 20
-17.0540098657
 10
1.0860237819
 20
-16.8169275943
 10
2.418446524
 20
-16.5244731486
 10
3.7412686304
 20
-16.1774610118
  0
LWPOLYLINE
  5
81
330
1F
100
AcDbEntity
  8
0
  6
Continuous
 62
     7
370
    15
100
AcDbPolyline
 90
      107
 70
   128
 43
0.0
 10
-7.3724816949
 20
-12.104694066
 10
-8.4275211401
 20
-11.9191829174
 10
-9.4565724142
 20
-11.6810377889
 10
-10.4560209371
 20
-11.3910951739
 10
-11.4223561094
 20
-11.0503735065
 10
-12.3521836435
 20
-10.660069584
 10
-13.2422374863
 20
-10.2215543631
 10
-14.0893912913
 20
-9.7363681446
 10
-14.8906693997
 20
-9.2062151626
 10
-15.6432572931
 20
-8.632957599
 10
-16.3445114789
 20
-8.0186090417
 10
-16.9919687764
 20
-7.3653274126
 10
-17.583354968
 20
-6.6754073871
 10
-18.1165927883
 20
-5.9512723345
 10
-18.58980922
 20
-5.1954658057
 10
-19.001342073
 20
-4.4106425985
 10
-19.3497458233
 20
-3.5995594331
 10
-19.6337966899
 20
-2.7650652688
 10
-19.8524969339
 20
-1.9100912967
 10
-20.0050783626
 20
-1.0376406441
 10
-20.0910050282
 20
-0.1507778257
 10
-20.1099751101
 20
0.7473820205
 10
-20.0619219753
 20
1.6536840752
 10
-19.9470144121
 20
2.5649449195
 10
-19.7656560376
 20
3.4779637165
 10
-19.5184838797
 20
4.3895334542
 10
-19.2063661395
 20
5.2964522107
 10
-18.830399142
 20
6.1955344008
 10
-18.391903485
 20
7.0836219656
 10
-17.8924194005
 20
7.9575954651
 10
-17.3337013446
 20
8.8143850354
 10
-16.7177118348
 20
9.650981172
 10
-16.0466145568
 20
10.4644453004
 10
-15.3227667641
 20
11.2519200983
 10
-14.5487109985
 20
12.0106395316
 10
-13.7271661593
 20
12.7379385707
 10
-12.8610179525
 20
13.4312625511
 10
-11.9533087554
 20
14.0881761472
 10
-11.0072269296
 20
14.7063719259
 10
-10.026095622
 20
15.2836784521
 10
-9.0133610921
 20
15.8180679154
 10
-7.972580607
 20
16.3076632535
 10
-6.9074099459
 20
16.7507447448
 10
-5.8215905598
 20
17.1457560494
 10
-4.7189364287
 20
17.4913096758
 10
-3.6033206656
 20
17.7861918542
 10
-2.4786619116
 20
18.0293668002
 10
-1.3489105714
 20
18.2199803529
 10
-0.2180349379
 20
18.3573629753
 10
0.909992747
 20
18.4410321059
 10
2.031210245
 20
18.4706938539
 10
3.1416792386
 20
18.4462440312
 10
4.237499165
 20
18.3677685188
 10
5.3148209168
 20
18.2355429647
 10
6.369860362
 20
18.0500318161
 10
7.3989116361
 20
17.8118866876
 10
8.398360159
 20
17.5219440726
 10
9.3646953313
 20
17.1812224053
 10
10.2945228654
 20
16.7909184827
 10
11.1845767082
 20
16.3524032619
 10
12.0317305131
 20
15.8672170433
 10
12.8330086216
 20
15.3370640613
 10
13.5855965149
 20
14.7638064977
 10
14.2868507008
 20
14.1494579404
 10
14.9343079982
 20
13.4961763113
 10
15.5256941899
 20
12.8062562858
 10
16.0589320102
 20
12.0821212333
 10
16.5321484419
 20
11.3263147044
 10
16.9436812949
 20
10.5414914972
 10
17.2920850452
 20
9.7304083319
 10
17.5761359118
 20
8.8959141676
 10
17.7948361558
 20
8.0409401955
 10
17.9474175845
 20
7.1684895429
 10
18.03334425
 20
6.2816267245
 10
18.052314332
 20
5.3834668783
 10
18.0042611972
 20
4.4771648235
 10
17.889353634
 20
3.5659039792
 10
17.7079952595
 20
2.6528851823
 10
17.4608231015
 20
1.7413154446
 10
17.1487053613
 20
0.834396688
 10
16.7727383639
 20
-0.0646855021
 10
16.3342427069
 20
-0.9527730669
 10
15.8347586224
 20
-1.8267465663
 10
15.2760405665
 20
-2.6835361367
 10
14.6600510567
 20
-3.5201322733
 10
13.9889537786
 20
-4.3335964017
 10
13.2651059859
 20
-5.1210711996
 10
12.4910502204
 20
-5.8797906329
 10
11.6695053812
 20
-6.607089672
 10
10.8033571744
 20
-7.3004136524
 10
9.8956479773
 20
-7.9573272485
 10
8.9495661515
 20
-8.5755230272
 10
7.9684348439
 20
-9.1528295534
 10
6.955700314
 20
-9.6872190167
 10
5.9149198288
 20
-10.1768143548
 10
4.8497491678
 20
-10.6198958461
 10
3.7639297817
 20
-11.0149071507
 10
2.6612756506
 20
-11.3604607771
 10
1.5456598875
 20
-11.6553429555
 10
0.4210011334
 20
-11.8985179015
 10
-0.7087502067
 20
-12.0891314542
 10
-1.8396258402
 20
-12.2265140766
 10
-2.9676535251
 20
-12.3101832072
 10
-4.0888710231
 20
-12.3398449552
 10
-5.1993400167
 20
-12.3153951325
 10
-6.2951599431
 20
-12.2369196201
 10
-7.3724816949
 20
-12.104694066
  0
LWPOLYLINE
  5
85
330
1F
100
AcDbEntity
  8
0
  6
Continuous
 62
     7
370
    15
100
AcDbPolyline
 90
       20
 70
   128
 43
0.0
 10
39.0860074961
 20
-1.4186713455
 10
39.223102238
 20
-1.8967754945
 10
39.3362011125
 20
-2.5249782116
 10
39.3787813072
 20
-3.1678623109
 10
39.350521349
 20
-3.820574131
 10
39.2516345958
 20
-4.4781858129
 10
39.0828676249
 20
-5.1357325047
 10
38.8454945972
 20
-5.7882498448
 10
38.5413076372
 20
-6.4308114426
 10
38.1726033027
 20
-7.0585660716
 10
37.7421652463
 20
-7.6667742951
 10
37.2532431993
 20
-8.2508442484
 10
36.7095284368
 20
-8.8063663066
 10
36.1151259093
 20
-9.3291463762
 10
35.4745232508
 20
-9.8152375601
 10
34.7925568983
 20
-10.2609699556
 10
34.0743755773
 20
-10.6629783619
 10
33.32540143
 20
-11.0182276864
 10
32.5512890789
 20
-11.3240358596
 10
31.7578829355
 20
-11.5780940837
  0
LWPOLYLINE
  5
87
330
1F
100
AcDbEntity
  8
0
  6
Continuous
 62
     7
370
    15
100
AcDbPolyline
 90
       21
 70
   128
 43
0.0
 10
-19.3600526388
 20
-15.6473244305
 10
-18.4656066791
 20
-16.3247249862
 10
-17.5197341685
 20
-16.9566613275
 10
-16.5250693535
 20
-17.5413735173
 10
-15.4843823668
 20
-18.0772331373
 10
-14.4005715125
 20
-18.5627478233
 10
-13.2766551942
 20
-18.9965654211
 10
-12.1157635088
 20
-19.3774777526
 10
-10.9211295294
 20
-19.7044239803
 10
-9.6960803011
 20
-19.9764935618
 10
-8.4440275751
 20
-20.1929287859
 10
-7.1684583072
 20
-20.3531268823
 10
-5.8729249464
 20
-20.4566417007
 10
-4.5610355416
 20
-20.5031849533
 10
-3.2364436933
 20
-20.4926270175
 10
-1.9028383781
 20
-20.4249972971
 10
-0.5639336748
 20
-20.3004841403
 10
0.7765415788
 20
-20.1194343151
 10
2.114854171
 20
-19.8823520436
 10
3.447276913
 20
-19.589897598
 10
4.7700990194
 20
-19.2428854611
  0
LWPOLYLINE
  5
88
330
1F
100
AcDbEntity
  8
0
  6
Continuous
 62
     7
370
    15
100
AcDbPolyline
 90
       51
 70
   128
 43
0.0
 10
-18.8914590489
 20
-4.635066982
 10
-18.9762479735
 20
-4.1030650935
 10
-19.0621746391
 20
-3.2162022751
 10
-19.081144721
 20
-2.3180424289
 10
-19.0330915862
 20
-1.4117403741
 10
-18.9181840231
 20
-0.5004795298
 10
-18.7368256486
 20
0.4125392671
 10
-18.4896534906
 20
1.3241090048
 10
-18.1775357504
 20
2.2310277613
 10
-17.8015687529
 20
3.1301099515
 10
-17.363073096
 20
4.0181975162
 10
-16.8635890115
 20
4.8921710157
 10
-16.3048709556
 20
5.748960586
 10
-15.6888814458
 20
6.5855567226
 10
-15.0177841677
 20
7.3990208511
 10
-14.293936375
 20
8.1864956489
 10
-13.5198806095
 20
8.9452150822
 10
-12.6983357702
 20
9.6725141213
 10
-11.8321875635
 20
10.3658381018
 10
-10.9244783663
 20
11.0227516979
 10
-9.9783965405
 20
11.6409474766
 10
-8.9972652329
 20
12.2182540027
 10
-7.9845307031
 20
12.7526434661
 10
-6.9437502179
 20
13.2422388041
 10
-5.8785795569
 20
13.6853202954
 10
-4.7927601707
 20
14.0803316001
 10
-3.6901060397
 20
14.4258852265
 10
-2.5744902766
 20
14.7207674048
 10
-1.4498315225
 20
14.9639423508
 10
-0.3200801823
 20
15.1545559035
 10
0.8107954512
 20
15.291938526
 10
1.9388231361
 20
15.3756076566
 10
3.060040634
 20
15.4052694045
 10
4.1705096276
 20
15.3808195818
 10
5.266329554
 20
15.3023440694
 10
6.3436513058
 20
15.1701185153
 10
7.3986907511
 20
14.9846073667
 10
8.4277420252
 20
14.7464622382
 10
9.4271905481
 20
14.4565196233
 10
10.3935257203
 20
14.1157979559
 10
11.3233532544
 20
13.7254940334
 10
12.2134070972
 20
13.2869788125
 10
13.0605609022
 20
12.8017925939
 10
13.8618390106
 20
12.271639612
 10
14.614426904
 20
11.6983820483
 10
15.3156810899
 20
11.0840334911
 10
15.9631383873
 20
10.4307518619
 10
16.554524579
 20
9.7408318365
 10
17.0877623993
 20
9.0166967839
 10
17.5609788309
 20
8.260890255
 10
17.8626286599
 20
7.7004914314
  0
LINE
  5
96
330
1F
100
AcDbEntity
  8
0
  6
Continuous
 62
     7
370
    15
100
AcDbLine
 10
39.0860074961
 20
-1.4186713455
 30
0.0
 11
38.057177107
 21
1.6467531039
 31
0.0
  0
LINE
  5
97
330
1F
100
AcDbEntity
  8
0
  6
Continuous
 62
     7
370
    15
100
AcDbLine
 10
-40.1148378852
 20
4.4840957949
 30
0.0
 11
-39.0860074961
 21
1.4186713455
 31
0.0
  0
LINE
  5
98
330
1F
100
AcDbEntity
  8
0
  6
Continuous
 62
     7
370
    15
100
AcDbLine
 10
26.7390634099
 20
2.6467452567
 30
0.0
 11
30.4308492719
 21
2.0966433939
 31
0.0
  0
LINE
  5
99
330
1F
100
AcDbEntity
  8
0
  6
Continuous
 62
     7
370
    15
100
AcDbLine
 10
27.5030102077
 20
-4.9049497671
 30
0.0
 11
23.8112243457
 21
-4.3548479042
 31
0.0
  0
LINE
  5
9A
330
1F
100
AcDbEntity
  8
0
  6
Continuous
 62
     7
370
    15
100
AcDbLine
 10
-25.8688851238
 20
10.4856968029
 30
0.0
 11
-29.5606709858
 21
11.0357986658
 31
0.0
  0
LINE
  5
9B
330
1F
100
AcDbEntity
  8
0
  6
Continuous
 62
     7
370
    15
100
AcDbLine
 10
-32.48851005
 20
4.0342055049
 30
0.0
 11
-28.796724188
 21
3.484103642
 31
0.0
  0
LINE
  5
9C
330
1F
100
AcDbEntity
  8
0
  6
Continuous
 62
     7
370
    15
100
AcDbLine
 10
-38.1763897058
 20
1.7547222358
 30
0.0
 11
-20.3888830279
 21
-12.5818999811
 31
0.0
  0
LINE
  5
9D
330
1F
100
AcDbEntity
  8
0
  6
Continuous
 62
     7
370
    15
100
AcDbLine
 10
-5.7989294085
 20
22.3083099105
 30
0.0
 11
-32.7867133246
 21
14.6435185331
 31
0.0
  0
LINE
  5
9E
330
1F
100
AcDbEntity
  8
0
  6
Continuous
 62
     7
370
    15
100
AcDbLine
 10
18.3312222498
 20
18.7127488798
 30
0.0
 11
36.1187289276
 21
4.3761266629
 31
0.0
  0
LINE
  5
9F
330
1F
100
AcDbEntity
  8
0
  6
Continuous
 62
     7
370
    15
100
AcDbLine
 10
30.7290525465
 20
-8.5126696344
 30
0.0
 11
3.7412686304
 21
-16.1774610118
 31
0.0
  0
LINE
  5
A0
330
1F
100
AcDbEntity
  8
0
  6
Continuous
 62
     7
370
    15
100
AcDbLine
 10
3.7412686304
 20
-16.1774610118
 30
0.0
 11
4.7700990194
 21
-19.2428854611
 31
0.0
  0
LINE
  5
A1
330
1F
100
AcDbEntity
  8
0
  6
Continuous
 62
     7
370
    15
100
AcDbLine
 10
30.7290525465
 20
-8.5126696344
 30
0.0
 11
31.7578829355
 21
-11.5780940837
 31
0.0
  0
LINE
  5
A2
330
1F
100
AcDbEntity
  8
0
  6
Continuous
 62
     7
370
    15
100
AcDbLine
 10
31.7578829355
 20
-11.5780940837
 30
0.0
 11
4.7700990194
 21
-19.2428854611
 31
0.0
  0
LINE
  5
A3
330
1F
100
AcDbEntity
  8
0
  6
Continuous
 62
     7
370
    15
100
AcDbLine
 10
-20.3888830279
 20
-12.5818999811
 30
0.0
 11
-19.3600526388
 21
-15.6473244305
 31
0.0
  0
LINE
  5
A4
330
1F
100
AcDbEntity
  8
0
  6
Continuous
 62
     7
370
    15
100
AcDbLine
 10
30.4308492719
 20
2.0966433939
 30
0.0
 11
31.459679661
 21
-0.9687810555
 31
0.0
  0
LINE
  5
A5
330
1F
100
AcDbEntity
  8
0
  6
Continuous
 62
     7
370
    15
100
AcDbLine
 10
26.7390634099
 20
2.6467452567
 30
0.0
 11
27.767893799
 21
-0.4186791926
 31
0.0
  0
LINE
  5
A6
330
1F
100
AcDbEntity
  8
0
  6
Continuous
 62
     7
370
    15
100
AcDbLine
 10
27.767893799
 20
-0.4186791926
 30
0.0
 11
31.459679661
 21
-0.9687810555
 31
0.0
  0
LINE
  5
A7
330
1F
100
AcDbEntity
  8
0
  6
Continuous
 62
     7
370
    15
100
AcDbLine
 10
-38.1763897058
 20
1.7547222358
 30
0.0
 11
-37.1475593167
 21
-1.3107022135
 31
0.0
  0
LINE
  5
A8
330
1F
100
AcDbEntity
  8
0
  6
Continuous
 62
     7
370
    15
100
AcDbLine
 10
-37.1475593167
 20
-1.3107022135
 30
0.0
 11
-19.3600526388
 21
-15.6473244305
 31
0.0
  0
LINE
  5
A9
330
1F
100
AcDbEntity
  8
0
  6
Continuous
 62
     7
370
    15
100
AcDbLine
 10
-25.8688851238
 20
10.4856968029
 30
0.0
 11
-24.8400547347
 21
7.4202723535
 31
0.0
  0
LINE
  5
AA
330
1F
100
AcDbEntity
  8
0
  6
Continuous
 62
     7
370
    15
100
AcDbLine
 10
-29.5606709858
 20
11.0357986658
 30
0.0
 11
-28.5318405967
 21
7.9703742164
 31
0.0
  0
LINE
  5
AB
330
1F
100
AcDbEntity
  8
0
  6
Continuous
 62
     7
370
    15
100
AcDbLine
 10
-24.8400547347
 20
7.4202723535
 30
0.0
 11
-28.5318405967
 21
7.9703742164
 31
0.0
  0
ARC
  5
AC
330
1F
100
AcDbEntity
  8
0
  6
Continuous
 62
     7
370
    15
100
AcDbCircle
 10
30.9342214475
 20
-4.9108956231
 30
0.0
 40
3.976980462410602
100
AcDbArc
 50
54.4837097096
 51
82.4075995545
  0
ARC
  5
AD
330
1F
100
AcDbEntity
  8
0
  6
Continuous
 62
     7
370
    15
100
AcDbCircle
 10
26.8855447664
 20
-5.5676194337
 30
0.0
 40
5.22399515906808
100
AcDbArc
 50
80.2759502743
 51
158.4620292387
  0
ARC
  5
AE
330
1F
100
AcDbEntity
  8
0
  6
Continuous
 62
     7
370
    15
100
AcDbCircle
 10
-25.3655129482
 20
3.4781577859
 30
0.0
 40
3.976980462410585
100
AcDbArc
 50
54.4837097096
 51
82.4075995545
  0
ARC
  5
AF
330
1F
100
AcDbEntity
  8
0
  6
Continuous
 62
     7
370
    15
100
AcDbCircle
 10
-33.488296789
 20
3.3412155964
 30
0.0
 40
5.918660452938159
100
AcDbArc
 50
198.9551303205
 51
231.8109229975
  0
ARC
  5
B0
330
1F
100
AcDbEntity
  8
0
  6
Continuous
 62
     7
370
    15
100
AcDbCircle
 10
-29.4141896293
 20
2.8214339753
 30
0.0
 40
5.223995159068081
100
AcDbArc
 50
80.2759502743
 51
158.4620292387
  0
CIRCLE
  5
C1
330
1B
100
AcDbEntity
 67
     1
  8
0
  6
Continuous
 62
     7
370
    15
100
AcDbCircle
 10
0.0
 20
0.0
 30
0.0
 40
19.5
  0
LINE
  5
C2
330
1B
100
AcDbEntity
 67
     1
  8
0
  6
Continuous
 62
     7
370
    15
100
AcDbLine
 10
28.5
 20
4.5
 30
0.0
 11
32.5
 21
4.5
 31
0.0
  0
LINE
  5
C3
330
1B
100
AcDbEntity
 67
     1
  8
0
  6
Continuous
 62
     7
370
    15
100
AcDbLine
 10
32.5
 20
-4.5
 30
0.0
 11
28.5
 21
-4.5
 31
0.0
  0
LINE
  5
C4
330
1B
100
AcDbEntity
 67
     1
  8
0
  6
Continuous
 62
     7
370
    15
100
AcDbLine
 10
-28.5
 20
4.5
 30
0.0
 11
-32.5
 21
4.5
 31
0.0
  0
LINE
  5
C5
330
1B
100
AcDbEntity
 67
     1
  8
0
  6
Continuous
 62
     7
370
    15
100
AcDbLine
 10
-32.5
 20
-4.5
 30
0.0
 11
-28.5
 21
-4.5
 31
0.0
  0
LINE
  5
C6
330
1B
100
AcDbEntity
 67
     1
  8
0
  6
Continuous
 62
     7
370
    15
100
AcDbLine
 10
-37.3290568997
 20
-8.2837694229
 30
0.0
 11
-13.072346317
 21
-22.4243169952
 31
0.0
  0
LINE
  5
C7
330
1B
100
AcDbEntity
 67
     1
  8
0
  6
Continuous
 62
     7
370
    15
100
AcDbLine
 10
-13.072346317
 20
22.4243169952
 30
0.0
 11
-37.3290568997
 21
8.2837694229
 31
0.0
  0
LINE
  5
C8
330
1B
100
AcDbEntity
 67
     1
  8
0
  6
Continuous
 62
     7
370
    15
100
AcDbLine
 10
13.072346317
 20
22.4243169952
 30
0.0
 11
37.3290568997
 21
8.2837694229
 31
0.0
  0
LINE
  5
C9
330
1B
100
AcDbEntity
 67
     1
  8
0
  6
Continuous
 62
     7
370
    15
100
AcDbLine
 10
37.3290568997
 20
-8.2837694229
 30
0.0
 11
13.072346317
 21
-22.4243169952
 31
0.0
  0
ARC
  5
CA
330
1B
100
AcDbEntity
 67
     1
  8
0
  6
Continuous
 62
     7
370
    15
100
AcDbCircle
 10
28.5
 20
0.0
 30
0.0
 40
4.500000000000004
100
AcDbArc
 50
90.0
 51
270.0
  0
ARC
  5
CB
330
1B
100
AcDbEntity
 67
     1
  8
0
  6
Continuous
 62
     7
370
    15
100
AcDbCircle
 10
32.5
 20
0.0
 30
0.0
 40
4.499999999999998
100
AcDbArc
 50
270.0
 51
90.0
  0
ARC
  5
CC
330
1B
100
AcDbEntity
 67
     1
  8
0
  6
Continuous
 62
     7
370
    15
100
AcDbCircle
 10
-28.5
 20
0.0
 30
0.0
 40
4.500000000000004
100
AcDbArc
 50
270.0
 51
90.0
  0
ARC
  5
CD
330
1B
100
AcDbEntity
 67
     1
  8
0
  6
Continuous
 62
     7
370
    15
100
AcDbCircle
 10
-32.5
 20
0.0
 30
0.0
 40
4.499999999999998
100
AcDbArc
 50
90.0
 51
270.0
  0
ARC
  5
CE
330
1B
100
AcDbEntity
 67
     1
  8
0
  6
Continuous
 62
     7
370
    15
100
AcDbCircle
 10
-32.5
 20
0.0
 30
0.0
 40
9.588567483788031
100
AcDbArc
 50
120.2402202556
 51
239.7597797444
  0
ARC
  5
CF
330
1B
100
AcDbEntity
 67
     1
  8
0
  6
Continuous
 62
     7
370
    15
100
AcDbCircle
 10
0.0
 20
0.0
 30
0.0
 40
25.95642947197509
100
AcDbArc
 50
59.7597797444
 51
120.2402202556
  0
ARC
  5
D0
330
1B
100
AcDbEntity
 67
     1
  8
0
  6
Continuous
 62
     7
370
    15
100
AcDbCircle
 10
32.5
 20
0.0
 30
0.0
 40
9.588567483788033
100
AcDbArc
 50
300.2402202556
 51
59.7597797444
  0
ARC
  5
D1
330
1B
100
AcDbEntity
 67
     1
  8
0
  6
Continuous
 62
     7
370
    15
100
AcDbCircle
 10
0.0
 20
0.0
 30
0.0
 40
25.95642947197508
100
AcDbArc
 50
239.7597797444
 51
300.2402202556
  0
VIEWPORT
  5
122
330
1B
100
AcDbEntity
 67
     1
  8
0
100
AcDbViewport
 10
0.0
 20
0.0
 30
0.0
 40
205.6
 41
156.0
 68
     1
 69
     1
 12
-0.5144151945
 22
1.5327122247
 13
0.0
 23
0.0
 14
10.0
 24
10.0
 15
10.0
 25
10.0
 16
0.0
 26
0.0
 36
1.0
 17
0.0
 27
0.0
 37
0.0
 42
50.0
 43
0.0
 44
0.0
 45
61.7490800326
 50
0.0
 51
0.0
 72
   100
 90
   557152
  1

281
     0
 71
     1
 74
     0
110
0.0
120
0.0
130
0.0
111
1.0
121
0.0
131
0.0
112
0.0
122
1.0
132
0.0
 79
     0
146
0.0
  0
ENDSEC
  0
SECTION
  2
OBJECTS
  0
DICTIONARY
  5
C
330
0
100
AcDbDictionary
281
     1
  3
ACAD_GROUP
350
D
  3
ACAD_LAYOUT
350
1A
  3
ACAD_MLINESTYLE
350
17
  3
ACAD_PLOTSETTINGS
350
19
  3
ACAD_PLOTSTYLENAME
350
E
  3
ACAD_SCALELIST
350
47
  0
DICTIONARY
  5
D
102
{ACAD_REACTORS
330
C
102
}
330
C
100
AcDbDictionary
281
     1
  0
DICTIONARY
  5
1A
102
{ACAD_REACTORS
330
C
102
}
330
C
100
AcDbDictionary
281
     1
  3
_Dessus
350
1E
  3
_Face
350
26
  3
_Gauche
350
107
  3
_Normal à
350
EB
  3
Model
350
22
  0
DICTIONARY
  5
17
102
{ACAD_REACTORS
330
C
102
}
330
C
100
AcDbDictionary
281
     1
  3
Standard
350
18
  0
DICTIONARY
  5
19
102
{ACAD_REACTORS
330
C
102
}
330
C
100
AcDbDictionary
281
     1
  0
ACDBDICTIONARYWDFLT
  5
E
102
{ACAD_REACTORS
330
C
102
}
330
C
100
AcDbDictionary
281
     1
  3
Normal
350
F
100
AcDbDictionaryWithDefault
340
F
  0
DICTIONARY
  5
47
102
{ACAD_REACTORS
330
C
102
}
330
C
100
AcDbDictionary
281
     1
  3
A0
350
48
  3
A1
350
49
  3
A2
350
4A
  3
A3
350
4B
  3
A4
350
4C
  3
A5
350
4D
  3
A6
350
4E
  3
A7
350
4F
  3
A8
350
50
  3
A9
350
51
  3
B0
350
52
  3
B1
350
53
  3
B2
350
54
  3
B3
350
55
  3
B4
350
56
  3
B5
350
57
  3
B6
350
58
  3
B7
350
59
  3
B8
350
5A
  3
B9
350
5B
  3
C0
350
5C
  3
C1
350
5D
  3
C2
350
5E
  3
C3
350
5F
  3
C4
350
60
  3
C5
350
61
  3
C6
350
62
  3
C7
350
63
  3
C8
350
64
  3
C9
350
65
  3
D0
350
66
  3
D1
350
67
  3
D2
350
68
  0
LAYOUT
  5
1E
102
{ACAD_REACTORS
330
1A
102
}
330
1A
100
AcDbPlotSettings
  1

  2
none_device
  4
ISO_A4_(210.00_x_297.00_MM)
  6

 40
7.5
 41
20.0
 42
7.5
 43
20.0
 44
210.0
 45
297.0
 46
0.0
 47
0.0
 48
0.0
 49
0.0
140
0.0
141
0.0
142
1.0
143
0.3275374901
 70
   688
 72
     1
 73
     1
 74
     1
  7

 75
     0
147
3.0530856164
148
42.0885674838
149
25.956429472
100
AcDbLayout
  1
_Dessus
 70
     1
 71
     1
 10
-48.6393172867
 20
-28.4129606481
 11
48.6393172867
 21
40.3699122826
 12
0.0
 22
0.0
 32
0.0
 14
-42.0885674838
 24
-25.956429472
 34
0.0
 15
42.0885674838
 25
25.956429472
 35
0.0
146
0.0
 13
0.0
 23
0.0
 33
0.0
 16
1.0
 26
0.0
 36
0.0
 17
0.0
 27
1.0
 37
0.0
 76
     0
330
1B
331
122
  0
LAYOUT
  5
26
102
{ACAD_REACTORS
330
1A
102
}
330
1A
100
AcDbPlotSettings
  1

  2
none_device
  4
ISO_A4_(210.00_x_297.00_MM)
  6

 40
7.5
 41
20.0
 42
7.5
 43
20.0
 44
210.0
 45
297.0
 46
0.0
 47
0.0
 48
0.0
 49
0.0
140
0.0
141
0.0
142
1.0
143
0.3275374901
 70
   688
 72
     1
 73
     1
 74
     1
  7

 75
     0
147
3.0530856164
148
42.0885674838
149
25.956429472
100
AcDbLayout
  1
_Face
 70
     1
 71
     2
 10
0.0
 20
0.0
 11
0.0
 21
0.0
 12
0.0
 22
0.0
 32
0.0
 14
0.0
 24
0.0
 34
0.0
 15
0.0
 25
0.0
 35
0.0
146
0.0
 13
0.0
 23
0.0
 33
0.0
 16
1.0
 26
0.0
 36
0.0
 17
0.0
 27
1.0
 37
0.0
 76
     0
330
23
331
124
  0
LAYOUT
  5
107
102
{ACAD_REACTORS
330
1A
102
}
330
1A
100
AcDbPlotSettings
  1

  2
none_device
  4
ISO_A4_(210.00_x_297.00_MM)
  6

 40
7.5
 41
20.0
 42
7.5
 43
20.0
 44
210.0
 45
297.0
 46
0.0
 47
0.0
 48
0.0
 49
0.0
140
0.0
141
0.0
142
1.0
143
0.3275374901
 70
   688
 72
     1
 73
     1
 74
     1
  7

 75
     0
147
3.0530856164
148
42.0885674838
149
25.956429472
100
AcDbLayout
  1
_Gauche
 70
     1
 71
     4
 10
0.0
 20
0.0
 11
0.0
 21
0.0
 12
0.0
 22
0.0
 32
0.0
 14
0.0
 24
0.0
 34
0.0
 15
0.0
 25
0.0
 35
0.0
146
0.0
 13
0.0
 23
0.0
 33
0.0
 16
1.0
 26
0.0
 36
0.0
 17
0.0
 27
1.0
 37
0.0
 76
     0
330
106
331
128
  0
LAYOUT
  5
EB
102
{ACAD_REACTORS
330
1A
102
}
330
1A
100
AcDbPlotSettings
  1

  2
none_device
  4
ISO_A4_(210.00_x_297.00_MM)
  6

 40
7.5
 41
20.0
 42
7.5
 43
20.0
 44
210.0
 45
297.0
 46
0.0
 47
0.0
 48
0.0
 49
0.0
140
0.0
141
0.0
142
1.0
143
0.3275374901
 70
   688
 72
     1
 73
     1
 74
     1
  7

 75
     0
147
3.0530856164
148
42.0885674838
149
25.956429472
100
AcDbLayout
  1
_Normal à
 70
     1
 71
     3
 10
0.0
 20
0.0
 11
0.0
 21
0.0
 12
0.0
 22
0.0
 32
0.0
 14
0.0
 24
0.0
 34
0.0
 15
0.0
 25
0.0
 35
0.0
146
0.0
 13
0.0
 23
0.0
 33
0.0
 16
1.0
 26
0.0
 36
0.0
 17
0.0
 27
1.0
 37
0.0
 76
     0
330
EA
331
126
  0
LAYOUT
  5
22
102
{ACAD_REACTORS
330
1A
102
}
330
1A
100
AcDbPlotSettings
  1

  2
none_device
  4
ANSI_A_(11.00_x_8.50_Inches)
  6

 40
6.35
 41
19.05
 42
6.35000508
 43
19.05000254
 44
279.4
 45
215.9
 46
135.133388386
 47
83.5863433351
 48
0.0
 49
0.0
140
0.0
141
0.0
142
0.1364894387
143
1.0
 70
  1696
 72
     0
 73
     0
 74
     0
  7

 75
     0
147
0.0179189148
148
-1300.4909072572
149
0.0
100
AcDbLayout
  1
Model
 70
     1
 71
     0
 10
0.0
 20
0.0
 11
420.0
 21
297.0
 12
0.0
 22
0.0
 32
0.0
 14
-40.4076116962
 24
-20.5031849533
 34
0.0
 15
39.3787813072
 25
23.5686094026
 35
0.0
146
0.0
 13
0.0
 23
0.0
 33
0.0
 16
1.0
 26
0.0
 36
0.0
 17
0.0
 27
1.0
 37
0.0
 76
     0
330
1F
331
29
  0
MLINESTYLE
  5
18
102
{ACAD_REACTORS
330
17
102
}
330
17
100
AcDbMlineStyle
  2
Standard
 70
     0
  3

 62
   256
 51
90.0
 52
90.0
 71
     2
 49
0.5
 62
   256
  6
BYLAYER
 49
-0.5
 62
   256
  6
BYLAYER
  0
ACDBPLACEHOLDER
  5
F
102
{ACAD_REACTORS
330
E
102
}
330
E
  0
SCALE
  5
48
102
{ACAD_REACTORS
330
47
102
}
330
47
100
AcDbScale
 70
     0
300
1:1
140
1.0
141
1.0
290
     1
  0
SCALE
  5
49
102
{ACAD_REACTORS
330
47
102
}
330
47
100
AcDbScale
 70
     0
300
1:2
140
1.0
141
2.0
290
     0
  0
SCALE
  5
4A
102
{ACAD_REACTORS
330
47
102
}
330
47
100
AcDbScale
 70
     0
300
1:4
140
1.0
141
4.0
290
     0
  0
SCALE
  5
4B
102
{ACAD_REACTORS
330
47
102
}
330
47
100
AcDbScale
 70
     0
300
1:5
140
1.0
141
5.0
290
     0
  0
SCALE
  5
4C
102
{ACAD_REACTORS
330
47
102
}
330
47
100
AcDbScale
 70
     0
300
1:8
140
1.0
141
8.0
290
     0
  0
SCALE
  5
4D
102
{ACAD_REACTORS
330
47
102
}
330
47
100
AcDbScale
 70
     0
300
1:10
140
1.0
141
10.0
290
     0
  0
SCALE
  5
4E
102
{ACAD_REACTORS
330
47
102
}
330
47
100
AcDbScale
 70
     0
300
1:16
140
1.0
141
16.0
290
     0
  0
SCALE
  5
4F
102
{ACAD_REACTORS
330
47
102
}
330
47
100
AcDbScale
 70
     0
300
1:20
140
1.0
141
20.0
290
     0
  0
SCALE
  5
50
102
{ACAD_REACTORS
330
47
102
}
330
47
100
AcDbScale
 70
     0
300
1:30
140
1.0
141
30.0
290
     0
  0
SCALE
  5
51
102
{ACAD_REACTORS
330
47
102
}
330
47
100
AcDbScale
 70
     0
300
1:40
140
1.0
141
40.0
290
     0
  0
SCALE
  5
52
102
{ACAD_REACTORS
330
47
102
}
330
47
100
AcDbScale
 70
     0
300
1:50
140
1.0
141
50.0
290
     0
  0
SCALE
  5
53
102
{ACAD_REACTORS
330
47
102
}
330
47
100
AcDbScale
 70
     0
300
1:100
140
1.0
141
100.0
290
     0
  0
SCALE
  5
54
102
{ACAD_REACTORS
330
47
102
}
330
47
100
AcDbScale
 70
     0
300
2:1
140
2.0
141
1.0
290
     0
  0
SCALE
  5
55
102
{ACAD_REACTORS
330
47
102
}
330
47
100
AcDbScale
 70
     0
300
4:1
140
4.0
141
1.0
290
     0
  0
SCALE
  5
56
102
{ACAD_REACTORS
330
47
102
}
330
47
100
AcDbScale
 70
     0
300
8:1
140
8.0
141
1.0
290
     0
  0
SCALE
  5
57
102
{ACAD_REACTORS
330
47
102
}
330
47
100
AcDbScale
 70
     0
300
10:1
140
10.0
141
1.0
290
     0
  0
SCALE
  5
58
102
{ACAD_REACTORS
330
47
102
}
330
47
100
AcDbScale
 70
     0
300
100:1
140
100.0
141
1.0
290
     0
  0
SCALE
  5
59
102
{ACAD_REACTORS
330
47
102
}
330
47
100
AcDbScale
 70
     0
300
1/128" = 1'-0"
140
0.0078125
141
12.0
290
     0
  0
SCALE
  5
5A
102
{ACAD_REACTORS
330
47
102
}
330
47
100
AcDbScale
 70
     0
300
1/64" = 1'-0"
140
0.015625
141
12.0
290
     0
  0
SCALE
  5
5B
102
{ACAD_REACTORS
330
47
102
}
330
47
100
AcDbScale
 70
     0
300
1/32" = 1'-0"
140
0.03125
141
12.0
290
     0
  0
SCALE
  5
5C
102
{ACAD_REACTORS
330
47
102
}
330
47
100
AcDbScale
 70
     0
300
1/16" = 1'-0"
140
0.0625
141
12.0
290
     0
  0
SCALE
  5
5D
102
{ACAD_REACTORS
330
47
102
}
330
47
100
AcDbScale
 70
     0
300
3/32" = 1'-0"
140
0.09375
141
12.0
290
     0
  0
SCALE
  5
5E
102
{ACAD_REACTORS
330
47
102
}
330
47
100
AcDbScale
 70
     0
300
1/8" = 1'-0"
140
0.125
141
12.0
290
     0
  0
SCALE
  5
5F
102
{ACAD_REACTORS
330
47
102
}
330
47
100
AcDbScale
 70
     0
300
3/16" = 1'-0"
140
0.1875
141
12.0
290
     0
  0
SCALE
  5
60
102
{ACAD_REACTORS
330
47
102
}
330
47
100
AcDbScale
 70
     0
300
1/4" = 1'-0"
140
0.25
141
12.0
290
     0
  0
SCALE
  5
61
102
{ACAD_REACTORS
330
47
102
}
330
47
100
AcDbScale
 70
     0
300
3/8" = 1'-0"
140
0.375
141
12.0
290
     0
  0
SCALE
  5
62
102
{ACAD_REACTORS
330
47
102
}
330
47
100
AcDbScale
 70
     0
300
1/2" = 1'-0"
140
0.5
141
12.0
290
     0
  0
SCALE
  5
63
102
{ACAD_REACTORS
330
47
102
}
330
47
100
AcDbScale
 70
     0
300
3/4" = 1'-0"
140
0.75
141
12.0
290
     0
  0
SCALE
  5
64
102
{ACAD_REACTORS
330
47
102
}
330
47
100
AcDbScale
 70
     0
300
1" = 1'-0"
140
1.0
141
12.0
290
     0
  0
SCALE
  5
65
102
{ACAD_REACTORS
330
47
102
}
330
47
100
AcDbScale
 70
     0
300
1-1/2" = 1'-0"
140
1.5
141
12.0
290
     0
  0
SCALE
  5
66
102
{ACAD_REACTORS
330
47
102
}
330
47
100
AcDbScale
 70
     0
300
3" = 1'-0"
140
3.0
141
12.0
290
     0
  0
SCALE
  5
67
102
{ACAD_REACTORS
330
47
102
}
330
47
100
AcDbScale
 70
     0
300
6" = 1'-0"
140
6.0
141
12.0
290
     0
  0
SCALE
  5
68
102
{ACAD_REACTORS
330
47
102
}
330
47
100
AcDbScale
 70
     0
300
1'-0" = 1'-0"
140
12.0
141
12.0
290
     0
  0
ENDSEC
  0
EOF
