ISO-10303-21;
HEADER;
FILE_DESCRIPTION (( 'STEP AP214' ),
    '1' );
FILE_NAME ('palier haut.STEP',
    '2016-04-03T18:27:34',
    ( '' ),
    ( '' ),
    'SwSTEP 2.0',
    'SolidWorks 2013',
    '' );
FILE_SCHEMA (( 'AUTOMOTIVE_DESIGN' ));
ENDSEC;

DATA;
#1 = ORIENTED_EDGE ( 'NONE', *, *, #388, .T. ) ;
#2 = CARTESIAN_POINT ( 'NONE',  ( -29.69885527785715600, 0.0000000000000000000, 0.0000000000000000000 ) ) ;
#3 = DIRECTION ( 'NONE',  ( 1.000000000000000000, -0.0000000000000000000, -0.0000000000000000000 ) ) ;
#4 = EDGE_LOOP ( 'NONE', ( #84, #110, #276, #118 ) ) ;
#5 = CARTESIAN_POINT ( 'NONE',  ( 0.0000000000000000000, 0.0000000000000000000, 0.0000000000000000000 ) ) ;
#6 = CARTESIAN_POINT ( 'NONE',  ( -3.267949192431111700, 0.0000000000000000000, 0.0000000000000000000 ) ) ;
#7 = EDGE_CURVE ( 'NONE', #313, #358, #306, .T. ) ;
#8 = DIRECTION ( 'NONE',  ( 0.0000000000000000000, 0.0000000000000000000, 1.000000000000000000 ) ) ;
#9 = DIRECTION ( 'NONE',  ( -1.000000000000000000, 0.0000000000000000000, 0.0000000000000000000 ) ) ;
#10 = DIRECTION ( 'NONE',  ( 0.0000000000000000000, 0.0000000000000000000, 1.000000000000000000 ) ) ;
#11 = FACE_BOUND ( 'NONE', #328, .T. ) ;
#12 = EDGE_LOOP ( 'NONE', ( #235, #366, #174, #245 ) ) ;
#13 = EDGE_LOOP ( 'NONE', ( #329, #70, #150, #37 ) ) ;
#14 = CARTESIAN_POINT ( 'NONE',  ( -29.69885527785715600, 0.0000000000000000000, 0.0000000000000000000 ) ) ;
#15 = MECHANICAL_DESIGN_GEOMETRIC_PRESENTATION_REPRESENTATION (  '', ( #192 ), #27 ) ;
#16 = EDGE_CURVE ( 'NONE', #187, #53, #302, .T. ) ;
#17 = DIRECTION ( 'NONE',  ( 0.0000000000000000000, 0.0000000000000000000, 1.000000000000000000 ) ) ;
#18 = CARTESIAN_POINT ( 'NONE',  ( -29.69885527785715600, 0.0000000000000000000, 20.00000000000000000 ) ) ;
#19 = CIRCLE ( 'NONE', #385, 27.50000000000000000 ) ;
#20 = DIRECTION ( 'NONE',  ( -1.000000000000000000, 0.0000000000000000000, 0.0000000000000000000 ) ) ;
#21 = CARTESIAN_POINT ( 'NONE',  ( -3.267949192431111700, 0.0000000000000000000, 20.00000000000000000 ) ) ;
#22 = EDGE_LOOP ( 'NONE', ( #120, #132 ) ) ;
#23 = AXIS2_PLACEMENT_3D ( 'NONE', #2, #342, #61 ) ;
#24 = CYLINDRICAL_SURFACE ( 'NONE', #40, 20.00000000000000000 ) ;
#25 = CARTESIAN_POINT ( 'NONE',  ( 0.0000000000000000000, 0.0000000000000000000, 0.0000000000000000000 ) ) ;
#26 = EDGE_CURVE ( 'NONE', #303, #187, #127, .T. ) ;
#27 =( GEOMETRIC_REPRESENTATION_CONTEXT ( 3 ) GLOBAL_UNCERTAINTY_ASSIGNED_CONTEXT ( ( #221 ) ) GLOBAL_UNIT_ASSIGNED_CONTEXT ( ( #387, #386, #209 ) ) REPRESENTATION_CONTEXT ( 'NONE', 'WORKASPACE' ) );
#28 = LINE ( 'NONE', #164, #244 ) ;
#29 = ORIENTED_EDGE ( 'NONE', *, *, #92, .T. ) ;
#30 = EDGE_CURVE ( 'NONE', #185, #63, #43, .T. ) ;
#31 = CARTESIAN_POINT ( 'NONE',  ( 24.00000000000000000, 0.0000000000000000000, 0.0000000000000000000 ) ) ;
#32 =( NAMED_UNIT ( * ) SI_UNIT ( $, .STERADIAN. ) SOLID_ANGLE_UNIT ( ) );
#33 = SURFACE_STYLE_USAGE ( .BOTH. , #370 ) ;
#34 = DIRECTION ( 'NONE',  ( -1.000000000000000000, -0.0000000000000000000, -0.0000000000000000000 ) ) ;
#35 = CARTESIAN_POINT ( 'NONE',  ( 24.00000000000000000, 2.449293598294706500E-015, -20.00000000000000000 ) ) ;
#36 = DIRECTION ( 'NONE',  ( 0.0000000000000000000, 0.0000000000000000000, 1.000000000000000000 ) ) ;
#37 = ORIENTED_EDGE ( 'NONE', *, *, #265, .F. ) ;
#38 = ORIENTED_EDGE ( 'NONE', *, *, #388, .F. ) ;
#39 = CARTESIAN_POINT ( 'NONE',  ( 0.0000000000000000000, 0.0000000000000000000, 40.00000000000000000 ) ) ;
#40 = AXIS2_PLACEMENT_3D ( 'NONE', #14, #101, #135 ) ;
#41 = DIRECTION ( 'NONE',  ( -1.000000000000000000, 0.0000000000000000000, 0.0000000000000000000 ) ) ;
#42 = CARTESIAN_POINT ( 'NONE',  ( 24.00000000000000000, 0.0000000000000000000, 20.00000000000000000 ) ) ;
#43 = CIRCLE ( 'NONE', #305, 20.00000000000000000 ) ;
#44 = CARTESIAN_POINT ( 'NONE',  ( -29.69885527785715600, 0.0000000000000000000, 0.0000000000000000000 ) ) ;
#45 = AXIS2_PLACEMENT_3D ( 'NONE', #198, #107, #167 ) ;
#46 = CARTESIAN_POINT ( 'NONE',  ( -5.000000000000000900, 4.898587196589413000E-015, -40.00000000000000000 ) ) ;
#47 = VECTOR ( 'NONE', #20, 1000.000000000000000 ) ;
#48 = ORIENTED_EDGE ( 'NONE', *, *, #141, .T. ) ;
#49 = CARTESIAN_POINT ( 'NONE',  ( 22.26794919243114300, 0.0000000000000000000, 0.0000000000000000000 ) ) ;
#50 = FACE_BOUND ( 'NONE', #170, .T. ) ;
#51 = AXIS2_PLACEMENT_3D ( 'NONE', #5, #251, #248 ) ;
#52 = LINE ( 'NONE', #111, #47 ) ;
#53 = VERTEX_POINT ( 'NONE', #126 ) ;
#54 = UNCERTAINTY_MEASURE_WITH_UNIT (LENGTH_MEASURE( 1.000000000000000100E-005 ), #163, 'distance_accuracy_value', 'NONE');
#55 = AXIS2_PLACEMENT_3D ( 'NONE', #108, #264, #236 ) ;
#56 = SURFACE_STYLE_FILL_AREA ( #309 ) ;
#57 = ORIENTED_EDGE ( 'NONE', *, *, #283, .T. ) ;
#58 = DIRECTION ( 'NONE',  ( 0.0000000000000000000, 0.0000000000000000000, 1.000000000000000000 ) ) ;
#59 = DIRECTION ( 'NONE',  ( -0.8660254037844382600, 0.0000000000000000000, 0.5000000000000006700 ) ) ;
#60 = DIRECTION ( 'NONE',  ( 0.0000000000000000000, 0.0000000000000000000, 1.000000000000000000 ) ) ;
#61 = DIRECTION ( 'NONE',  ( 0.0000000000000000000, 0.0000000000000000000, 1.000000000000000000 ) ) ;
#62 = CONICAL_SURFACE ( 'NONE', #364, 20.00000000000000000, 0.5235987755982926000 ) ;
#63 = VERTEX_POINT ( 'NONE', #282 ) ;
#64 = CARTESIAN_POINT ( 'NONE',  ( 0.0000000000000000000, 40.00000000000000000, 0.0000000000000000000 ) ) ;
#65 = AXIS2_PLACEMENT_3D ( 'NONE', #354, #268, #320 ) ;
#66 = DIRECTION ( 'NONE',  ( 1.000000000000000000, 0.0000000000000000000, 0.0000000000000000000 ) ) ;
#67 = CARTESIAN_POINT ( 'NONE',  ( -5.000000000000000900, 0.0000000000000000000, 40.00000000000000000 ) ) ;
#68 = DIRECTION ( 'NONE',  ( -1.000000000000000000, 0.0000000000000000000, 0.0000000000000000000 ) ) ;
#69 = ORIENTED_EDGE ( 'NONE', *, *, #391, .T. ) ;
#70 = ORIENTED_EDGE ( 'NONE', *, *, #176, .F. ) ;
#71 = AXIS2_PLACEMENT_3D ( 'NONE', #316, #136, #98 ) ;
#72 = DIRECTION ( 'NONE',  ( -1.000000000000000000, 0.0000000000000000000, 0.0000000000000000000 ) ) ;
#73 = PRODUCT_DEFINITION_CONTEXT ( 'detailed design', #260, 'design' ) ;
#74 = CARTESIAN_POINT ( 'NONE',  ( -3.267949192431111700, 2.449293598294706500E-015, -20.00000000000000000 ) ) ;
#75 = COLOUR_RGB ( '',1.000000000000000000, 1.000000000000000000, 1.000000000000000000 ) ;
#76 = FACE_OUTER_BOUND ( 'NONE', #96, .T. ) ;
#77 = ADVANCED_FACE ( 'NONE', ( #384, #217 ), #285, .F. ) ;
#78 = LINE ( 'NONE', #337, #152 ) ;
#79 = DIRECTION ( 'NONE',  ( -1.000000000000000000, 0.0000000000000000000, 0.0000000000000000000 ) ) ;
#80 = CARTESIAN_POINT ( 'NONE',  ( 22.26794919243114300, 0.0000000000000000000, 0.0000000000000000000 ) ) ;
#81 = DIRECTION ( 'NONE',  ( -1.000000000000000000, 0.0000000000000000000, 0.0000000000000000000 ) ) ;
#82 = AXIS2_PLACEMENT_3D ( 'NONE', #64, #41, #36 ) ;
#83 = VECTOR ( 'NONE', #262, 1000.000000000000000 ) ;
#84 = ORIENTED_EDGE ( 'NONE', *, *, #157, .F. ) ;
#85 = ORIENTED_EDGE ( 'NONE', *, *, #350, .F. ) ;
#86 = EDGE_CURVE ( 'NONE', #303, #308, #78, .T. ) ;
#87 = AXIS2_PLACEMENT_3D ( 'NONE', #25, #125, #367 ) ;
#88 = UNCERTAINTY_MEASURE_WITH_UNIT (LENGTH_MEASURE( 1.000000000000000100E-005 ), #253, 'distance_accuracy_value', 'NONE');
#89 = CONICAL_SURFACE ( 'NONE', #55, 27.50000000000000000, 0.5235987755982995900 ) ;
#90 = ORIENTED_EDGE ( 'NONE', *, *, #293, .T. ) ;
#91 = DIRECTION ( 'NONE',  ( -1.000000000000000000, 0.0000000000000000000, 0.0000000000000000000 ) ) ;
#92 = EDGE_CURVE ( 'NONE', #168, #246, #280, .T. ) ;
#93 = DIRECTION ( 'NONE',  ( 0.0000000000000000000, 0.0000000000000000000, -1.000000000000000000 ) ) ;
#94 = CARTESIAN_POINT ( 'NONE',  ( 22.26794919243114300, 3.367778697655221300E-015, -27.50000000000000000 ) ) ;
#95 = FACE_OUTER_BOUND ( 'NONE', #241, .T. ) ;
#96 = EDGE_LOOP ( 'NONE', ( #191, #38 ) ) ;
#97 = DIRECTION ( 'NONE',  ( 0.0000000000000000000, 0.0000000000000000000, -1.000000000000000000 ) ) ;
#98 = DIRECTION ( 'NONE',  ( 0.0000000000000000000, 0.0000000000000000000, 1.000000000000000000 ) ) ;
#99 =( NAMED_UNIT ( * ) PLANE_ANGLE_UNIT ( ) SI_UNIT ( $, .RADIAN. ) );
#100 = CARTESIAN_POINT ( 'NONE',  ( -29.69885527785715600, 0.0000000000000000000, 27.50000000000000000 ) ) ;
#101 = DIRECTION ( 'NONE',  ( -1.000000000000000000, 0.0000000000000000000, 0.0000000000000000000 ) ) ;
#102 = PRESENTATION_STYLE_ASSIGNMENT (( #33 ) ) ;
#103 = CIRCLE ( 'NONE', #45, 27.50000000000000000 ) ;
#104 = ORIENTED_EDGE ( 'NONE', *, *, #176, .T. ) ;
#105 = CARTESIAN_POINT ( 'NONE',  ( -5.000000000000000900, 0.0000000000000000000, 0.0000000000000000000 ) ) ;
#106 = PRESENTATION_LAYER_ASSIGNMENT (  '', '', ( #192 ) ) ;
#107 = DIRECTION ( 'NONE',  ( -1.000000000000000000, 0.0000000000000000000, 0.0000000000000000000 ) ) ;
#108 = CARTESIAN_POINT ( 'NONE',  ( 22.26794919243114300, 0.0000000000000000000, 0.0000000000000000000 ) ) ;
#109 = CARTESIAN_POINT ( 'NONE',  ( 0.0000000000000000000, 0.0000000000000000000, 27.50000000000000000 ) ) ;
#110 = ORIENTED_EDGE ( 'NONE', *, *, #16, .T. ) ;
#111 = CARTESIAN_POINT ( 'NONE',  ( -29.69885527785715600, 0.0000000000000000000, 40.00000000000000000 ) ) ;
#112 =( GEOMETRIC_REPRESENTATION_CONTEXT ( 3 ) GLOBAL_UNCERTAINTY_ASSIGNED_CONTEXT ( ( #54 ) ) GLOBAL_UNIT_ASSIGNED_CONTEXT ( ( #163, #286, #32 ) ) REPRESENTATION_CONTEXT ( 'NONE', 'WORKASPACE' ) );
#113 = CARTESIAN_POINT ( 'NONE',  ( 0.0000000000000000000, 0.0000000000000000000, 0.0000000000000000000 ) ) ;
#114 = SHAPE_DEFINITION_REPRESENTATION ( #392, #252 ) ;
#115 = COLOUR_RGB ( '',1.000000000000000000, 1.000000000000000000, 1.000000000000000000 ) ;
#116 = ORIENTED_EDGE ( 'NONE', *, *, #7, .F. ) ;
#117 = ADVANCED_FACE ( 'NONE', ( #373 ), #266, .T. ) ;
#118 = ORIENTED_EDGE ( 'NONE', *, *, #86, .F. ) ;
#119 = AXIS2_PLACEMENT_3D ( 'NONE', #31, #91, #58 ) ;
#120 = ORIENTED_EDGE ( 'NONE', *, *, #26, .T. ) ;
#121 = EDGE_LOOP ( 'NONE', ( #124, #357, #116, #214 ) ) ;
#122 = FACE_OUTER_BOUND ( 'NONE', #4, .T. ) ;
#123 = EDGE_LOOP ( 'NONE', ( #195, #48 ) ) ;
#124 = ORIENTED_EDGE ( 'NONE', *, *, #30, .F. ) ;
#125 = DIRECTION ( 'NONE',  ( -1.000000000000000000, 0.0000000000000000000, 0.0000000000000000000 ) ) ;
#126 = CARTESIAN_POINT ( 'NONE',  ( 22.26794919243114300, 3.367778697655221300E-015, -27.50000000000000000 ) ) ;
#127 = CIRCLE ( 'NONE', #178, 26.50000000000001100 ) ;
#128 = DIRECTION ( 'NONE',  ( -1.000000000000000000, 0.0000000000000000000, 0.0000000000000000000 ) ) ;
#129 = CARTESIAN_POINT ( 'NONE',  ( 24.00000000000000000, 0.0000000000000000000, 0.0000000000000000000 ) ) ;
#130 = LINE ( 'NONE', #100, #159 ) ;
#131 = DIRECTION ( 'NONE',  ( -1.000000000000000000, 0.0000000000000000000, 0.0000000000000000000 ) ) ;
#132 = ORIENTED_EDGE ( 'NONE', *, *, #157, .T. ) ;
#133 = AXIS2_PLACEMENT_3D ( 'NONE', #338, #188, #161 ) ;
#134 = EDGE_CURVE ( 'NONE', #390, #185, #222, .T. ) ;
#135 = DIRECTION ( 'NONE',  ( 0.0000000000000000000, 0.0000000000000000000, 1.000000000000000000 ) ) ;
#136 = DIRECTION ( 'NONE',  ( 1.000000000000000000, -0.0000000000000000000, -0.0000000000000000000 ) ) ;
#137 = DIRECTION ( 'NONE',  ( 0.0000000000000000000, 0.0000000000000000000, 1.000000000000000000 ) ) ;
#138 = CARTESIAN_POINT ( 'NONE',  ( 0.0000000000000000000, 3.367778697655221300E-015, -27.50000000000000000 ) ) ;
#139 = VECTOR ( 'NONE', #310, 1000.000000000000000 ) ;
#140 = ORIENTED_EDGE ( 'NONE', *, *, #169, .T. ) ;
#141 = EDGE_CURVE ( 'NONE', #390, #208, #270, .T. ) ;
#142 = DIRECTION ( 'NONE',  ( -1.000000000000000000, 0.0000000000000000000, 0.0000000000000000000 ) ) ;
#143 = ADVANCED_FACE ( 'NONE', ( #50, #206 ), #220, .F. ) ;
#144 = SURFACE_SIDE_STYLE ('',( #239 ) ) ;
#145 = ADVANCED_FACE ( 'NONE', ( #180 ), #258, .T. ) ;
#146 = VECTOR ( 'NONE', #254, 1000.000000000000000 ) ;
#147 = CARTESIAN_POINT ( 'NONE',  ( -29.69885527785715600, 0.0000000000000000000, 0.0000000000000000000 ) ) ;
#148 = ADVANCED_FACE ( 'NONE', ( #311 ), #324, .F. ) ;
#149 = AXIS2_PLACEMENT_3D ( 'NONE', #193, #8, #199 ) ;
#150 = ORIENTED_EDGE ( 'NONE', *, *, #343, .T. ) ;
#151 = ORIENTED_EDGE ( 'NONE', *, *, #141, .F. ) ;
#152 = VECTOR ( 'NONE', #59, 1000.000000000000000 ) ;
#153 = AXIS2_PLACEMENT_3D ( 'NONE', #255, #290, #224 ) ;
#154 = PRESENTATION_STYLE_ASSIGNMENT (( #177 ) ) ;
#155 = ORIENTED_EDGE ( 'NONE', *, *, #210, .T. ) ;
#156 = CARTESIAN_POINT ( 'NONE',  ( -3.267949192431111700, 0.0000000000000000000, 0.0000000000000000000 ) ) ;
#157 = EDGE_CURVE ( 'NONE', #187, #303, #243, .T. ) ;
#158 = PRODUCT_CONTEXT ( 'NONE', #227, 'mechanical' ) ;
#159 = VECTOR ( 'NONE', #131, 1000.000000000000000 ) ;
#160 = ORIENTED_EDGE ( 'NONE', *, *, #210, .F. ) ;
#161 = DIRECTION ( 'NONE',  ( 0.0000000000000000000, 0.0000000000000000000, 1.000000000000000000 ) ) ;
#162 = CARTESIAN_POINT ( 'NONE',  ( -4.999999999999997300, 0.0000000000000000000, 0.0000000000000000000 ) ) ;
#163 =( LENGTH_UNIT ( ) NAMED_UNIT ( * ) SI_UNIT ( .MILLI., .METRE. ) );
#164 = CARTESIAN_POINT ( 'NONE',  ( -29.69885527785715600, 4.898587196589413000E-015, -40.00000000000000000 ) ) ;
#165 = DIRECTION ( 'NONE',  ( 0.0000000000000000000, 0.0000000000000000000, 1.000000000000000000 ) ) ;
#166 = LINE ( 'NONE', #344, #83 ) ;
#167 = DIRECTION ( 'NONE',  ( 0.0000000000000000000, 0.0000000000000000000, 1.000000000000000000 ) ) ;
#168 = VERTEX_POINT ( 'NONE', #39 ) ;
#169 = EDGE_CURVE ( 'NONE', #308, #361, #130, .T. ) ;
#170 = EDGE_LOOP ( 'NONE', ( #336, #295 ) ) ;
#171 = CARTESIAN_POINT ( 'NONE',  ( 0.0000000000000000000, 4.898587196589413000E-015, -40.00000000000000000 ) ) ;
#172 = FILL_AREA_STYLE_COLOUR ( '', #115 ) ;
#173 = CIRCLE ( 'NONE', #301, 27.50000000000000000 ) ;
#174 = ORIENTED_EDGE ( 'NONE', *, *, #86, .T. ) ;
#175 = DIRECTION ( 'NONE',  ( -1.000000000000000000, 0.0000000000000000000, 0.0000000000000000000 ) ) ;
#176 = EDGE_CURVE ( 'NONE', #63, #185, #393, .T. ) ;
#177 = SURFACE_STYLE_USAGE ( .BOTH. , #144 ) ;
#178 = AXIS2_PLACEMENT_3D ( 'NONE', #129, #3, #189 ) ;
#179 = DIRECTION ( 'NONE',  ( 0.0000000000000000000, 0.0000000000000000000, 1.000000000000000000 ) ) ;
#180 = FACE_OUTER_BOUND ( 'NONE', #250, .T. ) ;
#181 = ORIENTED_EDGE ( 'NONE', *, *, #283, .F. ) ;
#182 = ORIENTED_EDGE ( 'NONE', *, *, #307, .T. ) ;
#183 = AXIS2_PLACEMENT_3D ( 'NONE', #278, #279, #289 ) ;
#184 = FACE_OUTER_BOUND ( 'NONE', #121, .T. ) ;
#185 = VERTEX_POINT ( 'NONE', #371 ) ;
#186 = CIRCLE ( 'NONE', #218, 20.99999999999998900 ) ;
#187 = VERTEX_POINT ( 'NONE', #231 ) ;
#188 = DIRECTION ( 'NONE',  ( -1.000000000000000000, 0.0000000000000000000, 0.0000000000000000000 ) ) ;
#189 = DIRECTION ( 'NONE',  ( 0.0000000000000000000, 0.0000000000000000000, 1.000000000000000000 ) ) ;
#190 = FACE_OUTER_BOUND ( 'NONE', #318, .T. ) ;
#191 = ORIENTED_EDGE ( 'NONE', *, *, #92, .F. ) ;
#192 = STYLED_ITEM ( 'NONE', ( #154 ), #323 ) ;
#193 = CARTESIAN_POINT ( 'NONE',  ( 0.0000000000000000000, 0.0000000000000000000, 0.0000000000000000000 ) ) ;
#194 = CIRCLE ( 'NONE', #304, 40.00000000000000000 ) ;
#195 = ORIENTED_EDGE ( 'NONE', *, *, #321, .T. ) ;
#196 = CARTESIAN_POINT ( 'NONE',  ( -29.69885527785715600, 0.0000000000000000000, 0.0000000000000000000 ) ) ;
#197 = ORIENTED_EDGE ( 'NONE', *, *, #307, .F. ) ;
#198 = CARTESIAN_POINT ( 'NONE',  ( 22.26794919243114300, 0.0000000000000000000, 0.0000000000000000000 ) ) ;
#199 = DIRECTION ( 'NONE',  ( 1.000000000000000000, 0.0000000000000000000, 0.0000000000000000000 ) ) ;
#200 = CARTESIAN_POINT ( 'NONE',  ( -4.999999999999997300, 0.0000000000000000000, 20.99999999999998900 ) ) ;
#201 = DIRECTION ( 'NONE',  ( -1.000000000000000000, 0.0000000000000000000, 0.0000000000000000000 ) ) ;
#202 = ORIENTED_EDGE ( 'NONE', *, *, #134, .T. ) ;
#203 = AXIS2_PLACEMENT_3D ( 'NONE', #196, #9, #348 ) ;
#204 = CARTESIAN_POINT ( 'NONE',  ( -29.69885527785715600, 0.0000000000000000000, 0.0000000000000000000 ) ) ;
#205 = DIRECTION ( 'NONE',  ( 0.0000000000000000000, 0.0000000000000000000, 1.000000000000000000 ) ) ;
#206 = FACE_OUTER_BOUND ( 'NONE', #319, .T. ) ;
#207 = ADVANCED_FACE ( 'NONE', ( #76, #11 ), #312, .F. ) ;
#208 = VERTEX_POINT ( 'NONE', #42 ) ;
#209 =( NAMED_UNIT ( * ) SI_UNIT ( $, .STERADIAN. ) SOLID_ANGLE_UNIT ( ) );
#210 = EDGE_CURVE ( 'NONE', #53, #299, #166, .T. ) ;
#211 = ORIENTED_EDGE ( 'NONE', *, *, #391, .F. ) ;
#212 = PRODUCT_DEFINITION_FORMATION_WITH_SPECIFIED_SOURCE ( 'ANY', '', #263, .NOT_KNOWN. ) ;
#213 = CIRCLE ( 'NONE', #215, 27.50000000000000000 ) ;
#214 = ORIENTED_EDGE ( 'NONE', *, *, #343, .F. ) ;
#215 = AXIS2_PLACEMENT_3D ( 'NONE', #113, #175, #232 ) ;
#216 = CYLINDRICAL_SURFACE ( 'NONE', #237, 40.00000000000000000 ) ;
#217 = FACE_BOUND ( 'NONE', #123, .T. ) ;
#218 = AXIS2_PLACEMENT_3D ( 'NONE', #162, #66, #377 ) ;
#219 = FILL_AREA_STYLE_COLOUR ( '', #75 ) ;
#220 = PLANE ( 'NONE',  #183 ) ;
#221 = UNCERTAINTY_MEASURE_WITH_UNIT (LENGTH_MEASURE( 1.000000000000000100E-005 ), #387, 'distance_accuracy_value', 'NONE');
#222 = LINE ( 'NONE', #223, #146 ) ;
#223 = CARTESIAN_POINT ( 'NONE',  ( -29.69885527785715600, 2.449293598294706500E-015, -20.00000000000000000 ) ) ;
#224 = DIRECTION ( 'NONE',  ( 0.0000000000000000000, 0.0000000000000000000, -1.000000000000000000 ) ) ;
#225 = APPLICATION_PROTOCOL_DEFINITION ( 'draft international standard', 'automotive_design', 1998, #260 ) ;
#226 = CARTESIAN_POINT ( 'NONE',  ( -3.267949192431111700, 0.0000000000000000000, 0.0000000000000000000 ) ) ;
#227 = APPLICATION_CONTEXT ( 'automotive_design' ) ;
#228 = AXIS2_PLACEMENT_3D ( 'NONE', #226, #374, #165 ) ;
#229 = ORIENTED_EDGE ( 'NONE', *, *, #321, .F. ) ;
#230 = ORIENTED_EDGE ( 'NONE', *, *, #169, .F. ) ;
#231 = CARTESIAN_POINT ( 'NONE',  ( 24.00000000000000000, 3.306546357697854100E-015, -26.50000000000001100 ) ) ;
#232 = DIRECTION ( 'NONE',  ( 0.0000000000000000000, 0.0000000000000000000, 1.000000000000000000 ) ) ;
#233 = CARTESIAN_POINT ( 'NONE',  ( 24.00000000000000000, 0.0000000000000000000, 0.0000000000000000000 ) ) ;
#234 = FACE_OUTER_BOUND ( 'NONE', #332, .T. ) ;
#235 = ORIENTED_EDGE ( 'NONE', *, *, #16, .F. ) ;
#236 = DIRECTION ( 'NONE',  ( 0.0000000000000000000, 0.0000000000000000000, 1.000000000000000000 ) ) ;
#237 = AXIS2_PLACEMENT_3D ( 'NONE', #147, #72, #179 ) ;
#238 = ADVANCED_FACE ( 'NONE', ( #184 ), #62, .F. ) ;
#239 = SURFACE_STYLE_FILL_AREA ( #326 ) ;
#240 = ORIENTED_EDGE ( 'NONE', *, *, #315, .F. ) ;
#241 = EDGE_LOOP ( 'NONE', ( #160, #369, #140, #335 ) ) ;
#242 = AXIS2_PLACEMENT_3D ( 'NONE', #204, #267, #17 ) ;
#243 = CIRCLE ( 'NONE', #71, 26.50000000000001100 ) ;
#244 = VECTOR ( 'NONE', #376, 1000.000000000000000 ) ;
#245 = ORIENTED_EDGE ( 'NONE', *, *, #281, .F. ) ;
#246 = VERTEX_POINT ( 'NONE', #171 ) ;
#247 = PRESENTATION_LAYER_ASSIGNMENT (  '', '', ( #359 ) ) ;
#248 = DIRECTION ( 'NONE',  ( 0.0000000000000000000, 0.0000000000000000000, 1.000000000000000000 ) ) ;
#249 = CONICAL_SURFACE ( 'NONE', #340, 27.50000000000000000, 0.5235987755982995900 ) ;
#250 = EDGE_LOOP ( 'NONE', ( #362, #155, #211, #230 ) ) ;
#251 = DIRECTION ( 'NONE',  ( -1.000000000000000000, 0.0000000000000000000, 0.0000000000000000000 ) ) ;
#252 = ADVANCED_BREP_SHAPE_REPRESENTATION ( 'palier haut', ( #323, #149 ), #112 ) ;
#253 =( LENGTH_UNIT ( ) NAMED_UNIT ( * ) SI_UNIT ( .MILLI., .METRE. ) );
#254 = DIRECTION ( 'NONE',  ( -1.000000000000000000, 0.0000000000000000000, 0.0000000000000000000 ) ) ;
#255 = CARTESIAN_POINT ( 'NONE',  ( -3.267949192431111700, 0.0000000000000000000, 0.0000000000000000000 ) ) ;
#256 = DIRECTION ( 'NONE',  ( 1.000000000000000000, 0.0000000000000000000, 0.0000000000000000000 ) ) ;
#257 = AXIS2_PLACEMENT_3D ( 'NONE', #233, #296, #380 ) ;
#258 = CYLINDRICAL_SURFACE ( 'NONE', #203, 27.50000000000000000 ) ;
#259 = ORIENTED_EDGE ( 'NONE', *, *, #293, .F. ) ;
#260 = APPLICATION_CONTEXT ( 'automotive_design' ) ;
#261 = CLOSED_SHELL ( 'NONE', ( #238, #322, #145, #360, #389, #117, #143, #271, #77, #355, #207, #381, #148 ) ) ;
#262 = DIRECTION ( 'NONE',  ( -1.000000000000000000, 0.0000000000000000000, 0.0000000000000000000 ) ) ;
#263 = PRODUCT ( 'palier haut', 'palier haut', '', ( #158 ) ) ;
#264 = DIRECTION ( 'NONE',  ( -1.000000000000000000, 0.0000000000000000000, 0.0000000000000000000 ) ) ;
#265 = EDGE_CURVE ( 'NONE', #358, #313, #186, .T. ) ;
#266 = CYLINDRICAL_SURFACE ( 'NONE', #23, 40.00000000000000000 ) ;
#267 = DIRECTION ( 'NONE',  ( -1.000000000000000000, 0.0000000000000000000, 0.0000000000000000000 ) ) ;
#268 = DIRECTION ( 'NONE',  ( -1.000000000000000000, 0.0000000000000000000, 0.0000000000000000000 ) ) ;
#269 = DIRECTION ( 'NONE',  ( 0.0000000000000000000, 0.0000000000000000000, 1.000000000000000000 ) ) ;
#270 = CIRCLE ( 'NONE', #119, 20.00000000000000000 ) ;
#271 = ADVANCED_FACE ( 'NONE', ( #234 ), #24, .F. ) ;
#272 = EDGE_LOOP ( 'NONE', ( #259, #1, #347, #197 ) ) ;
#273 =( GEOMETRIC_REPRESENTATION_CONTEXT ( 3 ) GLOBAL_UNCERTAINTY_ASSIGNED_CONTEXT ( ( #88 ) ) GLOBAL_UNIT_ASSIGNED_CONTEXT ( ( #253, #99, #284 ) ) REPRESENTATION_CONTEXT ( 'NONE', 'WORKASPACE' ) );
#274 = FACE_OUTER_BOUND ( 'NONE', #277, .T. ) ;
#275 = LINE ( 'NONE', #21, #298 ) ;
#276 = ORIENTED_EDGE ( 'NONE', *, *, #382, .F. ) ;
#277 = EDGE_LOOP ( 'NONE', ( #151, #202, #341, #240 ) ) ;
#278 = CARTESIAN_POINT ( 'NONE',  ( -4.999999999999997300, 40.00000000000000000, 0.0000000000000000000 ) ) ;
#279 = DIRECTION ( 'NONE',  ( 1.000000000000000000, 0.0000000000000000000, 0.0000000000000000000 ) ) ;
#280 = CIRCLE ( 'NONE', #51, 40.00000000000000000 ) ;
#281 = EDGE_CURVE ( 'NONE', #53, #308, #103, .T. ) ;
#282 = CARTESIAN_POINT ( 'NONE',  ( -3.267949192431111700, 0.0000000000000000000, 20.00000000000000000 ) ) ;
#283 = EDGE_CURVE ( 'NONE', #288, #378, #194, .T. ) ;
#284 =( NAMED_UNIT ( * ) SI_UNIT ( $, .STERADIAN. ) SOLID_ANGLE_UNIT ( ) );
#285 = PLANE ( 'NONE',  #133 ) ;
#286 =( NAMED_UNIT ( * ) PLANE_ANGLE_UNIT ( ) SI_UNIT ( $, .RADIAN. ) );
#287 = CIRCLE ( 'NONE', #87, 40.00000000000000000 ) ;
#288 = VERTEX_POINT ( 'NONE', #67 ) ;
#289 = DIRECTION ( 'NONE',  ( 0.0000000000000000000, 0.0000000000000000000, -1.000000000000000000 ) ) ;
#290 = DIRECTION ( 'NONE',  ( -1.000000000000000000, -0.0000000000000000000, -0.0000000000000000000 ) ) ;
#291 = CARTESIAN_POINT ( 'NONE',  ( 22.26794919243114300, 0.0000000000000000000, 27.50000000000000000 ) ) ;
#292 = PRODUCT_DEFINITION ( 'UNKNOWN', '', #212, #73 ) ;
#293 = EDGE_CURVE ( 'NONE', #246, #378, #28, .T. ) ;
#294 = DIRECTION ( 'NONE',  ( -1.000000000000000000, 0.0000000000000000000, 0.0000000000000000000 ) ) ;
#295 = ORIENTED_EDGE ( 'NONE', *, *, #265, .T. ) ;
#296 = DIRECTION ( 'NONE',  ( -1.000000000000000000, 0.0000000000000000000, 0.0000000000000000000 ) ) ;
#297 = PRODUCT_RELATED_PRODUCT_CATEGORY ( 'part', '', ( #263 ) ) ;
#298 = VECTOR ( 'NONE', #300, 1000.000000000000100 ) ;
#299 = VERTEX_POINT ( 'NONE', #138 ) ;
#300 = DIRECTION ( 'NONE',  ( -0.8660254037844418200, 0.0000000000000000000, 0.4999999999999946200 ) ) ;
#301 = AXIS2_PLACEMENT_3D ( 'NONE', #345, #128, #60 ) ;
#302 = LINE ( 'NONE', #94, #139 ) ;
#303 = VERTEX_POINT ( 'NONE', #349 ) ;
#304 = AXIS2_PLACEMENT_3D ( 'NONE', #105, #294, #10 ) ;
#305 = AXIS2_PLACEMENT_3D ( 'NONE', #156, #34, #97 ) ;
#306 = CIRCLE ( 'NONE', #330, 20.99999999999998900 ) ;
#307 = EDGE_CURVE ( 'NONE', #378, #288, #346, .T. ) ;
#308 = VERTEX_POINT ( 'NONE', #291 ) ;
#309 = FILL_AREA_STYLE ('',( #219 ) ) ;
#310 = DIRECTION ( 'NONE',  ( -0.8660254037844382600, 6.123233995736774700E-017, -0.5000000000000006700 ) ) ;
#311 = FACE_OUTER_BOUND ( 'NONE', #13, .T. ) ;
#312 = PLANE ( 'NONE',  #82 ) ;
#313 = VERTEX_POINT ( 'NONE', #200 ) ;
#314 = CARTESIAN_POINT ( 'NONE',  ( -4.999999999999997300, 0.0000000000000000000, 0.0000000000000000000 ) ) ;
#315 = EDGE_CURVE ( 'NONE', #208, #63, #372, .T. ) ;
#316 = CARTESIAN_POINT ( 'NONE',  ( 24.00000000000000000, 0.0000000000000000000, 0.0000000000000000000 ) ) ;
#317 = VECTOR ( 'NONE', #353, 1000.000000000000100 ) ;
#318 = EDGE_LOOP ( 'NONE', ( #29, #90, #181, #85 ) ) ;
#319 = EDGE_LOOP ( 'NONE', ( #57, #182 ) ) ;
#320 = DIRECTION ( 'NONE',  ( 0.0000000000000000000, 0.0000000000000000000, 1.000000000000000000 ) ) ;
#321 = EDGE_CURVE ( 'NONE', #208, #390, #383, .T. ) ;
#322 = ADVANCED_FACE ( 'NONE', ( #122 ), #89, .T. ) ;
#323 = MANIFOLD_SOLID_BREP ( 'Chanfrein1', #261 ) ;
#324 = CONICAL_SURFACE ( 'NONE', #228, 20.00000000000000000, 0.5235987755982926000 ) ;
#325 = ORIENTED_EDGE ( 'NONE', *, *, #134, .F. ) ;
#326 = FILL_AREA_STYLE ('',( #172 ) ) ;
#327 = LINE ( 'NONE', #74, #317 ) ;
#328 = EDGE_LOOP ( 'NONE', ( #69, #394 ) ) ;
#329 = ORIENTED_EDGE ( 'NONE', *, *, #368, .F. ) ;
#330 = AXIS2_PLACEMENT_3D ( 'NONE', #314, #256, #93 ) ;
#331 = FACE_OUTER_BOUND ( 'NONE', #12, .T. ) ;
#332 = EDGE_LOOP ( 'NONE', ( #325, #229, #379, #104 ) ) ;
#333 = MECHANICAL_DESIGN_GEOMETRIC_PRESENTATION_REPRESENTATION (  '', ( #359 ), #273 ) ;
#334 = CYLINDRICAL_SURFACE ( 'NONE', #242, 27.50000000000000000 ) ;
#335 = ORIENTED_EDGE ( 'NONE', *, *, #375, .F. ) ;
#336 = ORIENTED_EDGE ( 'NONE', *, *, #7, .T. ) ;
#337 = CARTESIAN_POINT ( 'NONE',  ( 22.26794919243114300, 0.0000000000000000000, 27.50000000000000000 ) ) ;
#338 = CARTESIAN_POINT ( 'NONE',  ( 24.00000000000000000, 20.00000000000000000, 0.0000000000000000000 ) ) ;
#339 = APPLICATION_PROTOCOL_DEFINITION ( 'draft international standard', 'automotive_design', 1998, #227 ) ;
#340 = AXIS2_PLACEMENT_3D ( 'NONE', #80, #201, #205 ) ;
#341 = ORIENTED_EDGE ( 'NONE', *, *, #30, .T. ) ;
#342 = DIRECTION ( 'NONE',  ( -1.000000000000000000, 0.0000000000000000000, 0.0000000000000000000 ) ) ;
#343 = EDGE_CURVE ( 'NONE', #63, #313, #275, .T. ) ;
#344 = CARTESIAN_POINT ( 'NONE',  ( -29.69885527785715600, 3.367778697655221300E-015, -27.50000000000000000 ) ) ;
#345 = CARTESIAN_POINT ( 'NONE',  ( 0.0000000000000000000, 0.0000000000000000000, 0.0000000000000000000 ) ) ;
#346 = CIRCLE ( 'NONE', #65, 40.00000000000000000 ) ;
#347 = ORIENTED_EDGE ( 'NONE', *, *, #350, .T. ) ;
#348 = DIRECTION ( 'NONE',  ( 0.0000000000000000000, 0.0000000000000000000, 1.000000000000000000 ) ) ;
#349 = CARTESIAN_POINT ( 'NONE',  ( 24.00000000000000000, 0.0000000000000000000, 26.50000000000001100 ) ) ;
#350 = EDGE_CURVE ( 'NONE', #168, #288, #52, .T. ) ;
#351 = DIRECTION ( 'NONE',  ( 0.0000000000000000000, 0.0000000000000000000, 1.000000000000000000 ) ) ;
#352 = CYLINDRICAL_SURFACE ( 'NONE', #363, 20.00000000000000000 ) ;
#353 = DIRECTION ( 'NONE',  ( -0.8660254037844418200, 6.123233995736699500E-017, -0.4999999999999946200 ) ) ;
#354 = CARTESIAN_POINT ( 'NONE',  ( -5.000000000000000900, 0.0000000000000000000, 0.0000000000000000000 ) ) ;
#355 = ADVANCED_FACE ( 'NONE', ( #95 ), #334, .T. ) ;
#356 = CARTESIAN_POINT ( 'NONE',  ( -4.999999999999997300, 2.571758278209440500E-015, -20.99999999999998900 ) ) ;
#357 = ORIENTED_EDGE ( 'NONE', *, *, #368, .T. ) ;
#358 = VERTEX_POINT ( 'NONE', #356 ) ;
#359 = STYLED_ITEM ( 'NONE', ( #102 ), #252 ) ;
#360 = ADVANCED_FACE ( 'NONE', ( #274 ), #352, .F. ) ;
#361 = VERTEX_POINT ( 'NONE', #109 ) ;
#362 = ORIENTED_EDGE ( 'NONE', *, *, #382, .T. ) ;
#363 = AXIS2_PLACEMENT_3D ( 'NONE', #44, #79, #269 ) ;
#364 = AXIS2_PLACEMENT_3D ( 'NONE', #6, #68, #137 ) ;
#365 = VECTOR ( 'NONE', #142, 1000.000000000000000 ) ;
#366 = ORIENTED_EDGE ( 'NONE', *, *, #26, .F. ) ;
#367 = DIRECTION ( 'NONE',  ( 0.0000000000000000000, 0.0000000000000000000, 1.000000000000000000 ) ) ;
#368 = EDGE_CURVE ( 'NONE', #185, #358, #327, .T. ) ;
#369 = ORIENTED_EDGE ( 'NONE', *, *, #281, .T. ) ;
#370 = SURFACE_SIDE_STYLE ('',( #56 ) ) ;
#371 = CARTESIAN_POINT ( 'NONE',  ( -3.267949192431111700, 2.449293598294706500E-015, -20.00000000000000000 ) ) ;
#372 = LINE ( 'NONE', #18, #365 ) ;
#373 = FACE_OUTER_BOUND ( 'NONE', #272, .T. ) ;
#374 = DIRECTION ( 'NONE',  ( -1.000000000000000000, 0.0000000000000000000, 0.0000000000000000000 ) ) ;
#375 = EDGE_CURVE ( 'NONE', #299, #361, #213, .T. ) ;
#376 = DIRECTION ( 'NONE',  ( -1.000000000000000000, 0.0000000000000000000, 0.0000000000000000000 ) ) ;
#377 = DIRECTION ( 'NONE',  ( 0.0000000000000000000, 0.0000000000000000000, -1.000000000000000000 ) ) ;
#378 = VERTEX_POINT ( 'NONE', #46 ) ;
#379 = ORIENTED_EDGE ( 'NONE', *, *, #315, .T. ) ;
#380 = DIRECTION ( 'NONE',  ( 0.0000000000000000000, 0.0000000000000000000, 1.000000000000000000 ) ) ;
#381 = ADVANCED_FACE ( 'NONE', ( #331 ), #249, .T. ) ;
#382 = EDGE_CURVE ( 'NONE', #308, #53, #19, .T. ) ;
#383 = CIRCLE ( 'NONE', #257, 20.00000000000000000 ) ;
#384 = FACE_OUTER_BOUND ( 'NONE', #22, .T. ) ;
#385 = AXIS2_PLACEMENT_3D ( 'NONE', #49, #81, #351 ) ;
#386 =( NAMED_UNIT ( * ) PLANE_ANGLE_UNIT ( ) SI_UNIT ( $, .RADIAN. ) );
#387 =( LENGTH_UNIT ( ) NAMED_UNIT ( * ) SI_UNIT ( .MILLI., .METRE. ) );
#388 = EDGE_CURVE ( 'NONE', #246, #168, #287, .T. ) ;
#389 = ADVANCED_FACE ( 'NONE', ( #190 ), #216, .T. ) ;
#390 = VERTEX_POINT ( 'NONE', #35 ) ;
#391 = EDGE_CURVE ( 'NONE', #361, #299, #173, .T. ) ;
#392 = PRODUCT_DEFINITION_SHAPE ( 'NONE', 'NONE',  #292 ) ;
#393 = CIRCLE ( 'NONE', #153, 20.00000000000000000 ) ;
#394 = ORIENTED_EDGE ( 'NONE', *, *, #375, .T. ) ;
ENDSEC;
END-ISO-10303-21;
