ISO-10303-21;
HEADER;
FILE_DESCRIPTION(('CATIA V5 STEP Exchange'),'2;1');

FILE_NAME('D:\\Traceur\\3Dtraceur\\positionnementParCourroie\\supportGuideJulienPAGNOT.stp','2016-03-01T18:35:41+00:00',('none'),('none'),'CATIA Version 5 Release 20 GA (IN-10)','CATIA V5 STEP AP203','none');

FILE_SCHEMA(('CONFIG_CONTROL_DESIGN'));

ENDSEC;
/* file written by CATIA V5R20 */
DATA;
#5=PRODUCT('Part5','','',(#2)) ;
#1=APPLICATION_CONTEXT('configuration controlled 3D design of mechanical parts and assemblies') ;
#14=PRODUCT_DEFINITION('',' ',#6,#3) ;
#16=SECURITY_CLASSIFICATION(' ',' ',#15) ;
#15=SECURITY_CLASSIFICATION_LEVEL('unclassified') ;
#47=CARTESIAN_POINT(' ',(0.,0.,0.)) ;
#52=CARTESIAN_POINT('Axis2P3D Location',(0.,85.,0.)) ;
#57=CARTESIAN_POINT('Line Origine',(25.,85.,0.)) ;
#61=CARTESIAN_POINT('Vertex',(0.,85.,0.)) ;
#63=CARTESIAN_POINT('Vertex',(50.,85.,0.)) ;
#66=CARTESIAN_POINT('Line Origine',(0.,85.,7.5)) ;
#70=CARTESIAN_POINT('Vertex',(0.,85.,15.)) ;
#73=CARTESIAN_POINT('Line Origine',(25.,85.,15.)) ;
#77=CARTESIAN_POINT('Vertex',(50.,85.,15.)) ;
#80=CARTESIAN_POINT('Line Origine',(50.,85.,7.5)) ;
#92=CARTESIAN_POINT('Axis2P3D Location',(0.,0.,15.)) ;
#97=CARTESIAN_POINT('Line Origine',(25.,0.,15.)) ;
#101=CARTESIAN_POINT('Vertex',(0.,2.84217094304E-014,15.)) ;
#103=CARTESIAN_POINT('Vertex',(50.,2.84217094304E-014,15.)) ;
#106=CARTESIAN_POINT('Line Origine',(0.,0.,7.5)) ;
#110=CARTESIAN_POINT('Vertex',(0.,0.,0.)) ;
#113=CARTESIAN_POINT('Line Origine',(25.,0.,0.)) ;
#117=CARTESIAN_POINT('Vertex',(50.,0.,0.)) ;
#120=CARTESIAN_POINT('Line Origine',(50.,0.,7.5)) ;
#132=CARTESIAN_POINT('Axis2P3D Location',(0.,0.,0.)) ;
#137=CARTESIAN_POINT('Line Origine',(0.,42.5,15.)) ;
#142=CARTESIAN_POINT('Line Origine',(0.,42.5,0.)) ;
#154=CARTESIAN_POINT('Axis2P3D Location',(50.,0.,0.)) ;
#159=CARTESIAN_POINT('Line Origine',(50.,42.5,0.)) ;
#164=CARTESIAN_POINT('Line Origine',(50.,42.5,15.)) ;
#176=CARTESIAN_POINT('Axis2P3D Location',(10.,10.,6.88999999984)) ;
#181=CARTESIAN_POINT('Axis2P3D Location',(10.,10.,0.)) ;
#185=CARTESIAN_POINT('Vertex',(7.,10.,0.)) ;
#187=CARTESIAN_POINT('Vertex',(13.,10.,0.)) ;
#190=CARTESIAN_POINT('Line Origine',(13.,10.,6.88999999984)) ;
#194=CARTESIAN_POINT('Vertex',(13.,10.,15.)) ;
#197=CARTESIAN_POINT('Axis2P3D Location',(10.,10.,15.)) ;
#201=CARTESIAN_POINT('Vertex',(7.,10.,15.)) ;
#204=CARTESIAN_POINT('Line Origine',(7.,10.,6.88999999984)) ;
#216=CARTESIAN_POINT('Axis2P3D Location',(10.,10.,0.)) ;
#221=CARTESIAN_POINT('Axis2P3D Location',(10.,10.,15.)) ;
#233=CARTESIAN_POINT('Axis2P3D Location',(40.,10.,6.88999999984)) ;
#238=CARTESIAN_POINT('Axis2P3D Location',(40.,10.,0.)) ;
#242=CARTESIAN_POINT('Vertex',(37.,10.,0.)) ;
#244=CARTESIAN_POINT('Vertex',(43.,10.,0.)) ;
#247=CARTESIAN_POINT('Line Origine',(43.,10.,6.88999999984)) ;
#251=CARTESIAN_POINT('Vertex',(43.,10.,15.)) ;
#254=CARTESIAN_POINT('Axis2P3D Location',(40.,10.,15.)) ;
#258=CARTESIAN_POINT('Vertex',(37.,10.,15.)) ;
#261=CARTESIAN_POINT('Line Origine',(37.,10.,6.88999999984)) ;
#273=CARTESIAN_POINT('Axis2P3D Location',(40.,10.,0.)) ;
#278=CARTESIAN_POINT('Axis2P3D Location',(40.,10.,15.)) ;
#290=CARTESIAN_POINT('Axis2P3D Location',(0.,0.,0.)) ;
#309=CARTESIAN_POINT('Axis2P3D Location',(25.,52.5,0.)) ;
#313=CARTESIAN_POINT('Vertex',(27.5,52.5,0.)) ;
#315=CARTESIAN_POINT('Vertex',(22.5,52.5,0.)) ;
#318=CARTESIAN_POINT('Axis2P3D Location',(25.,52.5,0.)) ;
#327=CARTESIAN_POINT('Axis2P3D Location',(25.,75.5,0.)) ;
#331=CARTESIAN_POINT('Vertex',(27.5,75.5,0.)) ;
#333=CARTESIAN_POINT('Vertex',(22.5,75.5,0.)) ;
#336=CARTESIAN_POINT('Axis2P3D Location',(25.,75.5,0.)) ;
#346=CARTESIAN_POINT('Axis2P3D Location',(0.,85.,15.)) ;
#365=CARTESIAN_POINT('Axis2P3D Location',(25.,52.5,15.)) ;
#369=CARTESIAN_POINT('Vertex',(27.5,52.5,15.)) ;
#371=CARTESIAN_POINT('Vertex',(22.5,52.5,15.)) ;
#374=CARTESIAN_POINT('Axis2P3D Location',(25.,52.5,15.)) ;
#383=CARTESIAN_POINT('Axis2P3D Location',(25.,75.5,15.)) ;
#387=CARTESIAN_POINT('Vertex',(27.5,75.5,15.)) ;
#389=CARTESIAN_POINT('Vertex',(22.5,75.5,15.)) ;
#392=CARTESIAN_POINT('Axis2P3D Location',(25.,75.5,15.)) ;
#402=CARTESIAN_POINT('Axis2P3D Location',(25.,75.5,6.88999999984)) ;
#407=CARTESIAN_POINT('Line Origine',(27.5,75.5,6.88999999984)) ;
#412=CARTESIAN_POINT('Line Origine',(22.5,75.5,6.88999999984)) ;
#431=CARTESIAN_POINT('Axis2P3D Location',(25.,52.5,6.88999999984)) ;
#436=CARTESIAN_POINT('Line Origine',(27.5,52.5,6.88999999984)) ;
#441=CARTESIAN_POINT('Line Origine',(22.5,52.5,6.88999999984)) ;
#53=DIRECTION('Axis2P3D Direction',(0.,1.,0.)) ;
#54=DIRECTION('Axis2P3D XDirection',(0.,0.,1.)) ;
#58=DIRECTION('Vector Direction',(1.,0.,0.)) ;
#67=DIRECTION('Vector Direction',(0.,0.,1.)) ;
#74=DIRECTION('Vector Direction',(1.,0.,0.)) ;
#81=DIRECTION('Vector Direction',(0.,0.,1.)) ;
#93=DIRECTION('Axis2P3D Direction',(0.,-1.,0.)) ;
#94=DIRECTION('Axis2P3D XDirection',(0.,0.,-1.)) ;
#98=DIRECTION('Vector Direction',(1.,0.,0.)) ;
#107=DIRECTION('Vector Direction',(0.,0.,-1.)) ;
#114=DIRECTION('Vector Direction',(1.,0.,0.)) ;
#121=DIRECTION('Vector Direction',(0.,0.,-1.)) ;
#133=DIRECTION('Axis2P3D Direction',(1.,0.,0.)) ;
#134=DIRECTION('Axis2P3D XDirection',(0.,1.,0.)) ;
#138=DIRECTION('Vector Direction',(0.,-1.,0.)) ;
#143=DIRECTION('Vector Direction',(0.,1.,0.)) ;
#155=DIRECTION('Axis2P3D Direction',(1.,0.,0.)) ;
#156=DIRECTION('Axis2P3D XDirection',(0.,1.,0.)) ;
#160=DIRECTION('Vector Direction',(0.,1.,0.)) ;
#165=DIRECTION('Vector Direction',(0.,-1.,0.)) ;
#177=DIRECTION('Axis2P3D Direction',(-0.,0.,1.)) ;
#178=DIRECTION('Axis2P3D XDirection',(1.,0.,0.)) ;
#182=DIRECTION('Axis2P3D Direction',(-0.,0.,1.)) ;
#191=DIRECTION('Vector Direction',(0.,0.,1.)) ;
#198=DIRECTION('Axis2P3D Direction',(-0.,0.,1.)) ;
#205=DIRECTION('Vector Direction',(0.,0.,1.)) ;
#217=DIRECTION('Axis2P3D Direction',(-0.,0.,1.)) ;
#222=DIRECTION('Axis2P3D Direction',(-0.,0.,1.)) ;
#234=DIRECTION('Axis2P3D Direction',(-0.,0.,1.)) ;
#235=DIRECTION('Axis2P3D XDirection',(1.,0.,0.)) ;
#239=DIRECTION('Axis2P3D Direction',(-0.,0.,1.)) ;
#248=DIRECTION('Vector Direction',(0.,0.,1.)) ;
#255=DIRECTION('Axis2P3D Direction',(-0.,0.,1.)) ;
#262=DIRECTION('Vector Direction',(0.,0.,1.)) ;
#274=DIRECTION('Axis2P3D Direction',(-0.,0.,1.)) ;
#279=DIRECTION('Axis2P3D Direction',(-0.,0.,1.)) ;
#291=DIRECTION('Axis2P3D Direction',(0.,0.,-1.)) ;
#292=DIRECTION('Axis2P3D XDirection',(0.,1.,0.)) ;
#310=DIRECTION('Axis2P3D Direction',(0.,0.,-1.)) ;
#319=DIRECTION('Axis2P3D Direction',(0.,0.,-1.)) ;
#328=DIRECTION('Axis2P3D Direction',(0.,0.,-1.)) ;
#337=DIRECTION('Axis2P3D Direction',(0.,0.,-1.)) ;
#347=DIRECTION('Axis2P3D Direction',(-0.,0.,1.)) ;
#348=DIRECTION('Axis2P3D XDirection',(0.,-1.,0.)) ;
#366=DIRECTION('Axis2P3D Direction',(-0.,0.,1.)) ;
#375=DIRECTION('Axis2P3D Direction',(-0.,0.,1.)) ;
#384=DIRECTION('Axis2P3D Direction',(-0.,0.,1.)) ;
#393=DIRECTION('Axis2P3D Direction',(-0.,0.,1.)) ;
#403=DIRECTION('Axis2P3D Direction',(-0.,0.,1.)) ;
#404=DIRECTION('Axis2P3D XDirection',(1.,0.,0.)) ;
#408=DIRECTION('Vector Direction',(0.,0.,1.)) ;
#413=DIRECTION('Vector Direction',(0.,0.,1.)) ;
#432=DIRECTION('Axis2P3D Direction',(-0.,0.,1.)) ;
#433=DIRECTION('Axis2P3D XDirection',(1.,0.,0.)) ;
#437=DIRECTION('Vector Direction',(0.,0.,1.)) ;
#442=DIRECTION('Vector Direction',(0.,0.,1.)) ;
#48=AXIS2_PLACEMENT_3D(' ',#47,$,$) ;
#55=AXIS2_PLACEMENT_3D('Plane Axis2P3D',#52,#53,#54) ;
#95=AXIS2_PLACEMENT_3D('Plane Axis2P3D',#92,#93,#94) ;
#135=AXIS2_PLACEMENT_3D('Plane Axis2P3D',#132,#133,#134) ;
#157=AXIS2_PLACEMENT_3D('Plane Axis2P3D',#154,#155,#156) ;
#179=AXIS2_PLACEMENT_3D('Cylinder Axis2P3D',#176,#177,#178) ;
#183=AXIS2_PLACEMENT_3D('Circle Axis2P3D',#181,#182,$) ;
#199=AXIS2_PLACEMENT_3D('Circle Axis2P3D',#197,#198,$) ;
#218=AXIS2_PLACEMENT_3D('Circle Axis2P3D',#216,#217,$) ;
#223=AXIS2_PLACEMENT_3D('Circle Axis2P3D',#221,#222,$) ;
#236=AXIS2_PLACEMENT_3D('Cylinder Axis2P3D',#233,#234,#235) ;
#240=AXIS2_PLACEMENT_3D('Circle Axis2P3D',#238,#239,$) ;
#256=AXIS2_PLACEMENT_3D('Circle Axis2P3D',#254,#255,$) ;
#275=AXIS2_PLACEMENT_3D('Circle Axis2P3D',#273,#274,$) ;
#280=AXIS2_PLACEMENT_3D('Circle Axis2P3D',#278,#279,$) ;
#293=AXIS2_PLACEMENT_3D('Plane Axis2P3D',#290,#291,#292) ;
#311=AXIS2_PLACEMENT_3D('Circle Axis2P3D',#309,#310,$) ;
#320=AXIS2_PLACEMENT_3D('Circle Axis2P3D',#318,#319,$) ;
#329=AXIS2_PLACEMENT_3D('Circle Axis2P3D',#327,#328,$) ;
#338=AXIS2_PLACEMENT_3D('Circle Axis2P3D',#336,#337,$) ;
#349=AXIS2_PLACEMENT_3D('Plane Axis2P3D',#346,#347,#348) ;
#367=AXIS2_PLACEMENT_3D('Circle Axis2P3D',#365,#366,$) ;
#376=AXIS2_PLACEMENT_3D('Circle Axis2P3D',#374,#375,$) ;
#385=AXIS2_PLACEMENT_3D('Circle Axis2P3D',#383,#384,$) ;
#394=AXIS2_PLACEMENT_3D('Circle Axis2P3D',#392,#393,$) ;
#405=AXIS2_PLACEMENT_3D('Cylinder Axis2P3D',#402,#403,#404) ;
#434=AXIS2_PLACEMENT_3D('Cylinder Axis2P3D',#431,#432,#433) ;
#40=PRODUCT_DEFINITION_SHAPE(' ',' ',#14) ;
#31=APPROVAL_PERSON_ORGANIZATION(#25,#21,#19) ;
#25=PERSON_AND_ORGANIZATION(#22,#23) ;
#22=PERSON(' ',' ',' ',$,$,$) ;
#23=ORGANIZATION(' ',' ',' ') ;
#21=APPROVAL(#20,' ') ;
#20=APPROVAL_STATUS('not_yet_approved') ;
#19=APPROVAL_ROLE('APPROVER') ;
#13=DATE_AND_TIME(#11,#12) ;
#12=LOCAL_TIME(19,35,41.,#10) ;
#10=COORDINATED_UNIVERSAL_TIME_OFFSET(0,0,.AHEAD.) ;
#86=ORIENTED_EDGE('',*,*,#65,.F.) ;
#87=ORIENTED_EDGE('',*,*,#72,.T.) ;
#88=ORIENTED_EDGE('',*,*,#79,.T.) ;
#89=ORIENTED_EDGE('',*,*,#84,.F.) ;
#126=ORIENTED_EDGE('',*,*,#105,.F.) ;
#127=ORIENTED_EDGE('',*,*,#112,.T.) ;
#128=ORIENTED_EDGE('',*,*,#119,.T.) ;
#129=ORIENTED_EDGE('',*,*,#124,.F.) ;
#148=ORIENTED_EDGE('',*,*,#112,.F.) ;
#149=ORIENTED_EDGE('',*,*,#141,.F.) ;
#150=ORIENTED_EDGE('',*,*,#72,.F.) ;
#151=ORIENTED_EDGE('',*,*,#146,.F.) ;
#170=ORIENTED_EDGE('',*,*,#163,.T.) ;
#171=ORIENTED_EDGE('',*,*,#84,.T.) ;
#172=ORIENTED_EDGE('',*,*,#168,.T.) ;
#173=ORIENTED_EDGE('',*,*,#124,.T.) ;
#210=ORIENTED_EDGE('',*,*,#189,.T.) ;
#211=ORIENTED_EDGE('',*,*,#196,.F.) ;
#212=ORIENTED_EDGE('',*,*,#203,.T.) ;
#213=ORIENTED_EDGE('',*,*,#208,.T.) ;
#227=ORIENTED_EDGE('',*,*,#220,.T.) ;
#228=ORIENTED_EDGE('',*,*,#208,.F.) ;
#229=ORIENTED_EDGE('',*,*,#225,.T.) ;
#230=ORIENTED_EDGE('',*,*,#196,.T.) ;
#267=ORIENTED_EDGE('',*,*,#246,.T.) ;
#268=ORIENTED_EDGE('',*,*,#253,.F.) ;
#269=ORIENTED_EDGE('',*,*,#260,.T.) ;
#270=ORIENTED_EDGE('',*,*,#265,.T.) ;
#284=ORIENTED_EDGE('',*,*,#277,.T.) ;
#285=ORIENTED_EDGE('',*,*,#265,.F.) ;
#286=ORIENTED_EDGE('',*,*,#282,.T.) ;
#287=ORIENTED_EDGE('',*,*,#253,.T.) ;
#296=ORIENTED_EDGE('',*,*,#119,.F.) ;
#297=ORIENTED_EDGE('',*,*,#146,.T.) ;
#298=ORIENTED_EDGE('',*,*,#65,.T.) ;
#299=ORIENTED_EDGE('',*,*,#163,.F.) ;
#302=ORIENTED_EDGE('',*,*,#277,.F.) ;
#303=ORIENTED_EDGE('',*,*,#246,.F.) ;
#306=ORIENTED_EDGE('',*,*,#220,.F.) ;
#307=ORIENTED_EDGE('',*,*,#189,.F.) ;
#324=ORIENTED_EDGE('',*,*,#317,.F.) ;
#325=ORIENTED_EDGE('',*,*,#322,.F.) ;
#342=ORIENTED_EDGE('',*,*,#335,.F.) ;
#343=ORIENTED_EDGE('',*,*,#340,.F.) ;
#352=ORIENTED_EDGE('',*,*,#79,.F.) ;
#353=ORIENTED_EDGE('',*,*,#141,.T.) ;
#354=ORIENTED_EDGE('',*,*,#105,.T.) ;
#355=ORIENTED_EDGE('',*,*,#168,.F.) ;
#358=ORIENTED_EDGE('',*,*,#260,.F.) ;
#359=ORIENTED_EDGE('',*,*,#282,.F.) ;
#362=ORIENTED_EDGE('',*,*,#203,.F.) ;
#363=ORIENTED_EDGE('',*,*,#225,.F.) ;
#380=ORIENTED_EDGE('',*,*,#373,.F.) ;
#381=ORIENTED_EDGE('',*,*,#378,.F.) ;
#398=ORIENTED_EDGE('',*,*,#391,.F.) ;
#399=ORIENTED_EDGE('',*,*,#396,.F.) ;
#418=ORIENTED_EDGE('',*,*,#340,.T.) ;
#419=ORIENTED_EDGE('',*,*,#411,.F.) ;
#420=ORIENTED_EDGE('',*,*,#391,.T.) ;
#421=ORIENTED_EDGE('',*,*,#416,.T.) ;
#425=ORIENTED_EDGE('',*,*,#335,.T.) ;
#426=ORIENTED_EDGE('',*,*,#416,.F.) ;
#427=ORIENTED_EDGE('',*,*,#396,.T.) ;
#428=ORIENTED_EDGE('',*,*,#411,.T.) ;
#447=ORIENTED_EDGE('',*,*,#322,.T.) ;
#448=ORIENTED_EDGE('',*,*,#440,.F.) ;
#449=ORIENTED_EDGE('',*,*,#373,.T.) ;
#450=ORIENTED_EDGE('',*,*,#445,.T.) ;
#454=ORIENTED_EDGE('',*,*,#317,.T.) ;
#455=ORIENTED_EDGE('',*,*,#445,.F.) ;
#456=ORIENTED_EDGE('',*,*,#378,.T.) ;
#457=ORIENTED_EDGE('',*,*,#440,.T.) ;
#304=FACE_BOUND('',#301,.T.) ;
#308=FACE_BOUND('',#305,.T.) ;
#326=FACE_BOUND('',#323,.T.) ;
#344=FACE_BOUND('',#341,.T.) ;
#360=FACE_BOUND('',#357,.T.) ;
#364=FACE_BOUND('',#361,.T.) ;
#382=FACE_BOUND('',#379,.T.) ;
#400=FACE_BOUND('',#397,.T.) ;
#51=CLOSED_SHELL('Closed Shell',(#91,#131,#153,#175,#215,#232,#272,#289,#345,#401,#423,#430,#452,#459)) ;
#59=VECTOR('Line Direction',#58,1.) ;
#68=VECTOR('Line Direction',#67,1.) ;
#75=VECTOR('Line Direction',#74,1.) ;
#82=VECTOR('Line Direction',#81,1.) ;
#99=VECTOR('Line Direction',#98,1.) ;
#108=VECTOR('Line Direction',#107,1.) ;
#115=VECTOR('Line Direction',#114,1.) ;
#122=VECTOR('Line Direction',#121,1.) ;
#139=VECTOR('Line Direction',#138,1.) ;
#144=VECTOR('Line Direction',#143,1.) ;
#161=VECTOR('Line Direction',#160,1.) ;
#166=VECTOR('Line Direction',#165,1.) ;
#192=VECTOR('Line Direction',#191,1.) ;
#206=VECTOR('Line Direction',#205,1.) ;
#249=VECTOR('Line Direction',#248,1.) ;
#263=VECTOR('Line Direction',#262,1.) ;
#409=VECTOR('Line Direction',#408,1.) ;
#414=VECTOR('Line Direction',#413,1.) ;
#438=VECTOR('Line Direction',#437,1.) ;
#443=VECTOR('Line Direction',#442,1.) ;
#461=ADVANCED_BREP_SHAPE_REPRESENTATION('NONE',(#460),#46) ;
#49=SHAPE_REPRESENTATION(' ',(#48),#46) ;
#91=ADVANCED_FACE('Corps de pi\X2\00E8\X0\ce.2',(#90),#56,.T.) ;
#131=ADVANCED_FACE('Corps de pi\X2\00E8\X0\ce.2',(#130),#96,.T.) ;
#153=ADVANCED_FACE('Corps de pi\X2\00E8\X0\ce.2',(#152),#136,.F.) ;
#175=ADVANCED_FACE('Corps de pi\X2\00E8\X0\ce.2',(#174),#158,.T.) ;
#215=ADVANCED_FACE('Corps de pi\X2\00E8\X0\ce.2',(#214),#180,.F.) ;
#232=ADVANCED_FACE('Corps de pi\X2\00E8\X0\ce.2',(#231),#180,.F.) ;
#272=ADVANCED_FACE('Corps de pi\X2\00E8\X0\ce.2',(#271),#237,.F.) ;
#289=ADVANCED_FACE('Corps de pi\X2\00E8\X0\ce.2',(#288),#237,.F.) ;
#345=ADVANCED_FACE('Corps de pi\X2\00E8\X0\ce.2',(#300,#304,#308,#326,#344),#294,.T.) ;
#401=ADVANCED_FACE('Corps de pi\X2\00E8\X0\ce.2',(#356,#360,#364,#382,#400),#350,.T.) ;
#423=ADVANCED_FACE('Corps de pi\X2\00E8\X0\ce.2',(#422),#406,.F.) ;
#430=ADVANCED_FACE('Corps de pi\X2\00E8\X0\ce.2',(#429),#406,.F.) ;
#452=ADVANCED_FACE('Corps de pi\X2\00E8\X0\ce.2',(#451),#435,.F.) ;
#459=ADVANCED_FACE('Corps de pi\X2\00E8\X0\ce.2',(#458),#435,.F.) ;
#4=APPLICATION_PROTOCOL_DEFINITION('international standard','config_control_design',1994,#1) ;
#32=APPROVAL_DATE_TIME(#13,#21) ;
#460=MANIFOLD_SOLID_BREP('Corps de pi\X2\00E8\X0\ce.2',#51) ;
#11=CALENDAR_DATE(2016,1,3) ;
#30=CC_DESIGN_APPROVAL(#21,(#16,#6,#14)) ;
#18=CC_DESIGN_DATE_AND_TIME_ASSIGNMENT(#13,#17,(#16)) ;
#29=CC_DESIGN_DATE_AND_TIME_ASSIGNMENT(#13,#28,(#14)) ;
#17=DATE_TIME_ROLE('classification_date') ;
#28=DATE_TIME_ROLE('creation_date') ;
#27=CC_DESIGN_PERSON_AND_ORGANIZATION_ASSIGNMENT(#25,#26,(#16)) ;
#33=CC_DESIGN_PERSON_AND_ORGANIZATION_ASSIGNMENT(#25,#34,(#6)) ;
#35=CC_DESIGN_PERSON_AND_ORGANIZATION_ASSIGNMENT(#25,#36,(#6,#14)) ;
#37=CC_DESIGN_PERSON_AND_ORGANIZATION_ASSIGNMENT(#25,#38,(#5)) ;
#26=PERSON_AND_ORGANIZATION_ROLE('classification_officer') ;
#34=PERSON_AND_ORGANIZATION_ROLE('design_supplier') ;
#36=PERSON_AND_ORGANIZATION_ROLE('creator') ;
#38=PERSON_AND_ORGANIZATION_ROLE('design_owner') ;
#39=CC_DESIGN_SECURITY_CLASSIFICATION(#16,(#6)) ;
#184=CIRCLE('generated circle',#183,3.) ;
#200=CIRCLE('generated circle',#199,3.) ;
#219=CIRCLE('generated circle',#218,3.) ;
#224=CIRCLE('generated circle',#223,3.) ;
#241=CIRCLE('generated circle',#240,3.) ;
#257=CIRCLE('generated circle',#256,3.) ;
#276=CIRCLE('generated circle',#275,3.) ;
#281=CIRCLE('generated circle',#280,3.) ;
#312=CIRCLE('generated circle',#311,2.5) ;
#321=CIRCLE('generated circle',#320,2.5) ;
#330=CIRCLE('generated circle',#329,2.5) ;
#339=CIRCLE('generated circle',#338,2.5) ;
#368=CIRCLE('generated circle',#367,2.5) ;
#377=CIRCLE('generated circle',#376,2.5) ;
#386=CIRCLE('generated circle',#385,2.5) ;
#395=CIRCLE('generated circle',#394,2.5) ;
#462=SHAPE_REPRESENTATION_RELATIONSHIP(' ',' ',#49,#461) ;
#180=CYLINDRICAL_SURFACE('generated cylinder',#179,3.) ;
#237=CYLINDRICAL_SURFACE('generated cylinder',#236,3.) ;
#406=CYLINDRICAL_SURFACE('generated cylinder',#405,2.5) ;
#435=CYLINDRICAL_SURFACE('generated cylinder',#434,2.5) ;
#3=DESIGN_CONTEXT(' ',#1,'design') ;
#65=EDGE_CURVE('',#62,#64,#60,.T.) ;
#72=EDGE_CURVE('',#62,#71,#69,.T.) ;
#79=EDGE_CURVE('',#71,#78,#76,.T.) ;
#84=EDGE_CURVE('',#64,#78,#83,.T.) ;
#105=EDGE_CURVE('',#102,#104,#100,.T.) ;
#112=EDGE_CURVE('',#102,#111,#109,.T.) ;
#119=EDGE_CURVE('',#111,#118,#116,.T.) ;
#124=EDGE_CURVE('',#104,#118,#123,.T.) ;
#141=EDGE_CURVE('',#71,#102,#140,.T.) ;
#146=EDGE_CURVE('',#111,#62,#145,.T.) ;
#163=EDGE_CURVE('',#118,#64,#162,.T.) ;
#168=EDGE_CURVE('',#78,#104,#167,.T.) ;
#189=EDGE_CURVE('',#186,#188,#184,.F.) ;
#196=EDGE_CURVE('',#195,#188,#193,.F.) ;
#203=EDGE_CURVE('',#195,#202,#200,.T.) ;
#208=EDGE_CURVE('',#202,#186,#207,.F.) ;
#220=EDGE_CURVE('',#188,#186,#219,.F.) ;
#225=EDGE_CURVE('',#202,#195,#224,.T.) ;
#246=EDGE_CURVE('',#243,#245,#241,.F.) ;
#253=EDGE_CURVE('',#252,#245,#250,.F.) ;
#260=EDGE_CURVE('',#252,#259,#257,.T.) ;
#265=EDGE_CURVE('',#259,#243,#264,.F.) ;
#277=EDGE_CURVE('',#245,#243,#276,.F.) ;
#282=EDGE_CURVE('',#259,#252,#281,.T.) ;
#317=EDGE_CURVE('',#314,#316,#312,.T.) ;
#322=EDGE_CURVE('',#316,#314,#321,.T.) ;
#335=EDGE_CURVE('',#332,#334,#330,.T.) ;
#340=EDGE_CURVE('',#334,#332,#339,.T.) ;
#373=EDGE_CURVE('',#370,#372,#368,.T.) ;
#378=EDGE_CURVE('',#372,#370,#377,.T.) ;
#391=EDGE_CURVE('',#388,#390,#386,.T.) ;
#396=EDGE_CURVE('',#390,#388,#395,.T.) ;
#411=EDGE_CURVE('',#388,#332,#410,.F.) ;
#416=EDGE_CURVE('',#390,#334,#415,.F.) ;
#440=EDGE_CURVE('',#370,#314,#439,.F.) ;
#445=EDGE_CURVE('',#372,#316,#444,.F.) ;
#85=EDGE_LOOP('',(#86,#87,#88,#89)) ;
#125=EDGE_LOOP('',(#126,#127,#128,#129)) ;
#147=EDGE_LOOP('',(#148,#149,#150,#151)) ;
#169=EDGE_LOOP('',(#170,#171,#172,#173)) ;
#209=EDGE_LOOP('',(#210,#211,#212,#213)) ;
#226=EDGE_LOOP('',(#227,#228,#229,#230)) ;
#266=EDGE_LOOP('',(#267,#268,#269,#270)) ;
#283=EDGE_LOOP('',(#284,#285,#286,#287)) ;
#295=EDGE_LOOP('',(#296,#297,#298,#299)) ;
#301=EDGE_LOOP('',(#302,#303)) ;
#305=EDGE_LOOP('',(#306,#307)) ;
#323=EDGE_LOOP('',(#324,#325)) ;
#341=EDGE_LOOP('',(#342,#343)) ;
#351=EDGE_LOOP('',(#352,#353,#354,#355)) ;
#357=EDGE_LOOP('',(#358,#359)) ;
#361=EDGE_LOOP('',(#362,#363)) ;
#379=EDGE_LOOP('',(#380,#381)) ;
#397=EDGE_LOOP('',(#398,#399)) ;
#417=EDGE_LOOP('',(#418,#419,#420,#421)) ;
#424=EDGE_LOOP('',(#425,#426,#427,#428)) ;
#446=EDGE_LOOP('',(#447,#448,#449,#450)) ;
#453=EDGE_LOOP('',(#454,#455,#456,#457)) ;
#90=FACE_OUTER_BOUND('',#85,.T.) ;
#130=FACE_OUTER_BOUND('',#125,.T.) ;
#152=FACE_OUTER_BOUND('',#147,.T.) ;
#174=FACE_OUTER_BOUND('',#169,.T.) ;
#214=FACE_OUTER_BOUND('',#209,.T.) ;
#231=FACE_OUTER_BOUND('',#226,.T.) ;
#271=FACE_OUTER_BOUND('',#266,.T.) ;
#288=FACE_OUTER_BOUND('',#283,.T.) ;
#300=FACE_OUTER_BOUND('',#295,.T.) ;
#356=FACE_OUTER_BOUND('',#351,.T.) ;
#422=FACE_OUTER_BOUND('',#417,.T.) ;
#429=FACE_OUTER_BOUND('',#424,.T.) ;
#451=FACE_OUTER_BOUND('',#446,.T.) ;
#458=FACE_OUTER_BOUND('',#453,.T.) ;
#45=UNCERTAINTY_MEASURE_WITH_UNIT(LENGTH_MEASURE(0.005),#41,'distance_accuracy_value','CONFUSED CURVE UNCERTAINTY') ;
#60=LINE('Line',#57,#59) ;
#69=LINE('Line',#66,#68) ;
#76=LINE('Line',#73,#75) ;
#83=LINE('Line',#80,#82) ;
#100=LINE('Line',#97,#99) ;
#109=LINE('Line',#106,#108) ;
#116=LINE('Line',#113,#115) ;
#123=LINE('Line',#120,#122) ;
#140=LINE('Line',#137,#139) ;
#145=LINE('Line',#142,#144) ;
#162=LINE('Line',#159,#161) ;
#167=LINE('Line',#164,#166) ;
#193=LINE('Line',#190,#192) ;
#207=LINE('Line',#204,#206) ;
#250=LINE('Line',#247,#249) ;
#264=LINE('Line',#261,#263) ;
#410=LINE('Line',#407,#409) ;
#415=LINE('Line',#412,#414) ;
#439=LINE('Line',#436,#438) ;
#444=LINE('Line',#441,#443) ;
#2=MECHANICAL_CONTEXT(' ',#1,'mechanical') ;
#24=PERSONAL_ADDRESS(' ',' ',' ',' ',' ',' ',' ',' ',' ',' ',' ',' ',(#22),' ') ;
#56=PLANE('Plane',#55) ;
#96=PLANE('Plane',#95) ;
#136=PLANE('Plane',#135) ;
#158=PLANE('Plane',#157) ;
#294=PLANE('Plane',#293) ;
#350=PLANE('Plane',#349) ;
#43=PLANE_ANGLE_MEASURE_WITH_UNIT(PLANE_ANGLE_MEASURE(0.0174532925199),#42) ;
#7=PRODUCT_CATEGORY('part',$) ;
#9=PRODUCT_CATEGORY_RELATIONSHIP(' ',' ',#7,#8) ;
#6=PRODUCT_DEFINITION_FORMATION_WITH_SPECIFIED_SOURCE('',' ',#5,.NOT_KNOWN.) ;
#8=PRODUCT_RELATED_PRODUCT_CATEGORY('detail',$,(#5)) ;
#50=SHAPE_DEFINITION_REPRESENTATION(#40,#49) ;
#62=VERTEX_POINT('',#61) ;
#64=VERTEX_POINT('',#63) ;
#71=VERTEX_POINT('',#70) ;
#78=VERTEX_POINT('',#77) ;
#102=VERTEX_POINT('',#101) ;
#104=VERTEX_POINT('',#103) ;
#111=VERTEX_POINT('',#110) ;
#118=VERTEX_POINT('',#117) ;
#186=VERTEX_POINT('',#185) ;
#188=VERTEX_POINT('',#187) ;
#195=VERTEX_POINT('',#194) ;
#202=VERTEX_POINT('',#201) ;
#243=VERTEX_POINT('',#242) ;
#245=VERTEX_POINT('',#244) ;
#252=VERTEX_POINT('',#251) ;
#259=VERTEX_POINT('',#258) ;
#314=VERTEX_POINT('',#313) ;
#316=VERTEX_POINT('',#315) ;
#332=VERTEX_POINT('',#331) ;
#334=VERTEX_POINT('',#333) ;
#370=VERTEX_POINT('',#369) ;
#372=VERTEX_POINT('',#371) ;
#388=VERTEX_POINT('',#387) ;
#390=VERTEX_POINT('',#389) ;
#41=(LENGTH_UNIT()NAMED_UNIT(*)SI_UNIT(.MILLI.,.METRE.)) ;
#42=(NAMED_UNIT(*)PLANE_ANGLE_UNIT()SI_UNIT($,.RADIAN.)) ;
#44=(NAMED_UNIT(*)SI_UNIT($,.STERADIAN.)SOLID_ANGLE_UNIT()) ;
#46=(GEOMETRIC_REPRESENTATION_CONTEXT(3)GLOBAL_UNCERTAINTY_ASSIGNED_CONTEXT((#45))GLOBAL_UNIT_ASSIGNED_CONTEXT((#41,#42,#44))REPRESENTATION_CONTEXT(' ',' ')) ;
ENDSEC;
END-ISO-10303-21;
