ISO-10303-21;
HEADER;
FILE_DESCRIPTION(('CATIA V5 STEP Exchange'),'2;1');

FILE_NAME('D:\\Traceur\\3Dtraceur\\positionnementParCourroie\\supportCourroieJulienPAGNOT.stp','2016-03-01T18:42:39+00:00',('none'),('none'),'CATIA Version 5 Release 20 GA (IN-10)','CATIA V5 STEP AP203','none');

FILE_SCHEMA(('CONFIG_CONTROL_DESIGN'));

ENDSEC;
/* file written by CATIA V5R20 */
DATA;
#5=PRODUCT('pince','','',(#2)) ;
#1=APPLICATION_CONTEXT('configuration controlled 3D design of mechanical parts and assemblies') ;
#14=PRODUCT_DEFINITION('',' ',#6,#3) ;
#16=SECURITY_CLASSIFICATION(' ',' ',#15) ;
#15=SECURITY_CLASSIFICATION_LEVEL('unclassified') ;
#47=CARTESIAN_POINT(' ',(0.,0.,0.)) ;
#52=CARTESIAN_POINT('Axis2P3D Location',(0.,32.,-2.90734020384E-014)) ;
#57=CARTESIAN_POINT('Line Origine',(17.5,32.,-2.90734020384E-014)) ;
#61=CARTESIAN_POINT('Vertex',(0.,32.,0.)) ;
#63=CARTESIAN_POINT('Vertex',(35.,32.,0.)) ;
#66=CARTESIAN_POINT('Line Origine',(0.,32.,2.5)) ;
#70=CARTESIAN_POINT('Vertex',(0.,32.,5.)) ;
#73=CARTESIAN_POINT('Line Origine',(17.5,32.,5.)) ;
#77=CARTESIAN_POINT('Vertex',(35.,32.,5.)) ;
#80=CARTESIAN_POINT('Line Origine',(35.,32.,2.5)) ;
#92=CARTESIAN_POINT('Axis2P3D Location',(0.,0.,5.)) ;
#97=CARTESIAN_POINT('Line Origine',(17.5,0.,5.)) ;
#101=CARTESIAN_POINT('Vertex',(0.,0.,5.)) ;
#103=CARTESIAN_POINT('Vertex',(35.,0.,5.)) ;
#106=CARTESIAN_POINT('Line Origine',(0.,0.,2.5)) ;
#110=CARTESIAN_POINT('Vertex',(0.,0.,0.)) ;
#113=CARTESIAN_POINT('Line Origine',(17.5,0.,0.)) ;
#117=CARTESIAN_POINT('Vertex',(35.,0.,0.)) ;
#120=CARTESIAN_POINT('Line Origine',(35.,0.,2.5)) ;
#132=CARTESIAN_POINT('Axis2P3D Location',(0.,0.,0.)) ;
#137=CARTESIAN_POINT('Line Origine',(0.,16.,5.)) ;
#142=CARTESIAN_POINT('Line Origine',(0.,16.,0.)) ;
#154=CARTESIAN_POINT('Axis2P3D Location',(35.,0.,0.)) ;
#159=CARTESIAN_POINT('Line Origine',(35.,16.,0.)) ;
#164=CARTESIAN_POINT('Line Origine',(35.,16.,5.)) ;
#176=CARTESIAN_POINT('Axis2P3D Location',(0.,32.,5.)) ;
#187=CARTESIAN_POINT('Axis2P3D Location',(17.5,4.5,5.)) ;
#191=CARTESIAN_POINT('Vertex',(20.5,4.5,5.)) ;
#193=CARTESIAN_POINT('Vertex',(14.5,4.5,5.)) ;
#196=CARTESIAN_POINT('Axis2P3D Location',(17.5,4.5,5.)) ;
#205=CARTESIAN_POINT('Axis2P3D Location',(17.5,27.5,5.)) ;
#209=CARTESIAN_POINT('Vertex',(20.5,27.5,5.)) ;
#211=CARTESIAN_POINT('Vertex',(14.5,27.5,5.)) ;
#214=CARTESIAN_POINT('Axis2P3D Location',(17.5,27.5,5.)) ;
#224=CARTESIAN_POINT('Axis2P3D Location',(0.,0.,0.)) ;
#235=CARTESIAN_POINT('Axis2P3D Location',(17.5,4.5,0.)) ;
#239=CARTESIAN_POINT('Vertex',(20.5,4.5,0.)) ;
#241=CARTESIAN_POINT('Vertex',(14.5,4.5,0.)) ;
#244=CARTESIAN_POINT('Axis2P3D Location',(17.5,4.5,0.)) ;
#253=CARTESIAN_POINT('Axis2P3D Location',(17.5,27.5,0.)) ;
#257=CARTESIAN_POINT('Vertex',(20.5,27.5,0.)) ;
#259=CARTESIAN_POINT('Vertex',(14.5,27.5,0.)) ;
#262=CARTESIAN_POINT('Axis2P3D Location',(17.5,27.5,0.)) ;
#272=CARTESIAN_POINT('Axis2P3D Location',(17.5,27.5,1.88999999994)) ;
#277=CARTESIAN_POINT('Line Origine',(20.5,27.5,1.88999999994)) ;
#282=CARTESIAN_POINT('Line Origine',(14.5,27.5,1.88999999994)) ;
#301=CARTESIAN_POINT('Axis2P3D Location',(17.5,4.5,1.88999999994)) ;
#306=CARTESIAN_POINT('Line Origine',(20.5,4.5,1.88999999994)) ;
#311=CARTESIAN_POINT('Line Origine',(14.5,4.5,1.88999999994)) ;
#53=DIRECTION('Axis2P3D Direction',(0.,1.,0.)) ;
#54=DIRECTION('Axis2P3D XDirection',(0.,0.,1.)) ;
#58=DIRECTION('Vector Direction',(1.,0.,0.)) ;
#67=DIRECTION('Vector Direction',(0.,0.,1.)) ;
#74=DIRECTION('Vector Direction',(1.,0.,0.)) ;
#81=DIRECTION('Vector Direction',(0.,0.,1.)) ;
#93=DIRECTION('Axis2P3D Direction',(0.,-1.,0.)) ;
#94=DIRECTION('Axis2P3D XDirection',(0.,0.,-1.)) ;
#98=DIRECTION('Vector Direction',(1.,0.,0.)) ;
#107=DIRECTION('Vector Direction',(0.,0.,-1.)) ;
#114=DIRECTION('Vector Direction',(1.,0.,0.)) ;
#121=DIRECTION('Vector Direction',(0.,0.,-1.)) ;
#133=DIRECTION('Axis2P3D Direction',(1.,0.,0.)) ;
#134=DIRECTION('Axis2P3D XDirection',(0.,1.,0.)) ;
#138=DIRECTION('Vector Direction',(0.,-1.,0.)) ;
#143=DIRECTION('Vector Direction',(0.,1.,0.)) ;
#155=DIRECTION('Axis2P3D Direction',(1.,0.,0.)) ;
#156=DIRECTION('Axis2P3D XDirection',(0.,1.,0.)) ;
#160=DIRECTION('Vector Direction',(0.,1.,0.)) ;
#165=DIRECTION('Vector Direction',(0.,-1.,0.)) ;
#177=DIRECTION('Axis2P3D Direction',(-0.,0.,1.)) ;
#178=DIRECTION('Axis2P3D XDirection',(0.,-1.,0.)) ;
#188=DIRECTION('Axis2P3D Direction',(-0.,0.,1.)) ;
#197=DIRECTION('Axis2P3D Direction',(-0.,0.,1.)) ;
#206=DIRECTION('Axis2P3D Direction',(-0.,0.,1.)) ;
#215=DIRECTION('Axis2P3D Direction',(-0.,0.,1.)) ;
#225=DIRECTION('Axis2P3D Direction',(0.,0.,-1.)) ;
#226=DIRECTION('Axis2P3D XDirection',(0.,1.,0.)) ;
#236=DIRECTION('Axis2P3D Direction',(0.,0.,-1.)) ;
#245=DIRECTION('Axis2P3D Direction',(0.,0.,-1.)) ;
#254=DIRECTION('Axis2P3D Direction',(0.,0.,-1.)) ;
#263=DIRECTION('Axis2P3D Direction',(0.,0.,-1.)) ;
#273=DIRECTION('Axis2P3D Direction',(-0.,0.,1.)) ;
#274=DIRECTION('Axis2P3D XDirection',(1.,0.,0.)) ;
#278=DIRECTION('Vector Direction',(0.,0.,1.)) ;
#283=DIRECTION('Vector Direction',(0.,0.,1.)) ;
#302=DIRECTION('Axis2P3D Direction',(-0.,0.,1.)) ;
#303=DIRECTION('Axis2P3D XDirection',(1.,0.,0.)) ;
#307=DIRECTION('Vector Direction',(0.,0.,1.)) ;
#312=DIRECTION('Vector Direction',(0.,0.,1.)) ;
#48=AXIS2_PLACEMENT_3D(' ',#47,$,$) ;
#55=AXIS2_PLACEMENT_3D('Plane Axis2P3D',#52,#53,#54) ;
#95=AXIS2_PLACEMENT_3D('Plane Axis2P3D',#92,#93,#94) ;
#135=AXIS2_PLACEMENT_3D('Plane Axis2P3D',#132,#133,#134) ;
#157=AXIS2_PLACEMENT_3D('Plane Axis2P3D',#154,#155,#156) ;
#179=AXIS2_PLACEMENT_3D('Plane Axis2P3D',#176,#177,#178) ;
#189=AXIS2_PLACEMENT_3D('Circle Axis2P3D',#187,#188,$) ;
#198=AXIS2_PLACEMENT_3D('Circle Axis2P3D',#196,#197,$) ;
#207=AXIS2_PLACEMENT_3D('Circle Axis2P3D',#205,#206,$) ;
#216=AXIS2_PLACEMENT_3D('Circle Axis2P3D',#214,#215,$) ;
#227=AXIS2_PLACEMENT_3D('Plane Axis2P3D',#224,#225,#226) ;
#237=AXIS2_PLACEMENT_3D('Circle Axis2P3D',#235,#236,$) ;
#246=AXIS2_PLACEMENT_3D('Circle Axis2P3D',#244,#245,$) ;
#255=AXIS2_PLACEMENT_3D('Circle Axis2P3D',#253,#254,$) ;
#264=AXIS2_PLACEMENT_3D('Circle Axis2P3D',#262,#263,$) ;
#275=AXIS2_PLACEMENT_3D('Cylinder Axis2P3D',#272,#273,#274) ;
#304=AXIS2_PLACEMENT_3D('Cylinder Axis2P3D',#301,#302,#303) ;
#40=PRODUCT_DEFINITION_SHAPE(' ',' ',#14) ;
#31=APPROVAL_PERSON_ORGANIZATION(#25,#21,#19) ;
#25=PERSON_AND_ORGANIZATION(#22,#23) ;
#22=PERSON(' ',' ',' ',$,$,$) ;
#23=ORGANIZATION(' ',' ',' ') ;
#21=APPROVAL(#20,' ') ;
#20=APPROVAL_STATUS('not_yet_approved') ;
#19=APPROVAL_ROLE('APPROVER') ;
#13=DATE_AND_TIME(#11,#12) ;
#12=LOCAL_TIME(19,42,39.,#10) ;
#10=COORDINATED_UNIVERSAL_TIME_OFFSET(0,0,.AHEAD.) ;
#86=ORIENTED_EDGE('',*,*,#65,.F.) ;
#87=ORIENTED_EDGE('',*,*,#72,.T.) ;
#88=ORIENTED_EDGE('',*,*,#79,.T.) ;
#89=ORIENTED_EDGE('',*,*,#84,.F.) ;
#126=ORIENTED_EDGE('',*,*,#105,.F.) ;
#127=ORIENTED_EDGE('',*,*,#112,.T.) ;
#128=ORIENTED_EDGE('',*,*,#119,.T.) ;
#129=ORIENTED_EDGE('',*,*,#124,.F.) ;
#148=ORIENTED_EDGE('',*,*,#112,.F.) ;
#149=ORIENTED_EDGE('',*,*,#141,.F.) ;
#150=ORIENTED_EDGE('',*,*,#72,.F.) ;
#151=ORIENTED_EDGE('',*,*,#146,.F.) ;
#170=ORIENTED_EDGE('',*,*,#163,.T.) ;
#171=ORIENTED_EDGE('',*,*,#84,.T.) ;
#172=ORIENTED_EDGE('',*,*,#168,.T.) ;
#173=ORIENTED_EDGE('',*,*,#124,.T.) ;
#182=ORIENTED_EDGE('',*,*,#79,.F.) ;
#183=ORIENTED_EDGE('',*,*,#141,.T.) ;
#184=ORIENTED_EDGE('',*,*,#105,.T.) ;
#185=ORIENTED_EDGE('',*,*,#168,.F.) ;
#202=ORIENTED_EDGE('',*,*,#195,.F.) ;
#203=ORIENTED_EDGE('',*,*,#200,.F.) ;
#220=ORIENTED_EDGE('',*,*,#213,.F.) ;
#221=ORIENTED_EDGE('',*,*,#218,.F.) ;
#230=ORIENTED_EDGE('',*,*,#119,.F.) ;
#231=ORIENTED_EDGE('',*,*,#146,.T.) ;
#232=ORIENTED_EDGE('',*,*,#65,.T.) ;
#233=ORIENTED_EDGE('',*,*,#163,.F.) ;
#250=ORIENTED_EDGE('',*,*,#243,.F.) ;
#251=ORIENTED_EDGE('',*,*,#248,.F.) ;
#268=ORIENTED_EDGE('',*,*,#261,.F.) ;
#269=ORIENTED_EDGE('',*,*,#266,.F.) ;
#288=ORIENTED_EDGE('',*,*,#266,.T.) ;
#289=ORIENTED_EDGE('',*,*,#281,.F.) ;
#290=ORIENTED_EDGE('',*,*,#213,.T.) ;
#291=ORIENTED_EDGE('',*,*,#286,.T.) ;
#295=ORIENTED_EDGE('',*,*,#261,.T.) ;
#296=ORIENTED_EDGE('',*,*,#286,.F.) ;
#297=ORIENTED_EDGE('',*,*,#218,.T.) ;
#298=ORIENTED_EDGE('',*,*,#281,.T.) ;
#317=ORIENTED_EDGE('',*,*,#248,.T.) ;
#318=ORIENTED_EDGE('',*,*,#310,.F.) ;
#319=ORIENTED_EDGE('',*,*,#195,.T.) ;
#320=ORIENTED_EDGE('',*,*,#315,.T.) ;
#324=ORIENTED_EDGE('',*,*,#243,.T.) ;
#325=ORIENTED_EDGE('',*,*,#315,.F.) ;
#326=ORIENTED_EDGE('',*,*,#200,.T.) ;
#327=ORIENTED_EDGE('',*,*,#310,.T.) ;
#204=FACE_BOUND('',#201,.T.) ;
#222=FACE_BOUND('',#219,.T.) ;
#252=FACE_BOUND('',#249,.T.) ;
#270=FACE_BOUND('',#267,.T.) ;
#51=CLOSED_SHELL('Closed Shell',(#91,#131,#153,#175,#223,#271,#293,#300,#322,#329)) ;
#59=VECTOR('Line Direction',#58,1.) ;
#68=VECTOR('Line Direction',#67,1.) ;
#75=VECTOR('Line Direction',#74,1.) ;
#82=VECTOR('Line Direction',#81,1.) ;
#99=VECTOR('Line Direction',#98,1.) ;
#108=VECTOR('Line Direction',#107,1.) ;
#115=VECTOR('Line Direction',#114,1.) ;
#122=VECTOR('Line Direction',#121,1.) ;
#139=VECTOR('Line Direction',#138,1.) ;
#144=VECTOR('Line Direction',#143,1.) ;
#161=VECTOR('Line Direction',#160,1.) ;
#166=VECTOR('Line Direction',#165,1.) ;
#279=VECTOR('Line Direction',#278,1.) ;
#284=VECTOR('Line Direction',#283,1.) ;
#308=VECTOR('Line Direction',#307,1.) ;
#313=VECTOR('Line Direction',#312,1.) ;
#331=ADVANCED_BREP_SHAPE_REPRESENTATION('NONE',(#330),#46) ;
#49=SHAPE_REPRESENTATION(' ',(#48),#46) ;
#91=ADVANCED_FACE('Corps de pi\X2\00E8\X0\ce.2',(#90),#56,.T.) ;
#131=ADVANCED_FACE('Corps de pi\X2\00E8\X0\ce.2',(#130),#96,.T.) ;
#153=ADVANCED_FACE('Corps de pi\X2\00E8\X0\ce.2',(#152),#136,.F.) ;
#175=ADVANCED_FACE('Corps de pi\X2\00E8\X0\ce.2',(#174),#158,.T.) ;
#223=ADVANCED_FACE('Corps de pi\X2\00E8\X0\ce.2',(#186,#204,#222),#180,.T.) ;
#271=ADVANCED_FACE('Corps de pi\X2\00E8\X0\ce.2',(#234,#252,#270),#228,.T.) ;
#293=ADVANCED_FACE('Corps de pi\X2\00E8\X0\ce.2',(#292),#276,.F.) ;
#300=ADVANCED_FACE('Corps de pi\X2\00E8\X0\ce.2',(#299),#276,.F.) ;
#322=ADVANCED_FACE('Corps de pi\X2\00E8\X0\ce.2',(#321),#305,.F.) ;
#329=ADVANCED_FACE('Corps de pi\X2\00E8\X0\ce.2',(#328),#305,.F.) ;
#4=APPLICATION_PROTOCOL_DEFINITION('international standard','config_control_design',1994,#1) ;
#32=APPROVAL_DATE_TIME(#13,#21) ;
#330=MANIFOLD_SOLID_BREP('Corps de pi\X2\00E8\X0\ce.2',#51) ;
#11=CALENDAR_DATE(2016,1,3) ;
#30=CC_DESIGN_APPROVAL(#21,(#16,#6,#14)) ;
#18=CC_DESIGN_DATE_AND_TIME_ASSIGNMENT(#13,#17,(#16)) ;
#29=CC_DESIGN_DATE_AND_TIME_ASSIGNMENT(#13,#28,(#14)) ;
#17=DATE_TIME_ROLE('classification_date') ;
#28=DATE_TIME_ROLE('creation_date') ;
#27=CC_DESIGN_PERSON_AND_ORGANIZATION_ASSIGNMENT(#25,#26,(#16)) ;
#33=CC_DESIGN_PERSON_AND_ORGANIZATION_ASSIGNMENT(#25,#34,(#6)) ;
#35=CC_DESIGN_PERSON_AND_ORGANIZATION_ASSIGNMENT(#25,#36,(#6,#14)) ;
#37=CC_DESIGN_PERSON_AND_ORGANIZATION_ASSIGNMENT(#25,#38,(#5)) ;
#26=PERSON_AND_ORGANIZATION_ROLE('classification_officer') ;
#34=PERSON_AND_ORGANIZATION_ROLE('design_supplier') ;
#36=PERSON_AND_ORGANIZATION_ROLE('creator') ;
#38=PERSON_AND_ORGANIZATION_ROLE('design_owner') ;
#39=CC_DESIGN_SECURITY_CLASSIFICATION(#16,(#6)) ;
#190=CIRCLE('generated circle',#189,3.) ;
#199=CIRCLE('generated circle',#198,3.) ;
#208=CIRCLE('generated circle',#207,3.) ;
#217=CIRCLE('generated circle',#216,3.) ;
#238=CIRCLE('generated circle',#237,3.) ;
#247=CIRCLE('generated circle',#246,3.) ;
#256=CIRCLE('generated circle',#255,3.) ;
#265=CIRCLE('generated circle',#264,3.) ;
#332=SHAPE_REPRESENTATION_RELATIONSHIP(' ',' ',#49,#331) ;
#276=CYLINDRICAL_SURFACE('generated cylinder',#275,3.) ;
#305=CYLINDRICAL_SURFACE('generated cylinder',#304,3.) ;
#3=DESIGN_CONTEXT(' ',#1,'design') ;
#65=EDGE_CURVE('',#62,#64,#60,.T.) ;
#72=EDGE_CURVE('',#62,#71,#69,.T.) ;
#79=EDGE_CURVE('',#71,#78,#76,.T.) ;
#84=EDGE_CURVE('',#64,#78,#83,.T.) ;
#105=EDGE_CURVE('',#102,#104,#100,.T.) ;
#112=EDGE_CURVE('',#102,#111,#109,.T.) ;
#119=EDGE_CURVE('',#111,#118,#116,.T.) ;
#124=EDGE_CURVE('',#104,#118,#123,.T.) ;
#141=EDGE_CURVE('',#71,#102,#140,.T.) ;
#146=EDGE_CURVE('',#111,#62,#145,.T.) ;
#163=EDGE_CURVE('',#118,#64,#162,.T.) ;
#168=EDGE_CURVE('',#78,#104,#167,.T.) ;
#195=EDGE_CURVE('',#192,#194,#190,.T.) ;
#200=EDGE_CURVE('',#194,#192,#199,.T.) ;
#213=EDGE_CURVE('',#210,#212,#208,.T.) ;
#218=EDGE_CURVE('',#212,#210,#217,.T.) ;
#243=EDGE_CURVE('',#240,#242,#238,.T.) ;
#248=EDGE_CURVE('',#242,#240,#247,.T.) ;
#261=EDGE_CURVE('',#258,#260,#256,.T.) ;
#266=EDGE_CURVE('',#260,#258,#265,.T.) ;
#281=EDGE_CURVE('',#210,#258,#280,.F.) ;
#286=EDGE_CURVE('',#212,#260,#285,.F.) ;
#310=EDGE_CURVE('',#192,#240,#309,.F.) ;
#315=EDGE_CURVE('',#194,#242,#314,.F.) ;
#85=EDGE_LOOP('',(#86,#87,#88,#89)) ;
#125=EDGE_LOOP('',(#126,#127,#128,#129)) ;
#147=EDGE_LOOP('',(#148,#149,#150,#151)) ;
#169=EDGE_LOOP('',(#170,#171,#172,#173)) ;
#181=EDGE_LOOP('',(#182,#183,#184,#185)) ;
#201=EDGE_LOOP('',(#202,#203)) ;
#219=EDGE_LOOP('',(#220,#221)) ;
#229=EDGE_LOOP('',(#230,#231,#232,#233)) ;
#249=EDGE_LOOP('',(#250,#251)) ;
#267=EDGE_LOOP('',(#268,#269)) ;
#287=EDGE_LOOP('',(#288,#289,#290,#291)) ;
#294=EDGE_LOOP('',(#295,#296,#297,#298)) ;
#316=EDGE_LOOP('',(#317,#318,#319,#320)) ;
#323=EDGE_LOOP('',(#324,#325,#326,#327)) ;
#90=FACE_OUTER_BOUND('',#85,.T.) ;
#130=FACE_OUTER_BOUND('',#125,.T.) ;
#152=FACE_OUTER_BOUND('',#147,.T.) ;
#174=FACE_OUTER_BOUND('',#169,.T.) ;
#186=FACE_OUTER_BOUND('',#181,.T.) ;
#234=FACE_OUTER_BOUND('',#229,.T.) ;
#292=FACE_OUTER_BOUND('',#287,.T.) ;
#299=FACE_OUTER_BOUND('',#294,.T.) ;
#321=FACE_OUTER_BOUND('',#316,.T.) ;
#328=FACE_OUTER_BOUND('',#323,.T.) ;
#45=UNCERTAINTY_MEASURE_WITH_UNIT(LENGTH_MEASURE(0.005),#41,'distance_accuracy_value','CONFUSED CURVE UNCERTAINTY') ;
#60=LINE('Line',#57,#59) ;
#69=LINE('Line',#66,#68) ;
#76=LINE('Line',#73,#75) ;
#83=LINE('Line',#80,#82) ;
#100=LINE('Line',#97,#99) ;
#109=LINE('Line',#106,#108) ;
#116=LINE('Line',#113,#115) ;
#123=LINE('Line',#120,#122) ;
#140=LINE('Line',#137,#139) ;
#145=LINE('Line',#142,#144) ;
#162=LINE('Line',#159,#161) ;
#167=LINE('Line',#164,#166) ;
#280=LINE('Line',#277,#279) ;
#285=LINE('Line',#282,#284) ;
#309=LINE('Line',#306,#308) ;
#314=LINE('Line',#311,#313) ;
#2=MECHANICAL_CONTEXT(' ',#1,'mechanical') ;
#24=PERSONAL_ADDRESS(' ',' ',' ',' ',' ',' ',' ',' ',' ',' ',' ',' ',(#22),' ') ;
#56=PLANE('Plane',#55) ;
#96=PLANE('Plane',#95) ;
#136=PLANE('Plane',#135) ;
#158=PLANE('Plane',#157) ;
#180=PLANE('Plane',#179) ;
#228=PLANE('Plane',#227) ;
#43=PLANE_ANGLE_MEASURE_WITH_UNIT(PLANE_ANGLE_MEASURE(0.0174532925199),#42) ;
#7=PRODUCT_CATEGORY('part',$) ;
#9=PRODUCT_CATEGORY_RELATIONSHIP(' ',' ',#7,#8) ;
#6=PRODUCT_DEFINITION_FORMATION_WITH_SPECIFIED_SOURCE('',' ',#5,.NOT_KNOWN.) ;
#8=PRODUCT_RELATED_PRODUCT_CATEGORY('detail',$,(#5)) ;
#50=SHAPE_DEFINITION_REPRESENTATION(#40,#49) ;
#62=VERTEX_POINT('',#61) ;
#64=VERTEX_POINT('',#63) ;
#71=VERTEX_POINT('',#70) ;
#78=VERTEX_POINT('',#77) ;
#102=VERTEX_POINT('',#101) ;
#104=VERTEX_POINT('',#103) ;
#111=VERTEX_POINT('',#110) ;
#118=VERTEX_POINT('',#117) ;
#192=VERTEX_POINT('',#191) ;
#194=VERTEX_POINT('',#193) ;
#210=VERTEX_POINT('',#209) ;
#212=VERTEX_POINT('',#211) ;
#240=VERTEX_POINT('',#239) ;
#242=VERTEX_POINT('',#241) ;
#258=VERTEX_POINT('',#257) ;
#260=VERTEX_POINT('',#259) ;
#41=(LENGTH_UNIT()NAMED_UNIT(*)SI_UNIT(.MILLI.,.METRE.)) ;
#42=(NAMED_UNIT(*)PLANE_ANGLE_UNIT()SI_UNIT($,.RADIAN.)) ;
#44=(NAMED_UNIT(*)SI_UNIT($,.STERADIAN.)SOLID_ANGLE_UNIT()) ;
#46=(GEOMETRIC_REPRESENTATION_CONTEXT(3)GLOBAL_UNCERTAINTY_ASSIGNED_CONTEXT((#45))GLOBAL_UNIT_ASSIGNED_CONTEXT((#41,#42,#44))REPRESENTATION_CONTEXT(' ',' ')) ;
ENDSEC;
END-ISO-10303-21;
