ISO-10303-21;
HEADER;
FILE_DESCRIPTION(('CATIA V5 STEP Exchange'),'2;1');

FILE_NAME('D:\\Mechanical Harmony\\Pivot en acier.stp','2016-02-14T19:59:09+00:00',('none'),('none'),'CATIA Version 5 Release 20 GA (IN-10)','CATIA V5 STEP AP203','none');

FILE_SCHEMA(('CONFIG_CONTROL_DESIGN'));

ENDSEC;
/* file written by CATIA V5R20 */
DATA;
#5=PRODUCT('Part1','','',(#2)) ;
#1=APPLICATION_CONTEXT('configuration controlled 3D design of mechanical parts and assemblies') ;
#14=PRODUCT_DEFINITION('',' ',#6,#3) ;
#16=SECURITY_CLASSIFICATION(' ',' ',#15) ;
#15=SECURITY_CLASSIFICATION_LEVEL('unclassified') ;
#47=CARTESIAN_POINT(' ',(0.,0.,0.)) ;
#52=CARTESIAN_POINT('Axis2P3D Location',(0.,60.,0.)) ;
#57=CARTESIAN_POINT('Axis2P3D Location',(0.,119.,0.)) ;
#61=CARTESIAN_POINT('Vertex',(-10.0679363107,119.,-18.4292337997)) ;
#63=CARTESIAN_POINT('Vertex',(10.0679363107,119.,18.4292337997)) ;
#66=CARTESIAN_POINT('Line Origine',(10.0679363107,114.,18.4292337997)) ;
#70=CARTESIAN_POINT('Vertex',(10.0679363107,108.,18.4292337997)) ;
#73=CARTESIAN_POINT('Axis2P3D Location',(0.,108.,0.)) ;
#77=CARTESIAN_POINT('Vertex',(-10.0679363107,108.,-18.4292337997)) ;
#80=CARTESIAN_POINT('Line Origine',(-10.0679363107,114.,-18.4292337997)) ;
#92=CARTESIAN_POINT('Axis2P3D Location',(0.,119.,0.)) ;
#97=CARTESIAN_POINT('Axis2P3D Location',(0.,108.,0.)) ;
#109=CARTESIAN_POINT('Axis2P3D Location',(1.13686837722E-013,98.,-7.54951656745E-014)) ;
#114=CARTESIAN_POINT('Line Origine',(-10.3076486249,119.5,-18.8680253293)) ;
#118=CARTESIAN_POINT('Vertex',(-10.5473612168,120.,-19.3068167071)) ;
#121=CARTESIAN_POINT('Axis2P3D Location',(-3.5527136788E-015,120.,2.6645352591E-015)) ;
#125=CARTESIAN_POINT('Vertex',(10.5473618493,120.,19.3068163616)) ;
#128=CARTESIAN_POINT('Line Origine',(10.30764908,119.5,18.8680250806)) ;
#140=CARTESIAN_POINT('Axis2P3D Location',(-3.46389583683E-013,98.,7.9936057773E-014)) ;
#145=CARTESIAN_POINT('Axis2P3D Location',(5.3290705182E-015,120.,1.7763568394E-015)) ;
#157=CARTESIAN_POINT('Axis2P3D Location',(0.,-60.,0.)) ;
#162=CARTESIAN_POINT('Line Origine',(-10.0679363107,-114.,-18.4292337997)) ;
#166=CARTESIAN_POINT('Vertex',(-10.0679363107,-108.,-18.4292337997)) ;
#168=CARTESIAN_POINT('Vertex',(-10.0679363107,-119.,-18.4292337997)) ;
#171=CARTESIAN_POINT('Axis2P3D Location',(0.,-108.,0.)) ;
#175=CARTESIAN_POINT('Vertex',(10.0679363107,-108.,18.4292337997)) ;
#178=CARTESIAN_POINT('Line Origine',(10.0679363107,-114.,18.4292337997)) ;
#182=CARTESIAN_POINT('Vertex',(10.0679363107,-119.,18.4292337997)) ;
#185=CARTESIAN_POINT('Axis2P3D Location',(0.,-119.,0.)) ;
#197=CARTESIAN_POINT('Axis2P3D Location',(0.,-108.,0.)) ;
#202=CARTESIAN_POINT('Axis2P3D Location',(0.,-119.,0.)) ;
#214=CARTESIAN_POINT('Axis2P3D Location',(1.13686837722E-013,-98.,-7.54951656745E-014)) ;
#219=CARTESIAN_POINT('Line Origine',(10.30764908,-119.5,18.8680250806)) ;
#223=CARTESIAN_POINT('Vertex',(10.5473618493,-120.,19.3068163616)) ;
#226=CARTESIAN_POINT('Axis2P3D Location',(-3.5527136788E-015,-120.,2.6645352591E-015)) ;
#230=CARTESIAN_POINT('Vertex',(-10.5473612168,-120.,-19.3068167071)) ;
#233=CARTESIAN_POINT('Line Origine',(-10.3076486249,-119.5,-18.8680253293)) ;
#245=CARTESIAN_POINT('Axis2P3D Location',(-3.46389583683E-013,-98.,7.9936057773E-014)) ;
#250=CARTESIAN_POINT('Axis2P3D Location',(5.3290705182E-015,-120.,1.7763568394E-015)) ;
#262=CARTESIAN_POINT('Axis2P3D Location',(0.,60.,0.)) ;
#267=CARTESIAN_POINT('Line Origine',(9.58851077208,54.,17.5516512378)) ;
#271=CARTESIAN_POINT('Vertex',(9.58851077208,108.,17.5516512378)) ;
#273=CARTESIAN_POINT('Vertex',(9.58851077208,-108.,17.5516512378)) ;
#276=CARTESIAN_POINT('Axis2P3D Location',(0.,108.,0.)) ;
#280=CARTESIAN_POINT('Vertex',(-9.58851077208,108.,-17.5516512378)) ;
#283=CARTESIAN_POINT('Line Origine',(-9.58851077208,54.,-17.5516512378)) ;
#287=CARTESIAN_POINT('Vertex',(-9.58851077208,-108.,-17.5516512378)) ;
#290=CARTESIAN_POINT('Axis2P3D Location',(0.,-108.,0.)) ;
#302=CARTESIAN_POINT('Axis2P3D Location',(0.,60.,0.)) ;
#307=CARTESIAN_POINT('Axis2P3D Location',(0.,120.,0.)) ;
#311=CARTESIAN_POINT('Vertex',(11.5062129265,120.,21.0619814854)) ;
#313=CARTESIAN_POINT('Vertex',(-11.5062129265,120.,-21.0619814854)) ;
#316=CARTESIAN_POINT('Line Origine',(11.5062129265,60.,21.0619814854)) ;
#320=CARTESIAN_POINT('Vertex',(11.5062129265,-120.,21.0619814854)) ;
#323=CARTESIAN_POINT('Axis2P3D Location',(0.,-120.,0.)) ;
#327=CARTESIAN_POINT('Vertex',(-11.5062129265,-120.,-21.0619814854)) ;
#330=CARTESIAN_POINT('Line Origine',(-11.5062129265,60.,-21.0619814854)) ;
#342=CARTESIAN_POINT('Axis2P3D Location',(0.,120.,0.)) ;
#347=CARTESIAN_POINT('Axis2P3D Location',(0.,-120.,0.)) ;
#359=CARTESIAN_POINT('Axis2P3D Location',(0.,108.,0.)) ;
#364=CARTESIAN_POINT('Axis2P3D Location',(0.,-108.,0.)) ;
#376=CARTESIAN_POINT('Axis2P3D Location',(0.,108.,21.)) ;
#390=CARTESIAN_POINT('Axis2P3D Location',(0.,120.,24.)) ;
#404=CARTESIAN_POINT('Axis2P3D Location',(0.,-108.,21.)) ;
#418=CARTESIAN_POINT('Axis2P3D Location',(0.,-120.,24.)) ;
#53=DIRECTION('Axis2P3D Direction',(0.,1.,0.)) ;
#54=DIRECTION('Axis2P3D XDirection',(0.479425538604,-0.,0.87758256189)) ;
#58=DIRECTION('Axis2P3D Direction',(0.,1.,0.)) ;
#67=DIRECTION('Vector Direction',(0.,1.,0.)) ;
#74=DIRECTION('Axis2P3D Direction',(0.,1.,0.)) ;
#81=DIRECTION('Vector Direction',(0.,1.,0.)) ;
#93=DIRECTION('Axis2P3D Direction',(0.,1.,0.)) ;
#98=DIRECTION('Axis2P3D Direction',(0.,1.,0.)) ;
#110=DIRECTION('Axis2P3D Direction',(-5.3290705182E-015,1.,3.5527136788E-015)) ;
#111=DIRECTION('Axis2P3D XDirection',(-0.382629221844,1.31708901597E-015,-0.923901985381)) ;
#115=DIRECTION('Vector Direction',(-0.339005034453,0.707106781187,-0.620544588741)) ;
#122=DIRECTION('Axis2P3D Direction',(-5.80479385666E-015,1.,2.40402530948E-015)) ;
#129=DIRECTION('Vector Direction',(0.339005049421,0.707106781187,0.620544580564)) ;
#141=DIRECTION('Axis2P3D Direction',(1.59872115546E-014,1.,-3.5527136788E-015)) ;
#142=DIRECTION('Axis2P3D XDirection',(0.479425538604,-4.47810265428E-015,0.87758256189)) ;
#146=DIRECTION('Axis2P3D Direction',(1.380732215E-014,1.,-7.54297446862E-015)) ;
#158=DIRECTION('Axis2P3D Direction',(-0.,1.,0.)) ;
#159=DIRECTION('Axis2P3D XDirection',(0.479425538604,0.,0.87758256189)) ;
#163=DIRECTION('Vector Direction',(0.,1.,0.)) ;
#172=DIRECTION('Axis2P3D Direction',(-0.,1.,0.)) ;
#179=DIRECTION('Vector Direction',(0.,1.,0.)) ;
#186=DIRECTION('Axis2P3D Direction',(-0.,1.,0.)) ;
#198=DIRECTION('Axis2P3D Direction',(-0.,1.,0.)) ;
#203=DIRECTION('Axis2P3D Direction',(-0.,1.,0.)) ;
#215=DIRECTION('Axis2P3D Direction',(-5.3290705182E-015,-1.,3.5527136788E-015)) ;
#216=DIRECTION('Axis2P3D XDirection',(-0.382629221844,-1.31708901597E-015,-0.923901985381)) ;
#220=DIRECTION('Vector Direction',(0.339005049421,-0.707106781187,0.620544580564)) ;
#227=DIRECTION('Axis2P3D Direction',(5.80479385666E-015,1.,-2.40402530948E-015)) ;
#234=DIRECTION('Vector Direction',(-0.339005034453,-0.707106781187,-0.620544588741)) ;
#246=DIRECTION('Axis2P3D Direction',(1.59872115546E-014,-1.,-3.5527136788E-015)) ;
#247=DIRECTION('Axis2P3D XDirection',(0.479425538604,4.47810265428E-015,0.87758256189)) ;
#251=DIRECTION('Axis2P3D Direction',(-1.380732215E-014,1.,7.54297446862E-015)) ;
#263=DIRECTION('Axis2P3D Direction',(0.,1.,0.)) ;
#264=DIRECTION('Axis2P3D XDirection',(0.479425538604,-0.,0.87758256189)) ;
#268=DIRECTION('Vector Direction',(0.,1.,0.)) ;
#277=DIRECTION('Axis2P3D Direction',(0.,1.,0.)) ;
#284=DIRECTION('Vector Direction',(0.,1.,0.)) ;
#291=DIRECTION('Axis2P3D Direction',(0.,1.,0.)) ;
#303=DIRECTION('Axis2P3D Direction',(0.,1.,0.)) ;
#304=DIRECTION('Axis2P3D XDirection',(0.479425538604,-0.,0.87758256189)) ;
#308=DIRECTION('Axis2P3D Direction',(0.,1.,0.)) ;
#317=DIRECTION('Vector Direction',(0.,1.,0.)) ;
#324=DIRECTION('Axis2P3D Direction',(0.,1.,0.)) ;
#331=DIRECTION('Vector Direction',(0.,1.,0.)) ;
#343=DIRECTION('Axis2P3D Direction',(0.,1.,0.)) ;
#348=DIRECTION('Axis2P3D Direction',(0.,1.,0.)) ;
#360=DIRECTION('Axis2P3D Direction',(0.,1.,0.)) ;
#365=DIRECTION('Axis2P3D Direction',(0.,1.,0.)) ;
#377=DIRECTION('Axis2P3D Direction',(0.,1.,0.)) ;
#378=DIRECTION('Axis2P3D XDirection',(1.,-0.,0.)) ;
#391=DIRECTION('Axis2P3D Direction',(0.,1.,0.)) ;
#392=DIRECTION('Axis2P3D XDirection',(1.,-0.,0.)) ;
#405=DIRECTION('Axis2P3D Direction',(-0.,1.,0.)) ;
#406=DIRECTION('Axis2P3D XDirection',(1.,0.,0.)) ;
#419=DIRECTION('Axis2P3D Direction',(-0.,1.,0.)) ;
#420=DIRECTION('Axis2P3D XDirection',(1.,0.,0.)) ;
#48=AXIS2_PLACEMENT_3D(' ',#47,$,$) ;
#55=AXIS2_PLACEMENT_3D('Cylinder Axis2P3D',#52,#53,#54) ;
#59=AXIS2_PLACEMENT_3D('Circle Axis2P3D',#57,#58,$) ;
#75=AXIS2_PLACEMENT_3D('Circle Axis2P3D',#73,#74,$) ;
#94=AXIS2_PLACEMENT_3D('Circle Axis2P3D',#92,#93,$) ;
#99=AXIS2_PLACEMENT_3D('Circle Axis2P3D',#97,#98,$) ;
#112=AXIS2_PLACEMENT_3D('Cone Axis2P3D',#109,#110,#111) ;
#123=AXIS2_PLACEMENT_3D('Circle Axis2P3D',#121,#122,$) ;
#143=AXIS2_PLACEMENT_3D('Cone Axis2P3D',#140,#141,#142) ;
#147=AXIS2_PLACEMENT_3D('Circle Axis2P3D',#145,#146,$) ;
#160=AXIS2_PLACEMENT_3D('Cylinder Axis2P3D',#157,#158,#159) ;
#173=AXIS2_PLACEMENT_3D('Circle Axis2P3D',#171,#172,$) ;
#187=AXIS2_PLACEMENT_3D('Circle Axis2P3D',#185,#186,$) ;
#199=AXIS2_PLACEMENT_3D('Circle Axis2P3D',#197,#198,$) ;
#204=AXIS2_PLACEMENT_3D('Circle Axis2P3D',#202,#203,$) ;
#217=AXIS2_PLACEMENT_3D('Cone Axis2P3D',#214,#215,#216) ;
#228=AXIS2_PLACEMENT_3D('Circle Axis2P3D',#226,#227,$) ;
#248=AXIS2_PLACEMENT_3D('Cone Axis2P3D',#245,#246,#247) ;
#252=AXIS2_PLACEMENT_3D('Circle Axis2P3D',#250,#251,$) ;
#265=AXIS2_PLACEMENT_3D('Cylinder Axis2P3D',#262,#263,#264) ;
#278=AXIS2_PLACEMENT_3D('Circle Axis2P3D',#276,#277,$) ;
#292=AXIS2_PLACEMENT_3D('Circle Axis2P3D',#290,#291,$) ;
#305=AXIS2_PLACEMENT_3D('Cylinder Axis2P3D',#302,#303,#304) ;
#309=AXIS2_PLACEMENT_3D('Circle Axis2P3D',#307,#308,$) ;
#325=AXIS2_PLACEMENT_3D('Circle Axis2P3D',#323,#324,$) ;
#344=AXIS2_PLACEMENT_3D('Circle Axis2P3D',#342,#343,$) ;
#349=AXIS2_PLACEMENT_3D('Circle Axis2P3D',#347,#348,$) ;
#361=AXIS2_PLACEMENT_3D('Circle Axis2P3D',#359,#360,$) ;
#366=AXIS2_PLACEMENT_3D('Circle Axis2P3D',#364,#365,$) ;
#379=AXIS2_PLACEMENT_3D('Plane Axis2P3D',#376,#377,#378) ;
#393=AXIS2_PLACEMENT_3D('Plane Axis2P3D',#390,#391,#392) ;
#407=AXIS2_PLACEMENT_3D('Plane Axis2P3D',#404,#405,#406) ;
#421=AXIS2_PLACEMENT_3D('Plane Axis2P3D',#418,#419,#420) ;
#40=PRODUCT_DEFINITION_SHAPE(' ',' ',#14) ;
#31=APPROVAL_PERSON_ORGANIZATION(#25,#21,#19) ;
#25=PERSON_AND_ORGANIZATION(#22,#23) ;
#22=PERSON(' ',' ',' ',$,$,$) ;
#23=ORGANIZATION(' ',' ',' ') ;
#21=APPROVAL(#20,' ') ;
#20=APPROVAL_STATUS('not_yet_approved') ;
#19=APPROVAL_ROLE('APPROVER') ;
#13=DATE_AND_TIME(#11,#12) ;
#12=LOCAL_TIME(20,59,8.,#10) ;
#10=COORDINATED_UNIVERSAL_TIME_OFFSET(0,0,.AHEAD.) ;
#86=ORIENTED_EDGE('',*,*,#65,.T.) ;
#87=ORIENTED_EDGE('',*,*,#72,.F.) ;
#88=ORIENTED_EDGE('',*,*,#79,.F.) ;
#89=ORIENTED_EDGE('',*,*,#84,.T.) ;
#103=ORIENTED_EDGE('',*,*,#96,.T.) ;
#104=ORIENTED_EDGE('',*,*,#84,.F.) ;
#105=ORIENTED_EDGE('',*,*,#101,.F.) ;
#106=ORIENTED_EDGE('',*,*,#72,.T.) ;
#134=ORIENTED_EDGE('',*,*,#120,.T.) ;
#135=ORIENTED_EDGE('',*,*,#127,.T.) ;
#136=ORIENTED_EDGE('',*,*,#132,.F.) ;
#137=ORIENTED_EDGE('',*,*,#65,.F.) ;
#151=ORIENTED_EDGE('',*,*,#132,.T.) ;
#152=ORIENTED_EDGE('',*,*,#149,.T.) ;
#153=ORIENTED_EDGE('',*,*,#120,.F.) ;
#154=ORIENTED_EDGE('',*,*,#96,.F.) ;
#191=ORIENTED_EDGE('',*,*,#170,.F.) ;
#192=ORIENTED_EDGE('',*,*,#177,.T.) ;
#193=ORIENTED_EDGE('',*,*,#184,.T.) ;
#194=ORIENTED_EDGE('',*,*,#189,.F.) ;
#208=ORIENTED_EDGE('',*,*,#184,.F.) ;
#209=ORIENTED_EDGE('',*,*,#201,.T.) ;
#210=ORIENTED_EDGE('',*,*,#170,.T.) ;
#211=ORIENTED_EDGE('',*,*,#206,.F.) ;
#239=ORIENTED_EDGE('',*,*,#189,.T.) ;
#240=ORIENTED_EDGE('',*,*,#225,.T.) ;
#241=ORIENTED_EDGE('',*,*,#232,.F.) ;
#242=ORIENTED_EDGE('',*,*,#237,.F.) ;
#256=ORIENTED_EDGE('',*,*,#206,.T.) ;
#257=ORIENTED_EDGE('',*,*,#237,.T.) ;
#258=ORIENTED_EDGE('',*,*,#254,.F.) ;
#259=ORIENTED_EDGE('',*,*,#225,.F.) ;
#296=ORIENTED_EDGE('',*,*,#275,.F.) ;
#297=ORIENTED_EDGE('',*,*,#282,.T.) ;
#298=ORIENTED_EDGE('',*,*,#289,.T.) ;
#299=ORIENTED_EDGE('',*,*,#294,.F.) ;
#336=ORIENTED_EDGE('',*,*,#315,.F.) ;
#337=ORIENTED_EDGE('',*,*,#322,.F.) ;
#338=ORIENTED_EDGE('',*,*,#329,.T.) ;
#339=ORIENTED_EDGE('',*,*,#334,.T.) ;
#353=ORIENTED_EDGE('',*,*,#346,.F.) ;
#354=ORIENTED_EDGE('',*,*,#334,.F.) ;
#355=ORIENTED_EDGE('',*,*,#351,.T.) ;
#356=ORIENTED_EDGE('',*,*,#322,.T.) ;
#370=ORIENTED_EDGE('',*,*,#289,.F.) ;
#371=ORIENTED_EDGE('',*,*,#363,.T.) ;
#372=ORIENTED_EDGE('',*,*,#275,.T.) ;
#373=ORIENTED_EDGE('',*,*,#368,.F.) ;
#382=ORIENTED_EDGE('',*,*,#79,.T.) ;
#383=ORIENTED_EDGE('',*,*,#101,.T.) ;
#386=ORIENTED_EDGE('',*,*,#282,.F.) ;
#387=ORIENTED_EDGE('',*,*,#363,.F.) ;
#396=ORIENTED_EDGE('',*,*,#346,.T.) ;
#397=ORIENTED_EDGE('',*,*,#315,.T.) ;
#400=ORIENTED_EDGE('',*,*,#149,.F.) ;
#401=ORIENTED_EDGE('',*,*,#127,.F.) ;
#410=ORIENTED_EDGE('',*,*,#201,.F.) ;
#411=ORIENTED_EDGE('',*,*,#177,.F.) ;
#414=ORIENTED_EDGE('',*,*,#368,.T.) ;
#415=ORIENTED_EDGE('',*,*,#294,.T.) ;
#424=ORIENTED_EDGE('',*,*,#329,.F.) ;
#425=ORIENTED_EDGE('',*,*,#351,.F.) ;
#428=ORIENTED_EDGE('',*,*,#232,.T.) ;
#429=ORIENTED_EDGE('',*,*,#254,.T.) ;
#388=FACE_BOUND('',#385,.T.) ;
#402=FACE_BOUND('',#399,.T.) ;
#416=FACE_BOUND('',#413,.T.) ;
#430=FACE_BOUND('',#427,.T.) ;
#51=CLOSED_SHELL('Closed Shell',(#91,#108,#139,#156,#196,#213,#244,#261,#301,#341,#358,#375,#389,#403,#417,#431)) ;
#68=VECTOR('Line Direction',#67,1.) ;
#82=VECTOR('Line Direction',#81,1.) ;
#116=VECTOR('Line Direction',#115,1.) ;
#130=VECTOR('Line Direction',#129,1.) ;
#164=VECTOR('Line Direction',#163,1.) ;
#180=VECTOR('Line Direction',#179,1.) ;
#221=VECTOR('Line Direction',#220,1.) ;
#235=VECTOR('Line Direction',#234,1.) ;
#269=VECTOR('Line Direction',#268,1.) ;
#285=VECTOR('Line Direction',#284,1.) ;
#318=VECTOR('Line Direction',#317,1.) ;
#332=VECTOR('Line Direction',#331,1.) ;
#433=ADVANCED_BREP_SHAPE_REPRESENTATION('NONE',(#432),#46) ;
#49=SHAPE_REPRESENTATION(' ',(#48),#46) ;
#91=ADVANCED_FACE('Corps principal',(#90),#56,.F.) ;
#108=ADVANCED_FACE('Corps principal',(#107),#56,.F.) ;
#139=ADVANCED_FACE('Corps principal',(#138),#113,.F.) ;
#156=ADVANCED_FACE('Corps principal',(#155),#144,.F.) ;
#196=ADVANCED_FACE('Corps principal',(#195),#161,.F.) ;
#213=ADVANCED_FACE('Corps principal',(#212),#161,.F.) ;
#244=ADVANCED_FACE('Corps principal',(#243),#218,.F.) ;
#261=ADVANCED_FACE('Corps principal',(#260),#249,.F.) ;
#301=ADVANCED_FACE('Corps principal',(#300),#266,.F.) ;
#341=ADVANCED_FACE('Corps principal',(#340),#306,.T.) ;
#358=ADVANCED_FACE('Corps principal',(#357),#306,.T.) ;
#375=ADVANCED_FACE('Corps principal',(#374),#266,.F.) ;
#389=ADVANCED_FACE('Corps principal',(#384,#388),#380,.T.) ;
#403=ADVANCED_FACE('Corps principal',(#398,#402),#394,.T.) ;
#417=ADVANCED_FACE('Corps principal',(#412,#416),#408,.F.) ;
#431=ADVANCED_FACE('Corps principal',(#426,#430),#422,.F.) ;
#4=APPLICATION_PROTOCOL_DEFINITION('international standard','config_control_design',1994,#1) ;
#32=APPROVAL_DATE_TIME(#13,#21) ;
#432=MANIFOLD_SOLID_BREP('Corps principal',#51) ;
#11=CALENDAR_DATE(2016,14,2) ;
#30=CC_DESIGN_APPROVAL(#21,(#16,#6,#14)) ;
#18=CC_DESIGN_DATE_AND_TIME_ASSIGNMENT(#13,#17,(#16)) ;
#29=CC_DESIGN_DATE_AND_TIME_ASSIGNMENT(#13,#28,(#14)) ;
#17=DATE_TIME_ROLE('classification_date') ;
#28=DATE_TIME_ROLE('creation_date') ;
#27=CC_DESIGN_PERSON_AND_ORGANIZATION_ASSIGNMENT(#25,#26,(#16)) ;
#33=CC_DESIGN_PERSON_AND_ORGANIZATION_ASSIGNMENT(#25,#34,(#6)) ;
#35=CC_DESIGN_PERSON_AND_ORGANIZATION_ASSIGNMENT(#25,#36,(#6,#14)) ;
#37=CC_DESIGN_PERSON_AND_ORGANIZATION_ASSIGNMENT(#25,#38,(#5)) ;
#26=PERSON_AND_ORGANIZATION_ROLE('classification_officer') ;
#34=PERSON_AND_ORGANIZATION_ROLE('design_supplier') ;
#36=PERSON_AND_ORGANIZATION_ROLE('creator') ;
#38=PERSON_AND_ORGANIZATION_ROLE('design_owner') ;
#39=CC_DESIGN_SECURITY_CLASSIFICATION(#16,(#6)) ;
#60=CIRCLE('generated circle',#59,21.) ;
#76=CIRCLE('generated circle',#75,21.) ;
#95=CIRCLE('generated circle',#94,21.) ;
#100=CIRCLE('generated circle',#99,21.) ;
#124=CIRCLE('generated circle',#123,22.) ;
#148=CIRCLE('generated circle',#147,22.) ;
#174=CIRCLE('generated circle',#173,21.) ;
#188=CIRCLE('generated circle',#187,21.) ;
#200=CIRCLE('generated circle',#199,21.) ;
#205=CIRCLE('generated circle',#204,21.) ;
#229=CIRCLE('generated circle',#228,22.) ;
#253=CIRCLE('generated circle',#252,22.) ;
#279=CIRCLE('generated circle',#278,20.) ;
#293=CIRCLE('generated circle',#292,20.) ;
#310=CIRCLE('generated circle',#309,24.) ;
#326=CIRCLE('generated circle',#325,24.) ;
#345=CIRCLE('generated circle',#344,24.) ;
#350=CIRCLE('generated circle',#349,24.) ;
#362=CIRCLE('generated circle',#361,20.) ;
#367=CIRCLE('generated circle',#366,20.) ;
#113=CONICAL_SURFACE('Cone',#112,0.,0.785398163397) ;
#144=CONICAL_SURFACE('Cone',#143,0.,0.785398163397) ;
#218=CONICAL_SURFACE('Cone',#217,0.,0.785398163397) ;
#249=CONICAL_SURFACE('Cone',#248,0.,0.785398163397) ;
#434=SHAPE_REPRESENTATION_RELATIONSHIP(' ',' ',#49,#433) ;
#56=CYLINDRICAL_SURFACE('generated cylinder',#55,21.) ;
#161=CYLINDRICAL_SURFACE('generated cylinder',#160,21.) ;
#266=CYLINDRICAL_SURFACE('generated cylinder',#265,20.) ;
#306=CYLINDRICAL_SURFACE('generated cylinder',#305,24.) ;
#3=DESIGN_CONTEXT(' ',#1,'design') ;
#65=EDGE_CURVE('',#62,#64,#60,.T.) ;
#72=EDGE_CURVE('',#71,#64,#69,.T.) ;
#79=EDGE_CURVE('',#78,#71,#76,.T.) ;
#84=EDGE_CURVE('',#78,#62,#83,.T.) ;
#96=EDGE_CURVE('',#64,#62,#95,.T.) ;
#101=EDGE_CURVE('',#71,#78,#100,.T.) ;
#120=EDGE_CURVE('',#62,#119,#117,.T.) ;
#127=EDGE_CURVE('',#119,#126,#124,.T.) ;
#132=EDGE_CURVE('',#64,#126,#131,.T.) ;
#149=EDGE_CURVE('',#126,#119,#148,.T.) ;
#170=EDGE_CURVE('',#167,#169,#165,.F.) ;
#177=EDGE_CURVE('',#167,#176,#174,.T.) ;
#184=EDGE_CURVE('',#176,#183,#181,.F.) ;
#189=EDGE_CURVE('',#169,#183,#188,.T.) ;
#201=EDGE_CURVE('',#176,#167,#200,.T.) ;
#206=EDGE_CURVE('',#183,#169,#205,.T.) ;
#225=EDGE_CURVE('',#183,#224,#222,.T.) ;
#232=EDGE_CURVE('',#231,#224,#229,.T.) ;
#237=EDGE_CURVE('',#169,#231,#236,.T.) ;
#254=EDGE_CURVE('',#224,#231,#253,.T.) ;
#275=EDGE_CURVE('',#272,#274,#270,.F.) ;
#282=EDGE_CURVE('',#272,#281,#279,.T.) ;
#289=EDGE_CURVE('',#281,#288,#286,.F.) ;
#294=EDGE_CURVE('',#274,#288,#293,.T.) ;
#315=EDGE_CURVE('',#312,#314,#310,.T.) ;
#322=EDGE_CURVE('',#321,#312,#319,.T.) ;
#329=EDGE_CURVE('',#321,#328,#326,.T.) ;
#334=EDGE_CURVE('',#328,#314,#333,.T.) ;
#346=EDGE_CURVE('',#314,#312,#345,.T.) ;
#351=EDGE_CURVE('',#328,#321,#350,.T.) ;
#363=EDGE_CURVE('',#281,#272,#362,.T.) ;
#368=EDGE_CURVE('',#288,#274,#367,.T.) ;
#85=EDGE_LOOP('',(#86,#87,#88,#89)) ;
#102=EDGE_LOOP('',(#103,#104,#105,#106)) ;
#133=EDGE_LOOP('',(#134,#135,#136,#137)) ;
#150=EDGE_LOOP('',(#151,#152,#153,#154)) ;
#190=EDGE_LOOP('',(#191,#192,#193,#194)) ;
#207=EDGE_LOOP('',(#208,#209,#210,#211)) ;
#238=EDGE_LOOP('',(#239,#240,#241,#242)) ;
#255=EDGE_LOOP('',(#256,#257,#258,#259)) ;
#295=EDGE_LOOP('',(#296,#297,#298,#299)) ;
#335=EDGE_LOOP('',(#336,#337,#338,#339)) ;
#352=EDGE_LOOP('',(#353,#354,#355,#356)) ;
#369=EDGE_LOOP('',(#370,#371,#372,#373)) ;
#381=EDGE_LOOP('',(#382,#383)) ;
#385=EDGE_LOOP('',(#386,#387)) ;
#395=EDGE_LOOP('',(#396,#397)) ;
#399=EDGE_LOOP('',(#400,#401)) ;
#409=EDGE_LOOP('',(#410,#411)) ;
#413=EDGE_LOOP('',(#414,#415)) ;
#423=EDGE_LOOP('',(#424,#425)) ;
#427=EDGE_LOOP('',(#428,#429)) ;
#90=FACE_OUTER_BOUND('',#85,.T.) ;
#107=FACE_OUTER_BOUND('',#102,.T.) ;
#138=FACE_OUTER_BOUND('',#133,.T.) ;
#155=FACE_OUTER_BOUND('',#150,.T.) ;
#195=FACE_OUTER_BOUND('',#190,.T.) ;
#212=FACE_OUTER_BOUND('',#207,.T.) ;
#243=FACE_OUTER_BOUND('',#238,.T.) ;
#260=FACE_OUTER_BOUND('',#255,.T.) ;
#300=FACE_OUTER_BOUND('',#295,.T.) ;
#340=FACE_OUTER_BOUND('',#335,.T.) ;
#357=FACE_OUTER_BOUND('',#352,.T.) ;
#374=FACE_OUTER_BOUND('',#369,.T.) ;
#384=FACE_OUTER_BOUND('',#381,.T.) ;
#398=FACE_OUTER_BOUND('',#395,.T.) ;
#412=FACE_OUTER_BOUND('',#409,.T.) ;
#426=FACE_OUTER_BOUND('',#423,.T.) ;
#45=UNCERTAINTY_MEASURE_WITH_UNIT(LENGTH_MEASURE(0.005),#41,'distance_accuracy_value','CONFUSED CURVE UNCERTAINTY') ;
#69=LINE('Line',#66,#68) ;
#83=LINE('Line',#80,#82) ;
#117=LINE('Line',#114,#116) ;
#131=LINE('Line',#128,#130) ;
#165=LINE('Line',#162,#164) ;
#181=LINE('Line',#178,#180) ;
#222=LINE('Line',#219,#221) ;
#236=LINE('Line',#233,#235) ;
#270=LINE('Line',#267,#269) ;
#286=LINE('Line',#283,#285) ;
#319=LINE('Line',#316,#318) ;
#333=LINE('Line',#330,#332) ;
#2=MECHANICAL_CONTEXT(' ',#1,'mechanical') ;
#24=PERSONAL_ADDRESS(' ',' ',' ',' ',' ',' ',' ',' ',' ',' ',' ',' ',(#22),' ') ;
#380=PLANE('Plane',#379) ;
#394=PLANE('Plane',#393) ;
#408=PLANE('Plane',#407) ;
#422=PLANE('Plane',#421) ;
#43=PLANE_ANGLE_MEASURE_WITH_UNIT(PLANE_ANGLE_MEASURE(0.0174532925199),#42) ;
#7=PRODUCT_CATEGORY('part',$) ;
#9=PRODUCT_CATEGORY_RELATIONSHIP(' ',' ',#7,#8) ;
#6=PRODUCT_DEFINITION_FORMATION_WITH_SPECIFIED_SOURCE('',' ',#5,.NOT_KNOWN.) ;
#8=PRODUCT_RELATED_PRODUCT_CATEGORY('detail',$,(#5)) ;
#50=SHAPE_DEFINITION_REPRESENTATION(#40,#49) ;
#62=VERTEX_POINT('',#61) ;
#64=VERTEX_POINT('',#63) ;
#71=VERTEX_POINT('',#70) ;
#78=VERTEX_POINT('',#77) ;
#119=VERTEX_POINT('',#118) ;
#126=VERTEX_POINT('',#125) ;
#167=VERTEX_POINT('',#166) ;
#169=VERTEX_POINT('',#168) ;
#176=VERTEX_POINT('',#175) ;
#183=VERTEX_POINT('',#182) ;
#224=VERTEX_POINT('',#223) ;
#231=VERTEX_POINT('',#230) ;
#272=VERTEX_POINT('',#271) ;
#274=VERTEX_POINT('',#273) ;
#281=VERTEX_POINT('',#280) ;
#288=VERTEX_POINT('',#287) ;
#312=VERTEX_POINT('',#311) ;
#314=VERTEX_POINT('',#313) ;
#321=VERTEX_POINT('',#320) ;
#328=VERTEX_POINT('',#327) ;
#41=(LENGTH_UNIT()NAMED_UNIT(*)SI_UNIT(.MILLI.,.METRE.)) ;
#42=(NAMED_UNIT(*)PLANE_ANGLE_UNIT()SI_UNIT($,.RADIAN.)) ;
#44=(NAMED_UNIT(*)SI_UNIT($,.STERADIAN.)SOLID_ANGLE_UNIT()) ;
#46=(GEOMETRIC_REPRESENTATION_CONTEXT(3)GLOBAL_UNCERTAINTY_ASSIGNED_CONTEXT((#45))GLOBAL_UNIT_ASSIGNED_CONTEXT((#41,#42,#44))REPRESENTATION_CONTEXT(' ',' ')) ;
ENDSEC;
END-ISO-10303-21;
