ISO-10303-21;
HEADER;
FILE_DESCRIPTION(('CATIA V5 STEP Exchange'),'2;1');

FILE_NAME('E:\\v5\\adaptateur cone.stp','2016-02-09T08:45:28+00:00',('none'),('none'),'CATIA Version 5 Release 17 (IN-10)','CATIA V5 STEP AP203','none');

FILE_SCHEMA(('CONFIG_CONTROL_DESIGN'));

ENDSEC;
/* file written by CATIA V5R17 */
DATA;
#5=PRODUCT('adaptateur cone','','',(#2)) ;
#1=APPLICATION_CONTEXT('configuration controlled 3D design of mechanical parts and assemblies') ;
#14=PRODUCT_DEFINITION(' ',' ',#6,#3) ;
#16=SECURITY_CLASSIFICATION(' ',' ',#15) ;
#15=SECURITY_CLASSIFICATION_LEVEL('unclassified') ;
#47=CARTESIAN_POINT(' ',(0.,0.,0.)) ;
#52=CARTESIAN_POINT('Axis2P3D Location',(0.,7.,0.)) ;
#57=CARTESIAN_POINT('Axis2P3D Location',(0.,7.,0.)) ;
#61=CARTESIAN_POINT('Vertex',(20.0160162367,7.,36.6390719589)) ;
#63=CARTESIAN_POINT('Vertex',(-20.0160162367,7.,-36.6390719589)) ;
#66=CARTESIAN_POINT('Line Origine',(21.3943646602,63.5,39.1621218244)) ;
#70=CARTESIAN_POINT('Vertex',(22.7727130837,120.,41.6851716898)) ;
#73=CARTESIAN_POINT('Axis2P3D Location',(0.,120.,0.)) ;
#77=CARTESIAN_POINT('Vertex',(-22.7727130837,120.,-41.6851716898)) ;
#80=CARTESIAN_POINT('Line Origine',(-21.3943646602,63.5,-39.1621218244)) ;
#92=CARTESIAN_POINT('Axis2P3D Location',(0.,7.,0.)) ;
#97=CARTESIAN_POINT('Axis2P3D Location',(0.,120.,0.)) ;
#109=CARTESIAN_POINT('Axis2P3D Location',(0.,60.,0.)) ;
#114=CARTESIAN_POINT('Axis2P3D Location',(0.,120.,0.)) ;
#118=CARTESIAN_POINT('Vertex',(23.9712769302,120.,43.8791280945)) ;
#120=CARTESIAN_POINT('Vertex',(-23.9712769302,120.,-43.8791280945)) ;
#123=CARTESIAN_POINT('Line Origine',(23.9712769302,60.,43.8791280945)) ;
#127=CARTESIAN_POINT('Vertex',(23.9712769302,1.42108547152E-014,43.8791280945)) ;
#130=CARTESIAN_POINT('Axis2P3D Location',(0.,1.42108547152E-014,0.)) ;
#134=CARTESIAN_POINT('Vertex',(-23.9712769302,1.42108547152E-014,-43.8791280945)) ;
#137=CARTESIAN_POINT('Line Origine',(-23.9712769302,60.,-43.8791280945)) ;
#149=CARTESIAN_POINT('Axis2P3D Location',(0.,120.,0.)) ;
#154=CARTESIAN_POINT('Axis2P3D Location',(0.,1.42108547152E-014,0.)) ;
#166=CARTESIAN_POINT('Axis2P3D Location',(0.,7.,45.25)) ;
#171=CARTESIAN_POINT('Axis2P3D Location',(0.,7.,0.)) ;
#175=CARTESIAN_POINT('Vertex',(21.6940056218,7.,39.7106109255)) ;
#177=CARTESIAN_POINT('Vertex',(-21.6940056218,7.,-39.7106109255)) ;
#180=CARTESIAN_POINT('Axis2P3D Location',(0.,7.,0.)) ;
#194=CARTESIAN_POINT('Axis2P3D Location',(0.,120.,47.5)) ;
#208=CARTESIAN_POINT('Axis2P3D Location',(0.,60.,0.)) ;
#213=CARTESIAN_POINT('Axis2P3D Location',(0.,1.,0.)) ;
#217=CARTESIAN_POINT('Vertex',(21.6940056218,1.,39.7106109255)) ;
#219=CARTESIAN_POINT('Vertex',(-21.6940056218,1.,-39.7106109255)) ;
#222=CARTESIAN_POINT('Line Origine',(21.6940056218,3.5,39.7106109255)) ;
#227=CARTESIAN_POINT('Line Origine',(-21.6940056218,3.5,-39.7106109255)) ;
#239=CARTESIAN_POINT('Axis2P3D Location',(0.,1.,0.)) ;
#251=CARTESIAN_POINT('Axis2P3D Location',(0.,0.,50.)) ;
#260=CARTESIAN_POINT('Axis2P3D Location',(3.5527136788E-015,0.,7.1054273576E-015)) ;
#264=CARTESIAN_POINT('Vertex',(-22.1734315221,0.,-40.5881932898)) ;
#266=CARTESIAN_POINT('Vertex',(22.1734311604,0.,40.5881934874)) ;
#269=CARTESIAN_POINT('Axis2P3D Location',(1.42108547152E-014,0.,0.)) ;
#279=CARTESIAN_POINT('Axis2P3D Location',(3.42836870004E-013,46.25,-6.57252030578E-013)) ;
#284=CARTESIAN_POINT('Line Origine',(-21.9337183911,0.500000000001,-40.1494022065)) ;
#289=CARTESIAN_POINT('Line Origine',(21.9337183911,0.5,40.1494022065)) ;
#301=CARTESIAN_POINT('Axis2P3D Location',(0.,46.25,-1.57207580287E-013)) ;
#53=DIRECTION('Axis2P3D Direction',(0.,1.,0.)) ;
#54=DIRECTION('Axis2P3D XDirection',(0.479425538604,0.,0.87758256189)) ;
#58=DIRECTION('Axis2P3D Direction',(0.,1.,0.)) ;
#67=DIRECTION('Vector Direction',(0.0243640250843,0.998707869363,0.0445980487682)) ;
#74=DIRECTION('Axis2P3D Direction',(0.,1.,0.)) ;
#81=DIRECTION('Vector Direction',(-0.0243640250843,0.998707869363,-0.0445980487682)) ;
#93=DIRECTION('Axis2P3D Direction',(0.,1.,0.)) ;
#98=DIRECTION('Axis2P3D Direction',(0.,1.,0.)) ;
#110=DIRECTION('Axis2P3D Direction',(0.,1.,0.)) ;
#111=DIRECTION('Axis2P3D XDirection',(0.479425538604,0.,0.87758256189)) ;
#115=DIRECTION('Axis2P3D Direction',(0.,1.,0.)) ;
#124=DIRECTION('Vector Direction',(0.,1.,0.)) ;
#131=DIRECTION('Axis2P3D Direction',(0.,1.,0.)) ;
#138=DIRECTION('Vector Direction',(0.,1.,0.)) ;
#150=DIRECTION('Axis2P3D Direction',(0.,1.,0.)) ;
#155=DIRECTION('Axis2P3D Direction',(0.,1.,0.)) ;
#167=DIRECTION('Axis2P3D Direction',(0.,1.,0.)) ;
#168=DIRECTION('Axis2P3D XDirection',(1.,0.,0.)) ;
#172=DIRECTION('Axis2P3D Direction',(0.,1.,0.)) ;
#181=DIRECTION('Axis2P3D Direction',(0.,1.,0.)) ;
#195=DIRECTION('Axis2P3D Direction',(0.,1.,0.)) ;
#196=DIRECTION('Axis2P3D XDirection',(1.,0.,0.)) ;
#209=DIRECTION('Axis2P3D Direction',(0.,1.,0.)) ;
#210=DIRECTION('Axis2P3D XDirection',(0.479425538604,0.,0.87758256189)) ;
#214=DIRECTION('Axis2P3D Direction',(0.,1.,0.)) ;
#223=DIRECTION('Vector Direction',(0.,1.,0.)) ;
#228=DIRECTION('Vector Direction',(0.,1.,0.)) ;
#240=DIRECTION('Axis2P3D Direction',(0.,1.,0.)) ;
#252=DIRECTION('Axis2P3D Direction',(0.,1.,0.)) ;
#253=DIRECTION('Axis2P3D XDirection',(1.,0.,0.)) ;
#261=DIRECTION('Axis2P3D Direction',(0.,1.,0.)) ;
#270=DIRECTION('Axis2P3D Direction',(0.,1.,0.)) ;
#280=DIRECTION('Axis2P3D Direction',(-7.1054273576E-015,-1.,1.42108547152E-014)) ;
#281=DIRECTION('Axis2P3D XDirection',(-0.166179738951,-1.27757634549E-014,-0.986095479334)) ;
#285=DIRECTION('Vector Direction',(-0.339005049421,-0.707106781187,-0.620544580564)) ;
#290=DIRECTION('Vector Direction',(0.339005049421,-0.707106781187,0.620544580564)) ;
#302=DIRECTION('Axis2P3D Direction',(0.,-1.,3.5527136788E-015)) ;
#303=DIRECTION('Axis2P3D XDirection',(0.479425538604,3.16101363832E-015,0.87758256189)) ;
#48=AXIS2_PLACEMENT_3D(' ',#47,$,$) ;
#55=AXIS2_PLACEMENT_3D('Cone Axis2P3D',#52,#53,#54) ;
#59=AXIS2_PLACEMENT_3D('Circle Axis2P3D',#57,#58,$) ;
#75=AXIS2_PLACEMENT_3D('Circle Axis2P3D',#73,#74,$) ;
#94=AXIS2_PLACEMENT_3D('Circle Axis2P3D',#92,#93,$) ;
#99=AXIS2_PLACEMENT_3D('Circle Axis2P3D',#97,#98,$) ;
#112=AXIS2_PLACEMENT_3D('Cylinder Axis2P3D',#109,#110,#111) ;
#116=AXIS2_PLACEMENT_3D('Circle Axis2P3D',#114,#115,$) ;
#132=AXIS2_PLACEMENT_3D('Circle Axis2P3D',#130,#131,$) ;
#151=AXIS2_PLACEMENT_3D('Circle Axis2P3D',#149,#150,$) ;
#156=AXIS2_PLACEMENT_3D('Circle Axis2P3D',#154,#155,$) ;
#169=AXIS2_PLACEMENT_3D('Plane Axis2P3D',#166,#167,#168) ;
#173=AXIS2_PLACEMENT_3D('Circle Axis2P3D',#171,#172,$) ;
#182=AXIS2_PLACEMENT_3D('Circle Axis2P3D',#180,#181,$) ;
#197=AXIS2_PLACEMENT_3D('Plane Axis2P3D',#194,#195,#196) ;
#211=AXIS2_PLACEMENT_3D('Cylinder Axis2P3D',#208,#209,#210) ;
#215=AXIS2_PLACEMENT_3D('Circle Axis2P3D',#213,#214,$) ;
#241=AXIS2_PLACEMENT_3D('Circle Axis2P3D',#239,#240,$) ;
#254=AXIS2_PLACEMENT_3D('Plane Axis2P3D',#251,#252,#253) ;
#262=AXIS2_PLACEMENT_3D('Circle Axis2P3D',#260,#261,$) ;
#271=AXIS2_PLACEMENT_3D('Circle Axis2P3D',#269,#270,$) ;
#282=AXIS2_PLACEMENT_3D('Cone Axis2P3D',#279,#280,#281) ;
#304=AXIS2_PLACEMENT_3D('Cone Axis2P3D',#301,#302,#303) ;
#40=PRODUCT_DEFINITION_SHAPE(' ',' ',#14) ;
#31=APPROVAL_PERSON_ORGANIZATION(#25,#21,#19) ;
#25=PERSON_AND_ORGANIZATION(#22,#23) ;
#22=PERSON(' ',' ',' ',$,$,$) ;
#23=ORGANIZATION(' ',' ',' ') ;
#21=APPROVAL(#20,' ') ;
#20=APPROVAL_STATUS('not_yet_approved') ;
#19=APPROVAL_ROLE('APPROVER') ;
#13=DATE_AND_TIME(#11,#12) ;
#12=LOCAL_TIME(9,45,27.,#10) ;
#10=COORDINATED_UNIVERSAL_TIME_OFFSET(0,0,.AHEAD.) ;
#86=ORIENTED_EDGE('',*,*,#65,.F.) ;
#87=ORIENTED_EDGE('',*,*,#72,.T.) ;
#88=ORIENTED_EDGE('',*,*,#79,.T.) ;
#89=ORIENTED_EDGE('',*,*,#84,.F.) ;
#103=ORIENTED_EDGE('',*,*,#96,.F.) ;
#104=ORIENTED_EDGE('',*,*,#84,.T.) ;
#105=ORIENTED_EDGE('',*,*,#101,.T.) ;
#106=ORIENTED_EDGE('',*,*,#72,.F.) ;
#143=ORIENTED_EDGE('',*,*,#122,.F.) ;
#144=ORIENTED_EDGE('',*,*,#129,.T.) ;
#145=ORIENTED_EDGE('',*,*,#136,.T.) ;
#146=ORIENTED_EDGE('',*,*,#141,.F.) ;
#160=ORIENTED_EDGE('',*,*,#153,.F.) ;
#161=ORIENTED_EDGE('',*,*,#141,.T.) ;
#162=ORIENTED_EDGE('',*,*,#158,.T.) ;
#163=ORIENTED_EDGE('',*,*,#129,.F.) ;
#186=ORIENTED_EDGE('',*,*,#179,.F.) ;
#187=ORIENTED_EDGE('',*,*,#184,.F.) ;
#190=ORIENTED_EDGE('',*,*,#96,.T.) ;
#191=ORIENTED_EDGE('',*,*,#65,.T.) ;
#200=ORIENTED_EDGE('',*,*,#153,.T.) ;
#201=ORIENTED_EDGE('',*,*,#122,.T.) ;
#204=ORIENTED_EDGE('',*,*,#79,.F.) ;
#205=ORIENTED_EDGE('',*,*,#101,.F.) ;
#233=ORIENTED_EDGE('',*,*,#221,.F.) ;
#234=ORIENTED_EDGE('',*,*,#226,.T.) ;
#235=ORIENTED_EDGE('',*,*,#179,.T.) ;
#236=ORIENTED_EDGE('',*,*,#231,.F.) ;
#245=ORIENTED_EDGE('',*,*,#243,.F.) ;
#246=ORIENTED_EDGE('',*,*,#231,.T.) ;
#247=ORIENTED_EDGE('',*,*,#184,.T.) ;
#248=ORIENTED_EDGE('',*,*,#226,.F.) ;
#257=ORIENTED_EDGE('',*,*,#136,.F.) ;
#258=ORIENTED_EDGE('',*,*,#158,.F.) ;
#275=ORIENTED_EDGE('',*,*,#268,.T.) ;
#276=ORIENTED_EDGE('',*,*,#273,.T.) ;
#295=ORIENTED_EDGE('',*,*,#288,.T.) ;
#296=ORIENTED_EDGE('',*,*,#243,.T.) ;
#297=ORIENTED_EDGE('',*,*,#293,.F.) ;
#298=ORIENTED_EDGE('',*,*,#268,.F.) ;
#307=ORIENTED_EDGE('',*,*,#293,.T.) ;
#308=ORIENTED_EDGE('',*,*,#221,.T.) ;
#309=ORIENTED_EDGE('',*,*,#288,.F.) ;
#310=ORIENTED_EDGE('',*,*,#273,.F.) ;
#192=FACE_BOUND('',#189,.T.) ;
#206=FACE_BOUND('',#203,.T.) ;
#277=FACE_BOUND('',#274,.T.) ;
#51=CLOSED_SHELL('Closed Shell',(#91,#108,#148,#165,#193,#207,#238,#250,#278,#300,#312)) ;
#68=VECTOR('Line Direction',#67,1.) ;
#82=VECTOR('Line Direction',#81,1.) ;
#125=VECTOR('Line Direction',#124,1.) ;
#139=VECTOR('Line Direction',#138,1.) ;
#224=VECTOR('Line Direction',#223,1.) ;
#229=VECTOR('Line Direction',#228,1.) ;
#286=VECTOR('Line Direction',#285,1.) ;
#291=VECTOR('Line Direction',#290,1.) ;
#314=ADVANCED_BREP_SHAPE_REPRESENTATION('NONE',(#313),#46) ;
#49=SHAPE_REPRESENTATION(' ',(#48),#46) ;
#91=ADVANCED_FACE('',(#90),#56,.F.) ;
#108=ADVANCED_FACE('',(#107),#56,.F.) ;
#148=ADVANCED_FACE('',(#147),#113,.T.) ;
#165=ADVANCED_FACE('',(#164),#113,.T.) ;
#193=ADVANCED_FACE('',(#188,#192),#170,.F.) ;
#207=ADVANCED_FACE('',(#202,#206),#198,.T.) ;
#238=ADVANCED_FACE('',(#237),#212,.F.) ;
#250=ADVANCED_FACE('',(#249),#212,.F.) ;
#278=ADVANCED_FACE('',(#259,#277),#255,.F.) ;
#300=ADVANCED_FACE('',(#299),#283,.F.) ;
#312=ADVANCED_FACE('',(#311),#305,.F.) ;
#4=APPLICATION_PROTOCOL_DEFINITION('international standard','config_control_design',1994,#1) ;
#32=APPROVAL_DATE_TIME(#13,#21) ;
#313=MANIFOLD_SOLID_BREP('Corps principal',#51) ;
#11=CALENDAR_DATE(2016,9,2) ;
#30=CC_DESIGN_APPROVAL(#21,(#16,#6,#14)) ;
#18=CC_DESIGN_DATE_AND_TIME_ASSIGNMENT(#13,#17,(#16)) ;
#29=CC_DESIGN_DATE_AND_TIME_ASSIGNMENT(#13,#28,(#14)) ;
#17=DATE_TIME_ROLE('classification_date') ;
#28=DATE_TIME_ROLE('creation_date') ;
#27=CC_DESIGN_PERSON_AND_ORGANIZATION_ASSIGNMENT(#25,#26,(#16)) ;
#33=CC_DESIGN_PERSON_AND_ORGANIZATION_ASSIGNMENT(#25,#34,(#6)) ;
#35=CC_DESIGN_PERSON_AND_ORGANIZATION_ASSIGNMENT(#25,#36,(#6,#14)) ;
#37=CC_DESIGN_PERSON_AND_ORGANIZATION_ASSIGNMENT(#25,#38,(#5)) ;
#26=PERSON_AND_ORGANIZATION_ROLE('classification_officer') ;
#34=PERSON_AND_ORGANIZATION_ROLE('design_supplier') ;
#36=PERSON_AND_ORGANIZATION_ROLE('creator') ;
#38=PERSON_AND_ORGANIZATION_ROLE('design_owner') ;
#39=CC_DESIGN_SECURITY_CLASSIFICATION(#16,(#6)) ;
#60=CIRCLE('generated circle',#59,41.75) ;
#76=CIRCLE('generated circle',#75,47.5) ;
#95=CIRCLE('generated circle',#94,41.75) ;
#100=CIRCLE('generated circle',#99,47.5) ;
#117=CIRCLE('generated circle',#116,50.) ;
#133=CIRCLE('generated circle',#132,50.) ;
#152=CIRCLE('generated circle',#151,50.) ;
#157=CIRCLE('generated circle',#156,50.) ;
#174=CIRCLE('generated circle',#173,45.25) ;
#183=CIRCLE('generated circle',#182,45.25) ;
#216=CIRCLE('generated circle',#215,45.25) ;
#242=CIRCLE('generated circle',#241,45.25) ;
#263=CIRCLE('generated circle',#262,46.25) ;
#272=CIRCLE('generated circle',#271,46.25) ;
#56=CONICAL_SURFACE('Cone',#55,41.75,0.0508411054121) ;
#283=CONICAL_SURFACE('Cone',#282,0.,0.785398163397) ;
#305=CONICAL_SURFACE('Cone',#304,0.,0.785398163397) ;
#315=SHAPE_REPRESENTATION_RELATIONSHIP(' ',' ',#49,#314) ;
#113=CYLINDRICAL_SURFACE('generated cylinder',#112,50.) ;
#212=CYLINDRICAL_SURFACE('generated cylinder',#211,45.25) ;
#3=DESIGN_CONTEXT(' ',#1,'design') ;
#65=EDGE_CURVE('',#62,#64,#60,.T.) ;
#72=EDGE_CURVE('',#62,#71,#69,.T.) ;
#79=EDGE_CURVE('',#71,#78,#76,.T.) ;
#84=EDGE_CURVE('',#64,#78,#83,.T.) ;
#96=EDGE_CURVE('',#64,#62,#95,.T.) ;
#101=EDGE_CURVE('',#78,#71,#100,.T.) ;
#122=EDGE_CURVE('',#119,#121,#117,.T.) ;
#129=EDGE_CURVE('',#119,#128,#126,.F.) ;
#136=EDGE_CURVE('',#128,#135,#133,.T.) ;
#141=EDGE_CURVE('',#121,#135,#140,.F.) ;
#153=EDGE_CURVE('',#121,#119,#152,.T.) ;
#158=EDGE_CURVE('',#135,#128,#157,.T.) ;
#179=EDGE_CURVE('',#176,#178,#174,.T.) ;
#184=EDGE_CURVE('',#178,#176,#183,.T.) ;
#221=EDGE_CURVE('',#218,#220,#216,.T.) ;
#226=EDGE_CURVE('',#218,#176,#225,.T.) ;
#231=EDGE_CURVE('',#220,#178,#230,.T.) ;
#243=EDGE_CURVE('',#220,#218,#242,.T.) ;
#268=EDGE_CURVE('',#265,#267,#263,.T.) ;
#273=EDGE_CURVE('',#267,#265,#272,.T.) ;
#288=EDGE_CURVE('',#265,#220,#287,.F.) ;
#293=EDGE_CURVE('',#267,#218,#292,.F.) ;
#85=EDGE_LOOP('',(#86,#87,#88,#89)) ;
#102=EDGE_LOOP('',(#103,#104,#105,#106)) ;
#142=EDGE_LOOP('',(#143,#144,#145,#146)) ;
#159=EDGE_LOOP('',(#160,#161,#162,#163)) ;
#185=EDGE_LOOP('',(#186,#187)) ;
#189=EDGE_LOOP('',(#190,#191)) ;
#199=EDGE_LOOP('',(#200,#201)) ;
#203=EDGE_LOOP('',(#204,#205)) ;
#232=EDGE_LOOP('',(#233,#234,#235,#236)) ;
#244=EDGE_LOOP('',(#245,#246,#247,#248)) ;
#256=EDGE_LOOP('',(#257,#258)) ;
#274=EDGE_LOOP('',(#275,#276)) ;
#294=EDGE_LOOP('',(#295,#296,#297,#298)) ;
#306=EDGE_LOOP('',(#307,#308,#309,#310)) ;
#90=FACE_OUTER_BOUND('',#85,.T.) ;
#107=FACE_OUTER_BOUND('',#102,.T.) ;
#147=FACE_OUTER_BOUND('',#142,.T.) ;
#164=FACE_OUTER_BOUND('',#159,.T.) ;
#188=FACE_OUTER_BOUND('',#185,.T.) ;
#202=FACE_OUTER_BOUND('',#199,.T.) ;
#237=FACE_OUTER_BOUND('',#232,.T.) ;
#249=FACE_OUTER_BOUND('',#244,.T.) ;
#259=FACE_OUTER_BOUND('',#256,.T.) ;
#299=FACE_OUTER_BOUND('',#294,.T.) ;
#311=FACE_OUTER_BOUND('',#306,.T.) ;
#45=UNCERTAINTY_MEASURE_WITH_UNIT(LENGTH_MEASURE(0.005),#41,'distance_accuracy_value','CONFUSED CURVE UNCERTAINTY') ;
#69=LINE('Line',#66,#68) ;
#83=LINE('Line',#80,#82) ;
#126=LINE('Line',#123,#125) ;
#140=LINE('Line',#137,#139) ;
#225=LINE('Line',#222,#224) ;
#230=LINE('Line',#227,#229) ;
#287=LINE('Line',#284,#286) ;
#292=LINE('Line',#289,#291) ;
#2=MECHANICAL_CONTEXT(' ',#1,'mechanical') ;
#24=PERSONAL_ADDRESS(' ',' ',' ',' ',' ',' ',' ',' ',' ',' ',' ',' ',(#22),' ') ;
#170=PLANE('Plane',#169) ;
#198=PLANE('Plane',#197) ;
#255=PLANE('Plane',#254) ;
#43=PLANE_ANGLE_MEASURE_WITH_UNIT(PLANE_ANGLE_MEASURE(0.0174532925199),#42) ;
#7=PRODUCT_CATEGORY('part',$) ;
#9=PRODUCT_CATEGORY_RELATIONSHIP(' ',' ',#7,#8) ;
#6=PRODUCT_DEFINITION_FORMATION_WITH_SPECIFIED_SOURCE('',' ',#5,.NOT_KNOWN.) ;
#8=PRODUCT_RELATED_PRODUCT_CATEGORY('detail',$,(#5)) ;
#50=SHAPE_DEFINITION_REPRESENTATION(#40,#49) ;
#62=VERTEX_POINT('',#61) ;
#64=VERTEX_POINT('',#63) ;
#71=VERTEX_POINT('',#70) ;
#78=VERTEX_POINT('',#77) ;
#119=VERTEX_POINT('',#118) ;
#121=VERTEX_POINT('',#120) ;
#128=VERTEX_POINT('',#127) ;
#135=VERTEX_POINT('',#134) ;
#176=VERTEX_POINT('',#175) ;
#178=VERTEX_POINT('',#177) ;
#218=VERTEX_POINT('',#217) ;
#220=VERTEX_POINT('',#219) ;
#265=VERTEX_POINT('',#264) ;
#267=VERTEX_POINT('',#266) ;
#41=(LENGTH_UNIT()NAMED_UNIT(*)SI_UNIT(.MILLI.,.METRE.)) ;
#42=(NAMED_UNIT(*)PLANE_ANGLE_UNIT()SI_UNIT($,.RADIAN.)) ;
#44=(NAMED_UNIT(*)SI_UNIT($,.STERADIAN.)SOLID_ANGLE_UNIT()) ;
#46=(GEOMETRIC_REPRESENTATION_CONTEXT(3)GLOBAL_UNCERTAINTY_ASSIGNED_CONTEXT((#45))GLOBAL_UNIT_ASSIGNED_CONTEXT((#41,#42,#44))REPRESENTATION_CONTEXT(' ',' ')) ;
ENDSEC;
END-ISO-10303-21;
