ISO-10303-21;
HEADER;
FILE_DESCRIPTION((''),'2;1');
FILE_NAME('QMA_100MM','2016-02-01T',('Yorick'),(''),
'PRO/ENGINEER BY PARAMETRIC TECHNOLOGY CORPORATION, 2007460',
'PRO/ENGINEER BY PARAMETRIC TECHNOLOGY CORPORATION, 2007460','');
FILE_SCHEMA(('CONFIG_CONTROL_DESIGN'));
ENDSEC;
DATA;
#1=DIRECTION('',(0.E0,1.E0,0.E0));
#2=VECTOR('',#1,3.E0);
#3=CARTESIAN_POINT('',(4.95E1,0.E0,0.E0));
#4=LINE('',#3,#2);
#5=CARTESIAN_POINT('',(0.E0,0.E0,0.E0));
#6=DIRECTION('',(0.E0,-1.E0,0.E0));
#7=DIRECTION('',(1.E0,0.E0,0.E0));
#8=AXIS2_PLACEMENT_3D('',#5,#6,#7);
#10=DIRECTION('',(0.E0,1.E0,0.E0));
#11=VECTOR('',#10,3.E0);
#12=CARTESIAN_POINT('',(-4.95E1,0.E0,0.E0));
#13=LINE('',#12,#11);
#14=CARTESIAN_POINT('',(0.E0,0.E0,0.E0));
#15=DIRECTION('',(0.E0,1.E0,0.E0));
#16=DIRECTION('',(1.E0,0.E0,0.E0));
#17=AXIS2_PLACEMENT_3D('',#14,#15,#16);
#19=CARTESIAN_POINT('',(0.E0,3.E0,0.E0));
#20=DIRECTION('',(0.E0,-1.E0,0.E0));
#21=DIRECTION('',(1.E0,0.E0,0.E0));
#22=AXIS2_PLACEMENT_3D('',#19,#20,#21);
#24=CARTESIAN_POINT('',(0.E0,3.E0,0.E0));
#25=DIRECTION('',(0.E0,1.E0,0.E0));
#26=DIRECTION('',(1.E0,0.E0,0.E0));
#27=AXIS2_PLACEMENT_3D('',#24,#25,#26);
#29=CARTESIAN_POINT('',(0.E0,3.E0,0.E0));
#30=DIRECTION('',(0.E0,1.E0,0.E0));
#31=DIRECTION('',(1.E0,0.E0,0.E0));
#32=AXIS2_PLACEMENT_3D('',#29,#30,#31);
#34=DIRECTION('',(0.E0,1.E0,0.E0));
#35=VECTOR('',#34,4.E0);
#36=CARTESIAN_POINT('',(3.E1,3.E0,0.E0));
#37=LINE('',#36,#35);
#38=CARTESIAN_POINT('',(0.E0,3.E0,0.E0));
#39=DIRECTION('',(0.E0,-1.E0,0.E0));
#40=DIRECTION('',(1.E0,0.E0,0.E0));
#41=AXIS2_PLACEMENT_3D('',#38,#39,#40);
#43=DIRECTION('',(0.E0,1.E0,0.E0));
#44=VECTOR('',#43,4.E0);
#45=CARTESIAN_POINT('',(-3.E1,3.E0,0.E0));
#46=LINE('',#45,#44);
#47=CARTESIAN_POINT('',(0.E0,7.E0,0.E0));
#48=DIRECTION('',(0.E0,-1.E0,0.E0));
#49=DIRECTION('',(1.E0,0.E0,0.E0));
#50=AXIS2_PLACEMENT_3D('',#47,#48,#49);
#52=CARTESIAN_POINT('',(0.E0,7.E0,0.E0));
#53=DIRECTION('',(0.E0,1.E0,0.E0));
#54=DIRECTION('',(1.E0,0.E0,0.E0));
#55=AXIS2_PLACEMENT_3D('',#52,#53,#54);
#57=CARTESIAN_POINT('',(0.E0,7.E0,0.E0));
#58=DIRECTION('',(0.E0,-1.E0,0.E0));
#59=DIRECTION('',(1.E0,0.E0,0.E0));
#60=AXIS2_PLACEMENT_3D('',#57,#58,#59);
#62=CARTESIAN_POINT('',(0.E0,7.E0,0.E0));
#63=DIRECTION('',(0.E0,-1.E0,0.E0));
#64=DIRECTION('',(-1.E0,0.E0,0.E0));
#65=AXIS2_PLACEMENT_3D('',#62,#63,#64);
#67=DIRECTION('',(0.E0,-1.E0,0.E0));
#68=VECTOR('',#67,4.E0);
#69=CARTESIAN_POINT('',(2.1E0,7.E0,0.E0));
#70=LINE('',#69,#68);
#71=DIRECTION('',(0.E0,-1.E0,0.E0));
#72=VECTOR('',#71,4.E0);
#73=CARTESIAN_POINT('',(-2.1E0,7.E0,0.E0));
#74=LINE('',#73,#72);
#75=CARTESIAN_POINT('',(0.E0,3.E0,0.E0));
#76=DIRECTION('',(0.E0,-1.E0,0.E0));
#77=DIRECTION('',(1.E0,0.E0,0.E0));
#78=AXIS2_PLACEMENT_3D('',#75,#76,#77);
#80=CARTESIAN_POINT('',(0.E0,3.E0,0.E0));
#81=DIRECTION('',(0.E0,-1.E0,0.E0));
#82=DIRECTION('',(-1.E0,0.E0,0.E0));
#83=AXIS2_PLACEMENT_3D('',#80,#81,#82);
#85=CARTESIAN_POINT('',(4.95E1,0.E0,0.E0));
#86=CARTESIAN_POINT('',(4.95E1,3.E0,0.E0));
#87=VERTEX_POINT('',#85);
#88=VERTEX_POINT('',#86);
#89=CARTESIAN_POINT('',(3.E1,3.E0,0.E0));
#90=CARTESIAN_POINT('',(3.E1,7.E0,0.E0));
#91=VERTEX_POINT('',#89);
#92=VERTEX_POINT('',#90);
#93=CARTESIAN_POINT('',(-4.95E1,0.E0,0.E0));
#94=CARTESIAN_POINT('',(-4.95E1,3.E0,0.E0));
#95=VERTEX_POINT('',#93);
#96=VERTEX_POINT('',#94);
#97=CARTESIAN_POINT('',(-3.E1,3.E0,0.E0));
#98=CARTESIAN_POINT('',(-3.E1,7.E0,0.E0));
#99=VERTEX_POINT('',#97);
#100=VERTEX_POINT('',#98);
#101=CARTESIAN_POINT('',(2.1E0,3.E0,0.E0));
#102=CARTESIAN_POINT('',(-2.1E0,3.E0,0.E0));
#103=VERTEX_POINT('',#101);
#104=VERTEX_POINT('',#102);
#105=CARTESIAN_POINT('',(2.1E0,7.E0,0.E0));
#106=CARTESIAN_POINT('',(-2.1E0,7.E0,0.E0));
#107=VERTEX_POINT('',#105);
#108=VERTEX_POINT('',#106);
#109=CARTESIAN_POINT('',(0.E0,0.E0,0.E0));
#110=DIRECTION('',(0.E0,1.E0,0.E0));
#111=DIRECTION('',(1.E0,0.E0,0.E0));
#112=AXIS2_PLACEMENT_3D('',#109,#110,#111);
#113=PLANE('',#112);
#115=ORIENTED_EDGE('',*,*,#114,.F.);
#117=ORIENTED_EDGE('',*,*,#116,.T.);
#118=EDGE_LOOP('',(#115,#117));
#119=FACE_OUTER_BOUND('',#118,.F.);
#120=ADVANCED_FACE('',(#119),#113,.F.);
#121=CARTESIAN_POINT('',(0.E0,-3.5E-1,0.E0));
#122=DIRECTION('',(0.E0,1.E0,0.E0));
#123=DIRECTION('',(1.E0,0.E0,0.E0));
#124=AXIS2_PLACEMENT_3D('',#121,#122,#123);
#125=CYLINDRICAL_SURFACE('',#124,4.95E1);
#127=ORIENTED_EDGE('',*,*,#126,.F.);
#128=ORIENTED_EDGE('',*,*,#114,.T.);
#130=ORIENTED_EDGE('',*,*,#129,.T.);
#132=ORIENTED_EDGE('',*,*,#131,.F.);
#133=EDGE_LOOP('',(#127,#128,#130,#132));
#134=FACE_OUTER_BOUND('',#133,.F.);
#135=ADVANCED_FACE('',(#134),#125,.T.);
#136=CARTESIAN_POINT('',(0.E0,-3.5E-1,0.E0));
#137=DIRECTION('',(0.E0,1.E0,0.E0));
#138=DIRECTION('',(1.E0,0.E0,0.E0));
#139=AXIS2_PLACEMENT_3D('',#136,#137,#138);
#140=CYLINDRICAL_SURFACE('',#139,4.95E1);
#141=ORIENTED_EDGE('',*,*,#126,.T.);
#143=ORIENTED_EDGE('',*,*,#142,.T.);
#144=ORIENTED_EDGE('',*,*,#129,.F.);
#145=ORIENTED_EDGE('',*,*,#116,.F.);
#146=EDGE_LOOP('',(#141,#143,#144,#145));
#147=FACE_OUTER_BOUND('',#146,.F.);
#148=ADVANCED_FACE('',(#147),#140,.T.);
#149=CARTESIAN_POINT('',(0.E0,3.E0,0.E0));
#150=DIRECTION('',(0.E0,1.E0,0.E0));
#151=DIRECTION('',(1.E0,0.E0,0.E0));
#152=AXIS2_PLACEMENT_3D('',#149,#150,#151);
#153=PLANE('',#152);
#154=ORIENTED_EDGE('',*,*,#131,.T.);
#155=ORIENTED_EDGE('',*,*,#142,.F.);
#156=EDGE_LOOP('',(#154,#155));
#157=FACE_OUTER_BOUND('',#156,.F.);
#159=ORIENTED_EDGE('',*,*,#158,.T.);
#161=ORIENTED_EDGE('',*,*,#160,.F.);
#162=EDGE_LOOP('',(#159,#161));
#163=FACE_BOUND('',#162,.F.);
#164=ADVANCED_FACE('',(#157,#163),#153,.T.);
#165=CARTESIAN_POINT('',(0.E0,-3.5E-1,0.E0));
#166=DIRECTION('',(0.E0,1.E0,0.E0));
#167=DIRECTION('',(1.E0,0.E0,0.E0));
#168=AXIS2_PLACEMENT_3D('',#165,#166,#167);
#169=CYLINDRICAL_SURFACE('',#168,3.E1);
#171=ORIENTED_EDGE('',*,*,#170,.T.);
#173=ORIENTED_EDGE('',*,*,#172,.T.);
#175=ORIENTED_EDGE('',*,*,#174,.F.);
#176=ORIENTED_EDGE('',*,*,#158,.F.);
#177=EDGE_LOOP('',(#171,#173,#175,#176));
#178=FACE_OUTER_BOUND('',#177,.F.);
#179=ADVANCED_FACE('',(#178),#169,.T.);
#180=CARTESIAN_POINT('',(0.E0,-3.5E-1,0.E0));
#181=DIRECTION('',(0.E0,1.E0,0.E0));
#182=DIRECTION('',(1.E0,0.E0,0.E0));
#183=AXIS2_PLACEMENT_3D('',#180,#181,#182);
#184=CYLINDRICAL_SURFACE('',#183,3.E1);
#185=ORIENTED_EDGE('',*,*,#170,.F.);
#186=ORIENTED_EDGE('',*,*,#160,.T.);
#187=ORIENTED_EDGE('',*,*,#174,.T.);
#189=ORIENTED_EDGE('',*,*,#188,.F.);
#190=EDGE_LOOP('',(#185,#186,#187,#189));
#191=FACE_OUTER_BOUND('',#190,.F.);
#192=ADVANCED_FACE('',(#191),#184,.T.);
#193=CARTESIAN_POINT('',(0.E0,7.E0,0.E0));
#194=DIRECTION('',(0.E0,1.E0,0.E0));
#195=DIRECTION('',(1.E0,0.E0,0.E0));
#196=AXIS2_PLACEMENT_3D('',#193,#194,#195);
#197=PLANE('',#196);
#198=ORIENTED_EDGE('',*,*,#188,.T.);
#199=ORIENTED_EDGE('',*,*,#172,.F.);
#200=EDGE_LOOP('',(#198,#199));
#201=FACE_OUTER_BOUND('',#200,.F.);
#203=ORIENTED_EDGE('',*,*,#202,.F.);
#205=ORIENTED_EDGE('',*,*,#204,.F.);
#206=EDGE_LOOP('',(#203,#205));
#207=FACE_BOUND('',#206,.F.);
#208=ADVANCED_FACE('',(#201,#207),#197,.T.);
#209=CARTESIAN_POINT('',(0.E0,7.E0,0.E0));
#210=DIRECTION('',(0.E0,-1.E0,0.E0));
#211=DIRECTION('',(1.E0,0.E0,0.E0));
#212=AXIS2_PLACEMENT_3D('',#209,#210,#211);
#213=CYLINDRICAL_SURFACE('',#212,2.1E0);
#214=ORIENTED_EDGE('',*,*,#202,.T.);
#216=ORIENTED_EDGE('',*,*,#215,.T.);
#218=ORIENTED_EDGE('',*,*,#217,.F.);
#220=ORIENTED_EDGE('',*,*,#219,.F.);
#221=EDGE_LOOP('',(#214,#216,#218,#220));
#222=FACE_OUTER_BOUND('',#221,.F.);
#223=ADVANCED_FACE('',(#222),#213,.F.);
#224=CARTESIAN_POINT('',(0.E0,7.E0,0.E0));
#225=DIRECTION('',(0.E0,-1.E0,0.E0));
#226=DIRECTION('',(1.E0,0.E0,0.E0));
#227=AXIS2_PLACEMENT_3D('',#224,#225,#226);
#228=CYLINDRICAL_SURFACE('',#227,2.1E0);
#229=ORIENTED_EDGE('',*,*,#204,.T.);
#230=ORIENTED_EDGE('',*,*,#219,.T.);
#232=ORIENTED_EDGE('',*,*,#231,.F.);
#233=ORIENTED_EDGE('',*,*,#215,.F.);
#234=EDGE_LOOP('',(#229,#230,#232,#233));
#235=FACE_OUTER_BOUND('',#234,.F.);
#236=ADVANCED_FACE('',(#235),#228,.F.);
#237=CARTESIAN_POINT('',(0.E0,3.E0,0.E0));
#238=DIRECTION('',(0.E0,-1.E0,0.E0));
#239=DIRECTION('',(1.E0,0.E0,0.E0));
#240=AXIS2_PLACEMENT_3D('',#237,#238,#239);
#241=PLANE('',#240);
#242=ORIENTED_EDGE('',*,*,#217,.T.);
#243=ORIENTED_EDGE('',*,*,#231,.T.);
#244=EDGE_LOOP('',(#242,#243));
#245=FACE_OUTER_BOUND('',#244,.F.);
#246=ADVANCED_FACE('',(#245),#241,.F.);
#247=CLOSED_SHELL('',(#120,#135,#148,#164,#179,#192,#208,#223,#236,#246));
#248=MANIFOLD_SOLID_BREP('',#247);
#249=DIMENSIONAL_EXPONENTS(1.E0,0.E0,0.E0,0.E0,0.E0,0.E0,0.E0);
#250=(LENGTH_UNIT()NAMED_UNIT(*)SI_UNIT(.MILLI.,.METRE.));
#251=LENGTH_MEASURE_WITH_UNIT(LENGTH_MEASURE(2.54E1),#250);
#252=(CONVERSION_BASED_UNIT('INCH',#251)LENGTH_UNIT()NAMED_UNIT(#249));
#253=DIMENSIONAL_EXPONENTS(0.E0,0.E0,0.E0,0.E0,0.E0,0.E0,0.E0);
#254=(NAMED_UNIT(*)PLANE_ANGLE_UNIT()SI_UNIT($,.RADIAN.));
#255=PLANE_ANGLE_MEASURE_WITH_UNIT(PLANE_ANGLE_MEASURE(1.745329251994E-2),#254);
#256=(CONVERSION_BASED_UNIT('DEGREE',#255)NAMED_UNIT(#253)PLANE_ANGLE_UNIT());
#257=(NAMED_UNIT(*)SI_UNIT($,.STERADIAN.)SOLID_ANGLE_UNIT());
#258=UNCERTAINTY_MEASURE_WITH_UNIT(LENGTH_MEASURE(1.401974000957E-2),#252,
'closure',
'Maximum model space distance between geometric entities at asserted connectivities');
#259=(GEOMETRIC_REPRESENTATION_CONTEXT(3)GLOBAL_UNCERTAINTY_ASSIGNED_CONTEXT((
#258))GLOBAL_UNIT_ASSIGNED_CONTEXT((#252,#256,#257))REPRESENTATION_CONTEXT
('ID1','3'));
#261=APPLICATION_CONTEXT(
'CONFIGURATION CONTROLLED 3D DESIGNS OF MECHANICAL PARTS AND ASSEMBLIES');
#262=APPLICATION_PROTOCOL_DEFINITION('international standard',
'config_control_design',1994,#261);
#263=DESIGN_CONTEXT('',#261,'design');
#264=MECHANICAL_CONTEXT('',#261,'mechanical');
#265=PRODUCT('QMA_100MM','QMA_100MM','NOT SPECIFIED',(#264));
#266=PRODUCT_DEFINITION_FORMATION_WITH_SPECIFIED_SOURCE('1','LAST_VERSION',#265,
.MADE.);
#270=PRODUCT_CATEGORY('part','');
#271=PRODUCT_RELATED_PRODUCT_CATEGORY('detail','',(#265));
#272=PRODUCT_CATEGORY_RELATIONSHIP('','',#270,#271);
#273=SECURITY_CLASSIFICATION_LEVEL('unclassified');
#274=SECURITY_CLASSIFICATION('','',#273);
#275=CC_DESIGN_SECURITY_CLASSIFICATION(#274,(#266));
#276=APPROVAL_STATUS('approved');
#277=APPROVAL(#276,'');
#278=CC_DESIGN_APPROVAL(#277,(#274,#266,#267));
#279=CALENDAR_DATE(116,1,2);
#280=COORDINATED_UNIVERSAL_TIME_OFFSET(1,0,.AHEAD.);
#281=LOCAL_TIME(17,15,3.3E1,#280);
#282=DATE_AND_TIME(#279,#281);
#283=APPROVAL_DATE_TIME(#282,#277);
#284=DATE_TIME_ROLE('creation_date');
#285=CC_DESIGN_DATE_AND_TIME_ASSIGNMENT(#282,#284,(#267));
#286=DATE_TIME_ROLE('classification_date');
#287=CC_DESIGN_DATE_AND_TIME_ASSIGNMENT(#282,#286,(#274));
#288=PERSON('UNSPECIFIED','UNSPECIFIED',$,$,$,$);
#289=ORGANIZATION('UNSPECIFIED','UNSPECIFIED','UNSPECIFIED');
#290=PERSON_AND_ORGANIZATION(#288,#289);
#291=APPROVAL_ROLE('approver');
#292=APPROVAL_PERSON_ORGANIZATION(#290,#277,#291);
#293=PERSON_AND_ORGANIZATION_ROLE('creator');
#294=CC_DESIGN_PERSON_AND_ORGANIZATION_ASSIGNMENT(#290,#293,(#266,#267));
#295=PERSON_AND_ORGANIZATION_ROLE('design_supplier');
#296=CC_DESIGN_PERSON_AND_ORGANIZATION_ASSIGNMENT(#290,#295,(#266));
#297=PERSON_AND_ORGANIZATION_ROLE('classification_officer');
#298=CC_DESIGN_PERSON_AND_ORGANIZATION_ASSIGNMENT(#290,#297,(#274));
#299=PERSON_AND_ORGANIZATION_ROLE('design_owner');
#300=CC_DESIGN_PERSON_AND_ORGANIZATION_ASSIGNMENT(#290,#299,(#265));
#9=CIRCLE('',#8,4.95E1);
#18=CIRCLE('',#17,4.95E1);
#23=CIRCLE('',#22,4.95E1);
#28=CIRCLE('',#27,4.95E1);
#33=CIRCLE('',#32,3.E1);
#42=CIRCLE('',#41,3.E1);
#51=CIRCLE('',#50,3.E1);
#56=CIRCLE('',#55,3.E1);
#61=CIRCLE('',#60,2.1E0);
#66=CIRCLE('',#65,2.1E0);
#79=CIRCLE('',#78,2.1E0);
#84=CIRCLE('',#83,2.1E0);
#114=EDGE_CURVE('',#87,#95,#9,.T.);
#116=EDGE_CURVE('',#87,#95,#18,.T.);
#126=EDGE_CURVE('',#87,#88,#4,.T.);
#129=EDGE_CURVE('',#95,#96,#13,.T.);
#131=EDGE_CURVE('',#88,#96,#23,.T.);
#142=EDGE_CURVE('',#88,#96,#28,.T.);
#158=EDGE_CURVE('',#91,#99,#33,.T.);
#160=EDGE_CURVE('',#91,#99,#42,.T.);
#170=EDGE_CURVE('',#91,#92,#37,.T.);
#172=EDGE_CURVE('',#92,#100,#56,.T.);
#174=EDGE_CURVE('',#99,#100,#46,.T.);
#188=EDGE_CURVE('',#92,#100,#51,.T.);
#202=EDGE_CURVE('',#107,#108,#61,.T.);
#204=EDGE_CURVE('',#108,#107,#66,.T.);
#215=EDGE_CURVE('',#108,#104,#74,.T.);
#217=EDGE_CURVE('',#103,#104,#79,.T.);
#219=EDGE_CURVE('',#107,#103,#70,.T.);
#231=EDGE_CURVE('',#104,#103,#84,.T.);
#260=ADVANCED_BREP_SHAPE_REPRESENTATION('',(#248),#259);
#267=PRODUCT_DEFINITION('design','',#266,#263);
#268=PRODUCT_DEFINITION_SHAPE('','SHAPE FOR QMA_100MM.',#267);
#269=SHAPE_DEFINITION_REPRESENTATION(#268,#260);
ENDSEC;
END-ISO-10303-21;
