  0
SECTION
  2
HEADER
  9
$ACADVER
  1
AC1015
  9
$ACADMAINTVER
 70
     6
  9
$DWGCODEPAGE
  3
ANSI_1252
  9
$INSBASE
 10
0.0
 20
0.0
 30
0.0
  9
$EXTMIN
 10
-6.3424538235
 20
-19.5785895002
 30
0.0
  9
$EXTMAX
 10
28.2251700782
 20
18.0599536128
 30
0.0
  9
$LIMMIN
 10
0.0
 20
0.0
  9
$LIMMAX
 10
420.0
 20
297.0
  9
$ORTHOMODE
 70
     0
  9
$REGENMODE
 70
     1
  9
$FILLMODE
 70
     1
  9
$QTEXTMODE
 70
     0
  9
$MIRRTEXT
 70
     1
  9
$LTSCALE
 40
1.0
  9
$ATTMODE
 70
     1
  9
$TEXTSIZE
 40
3.5
  9
$TRACEWID
 40
1.0
  9
$TEXTSTYLE
  7
Standard
  9
$CLAYER
  8
0
  9
$CELTYPE
  6
ByLayer
  9
$CECOLOR
 62
   256
  9
$CELTSCALE
 40
1.0
  9
$DISPSILH
 70
     0
  9
$DIMSCALE
 40
1.0
  9
$DIMASZ
 40
3.302
  9
$DIMEXO
 40
1.0
  9
$DIMDLI
 40
3.75
  9
$DIMRND
 40
0.0
  9
$DIMDLE
 40
0.0
  9
$DIMEXE
 40
1.0
  9
$DIMTP
 40
0.0
  9
$DIMTM
 40
0.0
  9
$DIMTXT
 40
3.5
  9
$DIMCEN
 40
2.5
  9
$DIMTSZ
 40
0.0
  9
$DIMTOL
 70
     0
  9
$DIMLIM
 70
     0
  9
$DIMTIH
 70
     1
  9
$DIMTOH
 70
     1
  9
$DIMSE1
 70
     0
  9
$DIMSE2
 70
     0
  9
$DIMTAD
 70
     1
  9
$DIMZIN
 70
     0
  9
$DIMBLK
  1

  9
$DIMASO
 70
     1
  9
$DIMSHO
 70
     1
  9
$DIMPOST
  1

  9
$DIMAPOST
  1

  9
$DIMALT
 70
     0
  9
$DIMALTD
 70
     3
  9
$DIMALTF
 40
0.0393700787
  9
$DIMLFAC
 40
1.0
  9
$DIMTOFL
 70
     1
  9
$DIMTVP
 40
0.0
  9
$DIMTIX
 70
     0
  9
$DIMSOXD
 70
     0
  9
$DIMSAH
 70
     0
  9
$DIMBLK1
  1

  9
$DIMBLK2
  1

  9
$DIMSTYLE
  2
ISO-25
  9
$DIMCLRD
 70
     0
  9
$DIMCLRE
 70
     0
  9
$DIMCLRT
 70
     0
  9
$DIMTFAC
 40
1.0
  9
$DIMGAP
 40
1.524
  9
$DIMJUST
 70
     0
  9
$DIMSD1
 70
     0
  9
$DIMSD2
 70
     0
  9
$DIMTOLJ
 70
     0
  9
$DIMTZIN
 70
     0
  9
$DIMALTZ
 70
     0
  9
$DIMALTTZ
 70
     0
  9
$DIMUPT
 70
     0
  9
$DIMDEC
 70
     2
  9
$DIMTDEC
 70
     2
  9
$DIMALTU
 70
     2
  9
$DIMALTTD
 70
     3
  9
$DIMTXSTY
  7
Standard
  9
$DIMAUNIT
 70
     0
  9
$DIMADEC
 70
     2
  9
$DIMALTRND
 40
0.0
  9
$DIMAZIN
 70
     0
  9
$DIMDSEP
 70
    44
  9
$DIMATFIT
 70
     3
  9
$DIMFRAC
 70
     0
  9
$DIMLDRBLK
  1

  9
$DIMLUNIT
 70
     2
  9
$DIMLWD
 70
    -2
  9
$DIMLWE
 70
    -2
  9
$DIMTMOVE
 70
     0
  9
$LUNITS
 70
     2
  9
$LUPREC
 70
     2
  9
$SKETCHINC
 40
1.0
  9
$FILLETRAD
 40
10.0
  9
$AUNITS
 70
     0
  9
$AUPREC
 70
     2
  9
$MENU
  1
.
  9
$ELEVATION
 40
0.0
  9
$PELEVATION
 40
0.0
  9
$THICKNESS
 40
0.0
  9
$LIMCHECK
 70
     0
  9
$CHAMFERA
 40
10.0
  9
$CHAMFERB
 40
10.0
  9
$CHAMFERC
 40
20.0
  9
$CHAMFERD
 40
0.0
  9
$SKPOLY
 70
     0
  9
$TDCREATE
 40
2457416.561173912
  9
$TDUCREATE
 40
2457416.519507245
  9
$TDUPDATE
 40
2457416.561313484
  9
$TDUUPDATE
 40
2457416.519646817
  9
$TDINDWG
 40
0.0000000116
  9
$TDUSRTIMER
 40
0.0000000116
  9
$USRTIMER
 70
     1
  9
$ANGBASE
 50
0.0
  9
$ANGDIR
 70
     0
  9
$PDMODE
 70
     0
  9
$PDSIZE
 40
-1.0
  9
$PLINEWID
 40
0.0
  9
$SPLFRAME
 70
     0
  9
$SPLINETYPE
 70
     6
  9
$SPLINESEGS
 70
     8
  9
$HANDSEED
  5
37C
  9
$SURFTAB1
 70
     6
  9
$SURFTAB2
 70
     6
  9
$SURFTYPE
 70
     6
  9
$SURFU
 70
     6
  9
$SURFV
 70
     6
  9
$UCSBASE
  2

  9
$UCSNAME
  2

  9
$UCSORG
 10
0.0
 20
0.0
 30
0.0
  9
$UCSXDIR
 10
1.0
 20
0.0
 30
0.0
  9
$UCSYDIR
 10
0.0
 20
1.0
 30
0.0
  9
$UCSORTHOREF
  2

  9
$UCSORTHOVIEW
 70
     0
  9
$UCSORGTOP
 10
0.0
 20
0.0
 30
0.0
  9
$UCSORGBOTTOM
 10
0.0
 20
0.0
 30
0.0
  9
$UCSORGLEFT
 10
0.0
 20
0.0
 30
0.0
  9
$UCSORGRIGHT
 10
0.0
 20
0.0
 30
0.0
  9
$UCSORGFRONT
 10
0.0
 20
0.0
 30
0.0
  9
$UCSORGBACK
 10
0.0
 20
0.0
 30
0.0
  9
$PUCSBASE
  2

  9
$PUCSNAME
  2

  9
$PUCSORG
 10
0.0
 20
0.0
 30
0.0
  9
$PUCSXDIR
 10
1.0
 20
0.0
 30
0.0
  9
$PUCSYDIR
 10
0.0
 20
1.0
 30
0.0
  9
$PUCSORTHOREF
  2

  9
$PUCSORTHOVIEW
 70
     0
  9
$PUCSORGTOP
 10
0.0
 20
0.0
 30
0.0
  9
$PUCSORGBOTTOM
 10
0.0
 20
0.0
 30
0.0
  9
$PUCSORGLEFT
 10
0.0
 20
0.0
 30
0.0
  9
$PUCSORGRIGHT
 10
0.0
 20
0.0
 30
0.0
  9
$PUCSORGFRONT
 10
0.0
 20
0.0
 30
0.0
  9
$PUCSORGBACK
 10
0.0
 20
0.0
 30
0.0
  9
$USERI1
 70
     0
  9
$USERI2
 70
     0
  9
$USERI3
 70
     0
  9
$USERI4
 70
     0
  9
$USERI5
 70
     0
  9
$USERR1
 40
0.0
  9
$USERR2
 40
0.0
  9
$USERR3
 40
0.0
  9
$USERR4
 40
0.0
  9
$USERR5
 40
0.0
  9
$WORLDVIEW
 70
     1
  9
$SHADEDGE
 70
     3
  9
$SHADEDIF
 70
    70
  9
$TILEMODE
 70
     0
  9
$MAXACTVP
 70
    64
  9
$PINSBASE
 10
0.0
 20
0.0
 30
0.0
  9
$PLIMCHECK
 70
     0
  9
$PEXTMIN
 10
-6.3424538235
 20
-19.5785895002
 30
0.0
  9
$PEXTMAX
 10
28.2251700782
 20
18.0599536128
 30
0.0
  9
$PLIMMIN
 10
0.0
 20
0.0
  9
$PLIMMAX
 10
0.0
 20
0.0
  9
$UNITMODE
 70
     0
  9
$VISRETAIN
 70
     1
  9
$PLINEGEN
 70
     0
  9
$PSLTSCALE
 70
     1
  9
$TREEDEPTH
 70
  3020
  9
$CMLSTYLE
  2
Standard
  9
$CMLJUST
 70
     0
  9
$CMLSCALE
 40
20.0
  9
$PROXYGRAPHICS
 70
     1
  9
$MEASUREMENT
 70
     1
  9
$CELWEIGHT
370
    -1
  9
$ENDCAPS
280
     0
  9
$JOINSTYLE
280
     0
  9
$LWDISPLAY
290
     1
  9
$INSUNITS
 70
     4
  9
$HYPERLINKBASE
  1

  9
$STYLESHEET
  1

  9
$XEDIT
290
     1
  9
$CEPSNTYPE
380
     0
  9
$PSTYLEMODE
290
     1
  9
$FINGERPRINTGUID
  2
{FFB9A252-3418-42D8-AA98-FDE2F3457114}
  9
$VERSIONGUID
  2
{FAEB1C32-E019-11D5-929B-00C0DF256EC4}
  9
$EXTNAMES
290
     1
  9
$PSVPSCALE
 40
0.0
  9
$OLESTARTUP
290
     0
  0
ENDSEC
  0
SECTION
  2
CLASSES
  0
CLASS
  1
ACDBDICTIONARYWDFLT
  2
AcDbDictionaryWithDefault
  3
ObjectDBX Classes
 90
        0
280
     0
281
     0
  0
CLASS
  1
VISUALSTYLE
  2
AcDbVisualStyle
  3
ObjectDBX Classes
 90
     4095
280
     0
281
     0
  0
CLASS
  1
MATERIAL
  2
AcDbMaterial
  3
ObjectDBX Classes
 90
     1153
280
     0
281
     0
  0
CLASS
  1
ACDBPLACEHOLDER
  2
AcDbPlaceHolder
  3
ObjectDBX Classes
 90
        0
280
     0
281
     0
  0
CLASS
  1
LAYOUT
  2
AcDbLayout
  3
ObjectDBX Classes
 90
        0
280
     0
281
     0
  0
ENDSEC
  0
SECTION
  2
TABLES
  0
TABLE
  2
VPORT
  5
8
330
0
100
AcDbSymbolTable
 70
     1
  0
VPORT
  5
29
330
8
100
AcDbSymbolTableRecord
100
AcDbViewportTableRecord
  2
*Active
 70
     0
 10
0.0
 20
0.0
 11
1.0
 21
1.0
 12
10.9413581274
 22
-0.7593179437
 13
0.0
 23
0.0
 14
10.0
 24
10.0
 15
10.0
 25
10.0
 16
0.0
 26
0.0
 36
1.0
 17
0.0
 27
0.0
 37
0.0
 40
38.3913139752
 41
0.918410253
 42
50.0
 43
0.0
 44
0.0
 50
0.0
 51
0.0
 71
     0
 72
   100
 73
     1
 74
     3
 75
     0
 76
     0
 77
     0
 78
     0
281
     0
 65
     1
110
0.0
120
0.0
130
0.0
111
1.0
121
0.0
131
0.0
112
0.0
122
1.0
132
0.0
 79
     0
146
0.0
  0
ENDTAB
  0
TABLE
  2
LTYPE
  5
5
330
0
100
AcDbSymbolTable
 70
     6
  0
LTYPE
  5
14
330
5
100
AcDbSymbolTableRecord
100
AcDbLinetypeTableRecord
  2
ByBlock
 70
     0
  3

 72
    65
 73
     0
 40
0.0
  0
LTYPE
  5
15
330
5
100
AcDbSymbolTableRecord
100
AcDbLinetypeTableRecord
  2
ByLayer
 70
     0
  3

 72
    65
 73
     0
 40
0.0
  0
LTYPE
  5
16
330
5
100
AcDbSymbolTableRecord
100
AcDbLinetypeTableRecord
  2
Continuous
 70
     0
  3
Solid line
 72
    65
 73
     0
 40
0.0
  0
LTYPE
  5
3F
330
5
100
AcDbSymbolTableRecord
100
AcDbLinetypeTableRecord
  2
HIDDEN
 70
     0
  3
Hidden __ __ __ __ __ __ __ __ __ __ __ __ __ __
 72
    65
 73
     2
 40
1.905
 49
1.27
 74
     0
 49
-0.635
 74
     0
  0
LTYPE
  5
40
330
5
100
AcDbSymbolTableRecord
100
AcDbLinetypeTableRecord
  2
PHANTOM
 70
     0
  3
Phantom ______  __  __  ______  __  __  ______
 72
    65
 73
     6
 40
12.7
 49
6.35
 74
     0
 49
-1.27
 74
     0
 49
1.27
 74
     0
 49
-1.27
 74
     0
 49
1.27
 74
     0
 49
-1.27
 74
     0
  0
LTYPE
  5
41
330
5
100
AcDbSymbolTableRecord
100
AcDbLinetypeTableRecord
  2
CENTER
 70
     0
  3
Center ____ _ ____ _ ____ _ ____ _ ____ _ ____
 72
    65
 73
     4
 40
10.16
 49
6.35
 74
     0
 49
-1.27
 74
     0
 49
1.27
 74
     0
 49
-1.27
 74
     0
  0
LTYPE
  5
42
330
5
100
AcDbSymbolTableRecord
100
AcDbLinetypeTableRecord
  2
CENTERX2
 70
     0
  3
Center (2x) ________  __  ________  __  _____
 72
    65
 73
     4
 40
20.32
 49
12.7
 74
     0
 49
-2.54
 74
     0
 49
2.54
 74
     0
 49
-2.54
 74
     0
  0
LTYPE
  5
43
330
5
100
AcDbSymbolTableRecord
100
AcDbLinetypeTableRecord
  2
DOT2
 70
     0
  3
Dot (.5x) ........................................
 72
    65
 73
     2
 40
0.635
 49
0.0
 74
     0
 49
-0.635
 74
     0
  0
ENDTAB
  0
TABLE
  2
LAYER
  5
2
330
0
100
AcDbSymbolTable
 70
     1
  0
LAYER
  5
10
330
2
100
AcDbSymbolTableRecord
100
AcDbLayerTableRecord
  2
0
 70
     0
 62
     7
  6
Continuous
370
    -3
390
F
  0
ENDTAB
  0
TABLE
  2
STYLE
  5
3
330
0
100
AcDbSymbolTable
 70
     1
  0
STYLE
  5
11
330
3
100
AcDbSymbolTableRecord
100
AcDbTextStyleTableRecord
  2
Standard
 70
     0
 40
0.0
 41
1.0
 50
0.0
 71
     0
 42
3.5
  3
txt
  4

  0
ENDTAB
  0
TABLE
  2
VIEW
  5
6
330
0
100
AcDbSymbolTable
 70
     0
  0
ENDTAB
  0
TABLE
  2
UCS
  5
7
330
0
100
AcDbSymbolTable
 70
     0
  0
ENDTAB
  0
TABLE
  2
APPID
  5
9
330
0
100
AcDbSymbolTable
 70
     1
  0
APPID
  5
12
330
9
100
AcDbSymbolTableRecord
100
AcDbRegAppTableRecord
  2
ACAD
 70
     0
  0
ENDTAB
  0
TABLE
  2
DIMSTYLE
  5
A
330
0
100
AcDbSymbolTable
 70
     1
100
AcDbDimStyleTable
  0
DIMSTYLE
105
27
330
A
100
AcDbSymbolTableRecord
100
AcDbDimStyleTableRecord
  2
ISO-25
 70
     0
 41
2.5
 42
0.625
 43
3.75
 44
1.25
 73
     0
 74
     0
 77
     1
 78
     8
140
2.5
141
2.5
143
0.0393700787
147
0.625
171
     3
172
     1
178
     0
271
     2
272
     2
274
     3
278
    44
283
     0
284
     8
340
11
  0
ENDTAB
  0
TABLE
  2
BLOCK_RECORD
  5
1
330
0
100
AcDbSymbolTable
 70
     9
  0
BLOCK_RECORD
  5
1F
330
1
100
AcDbSymbolTableRecord
100
AcDbBlockTableRecord
  2
*Model_Space
340
22
  0
BLOCK_RECORD
  5
2F8
330
1
100
AcDbSymbolTableRecord
100
AcDbBlockTableRecord
  2
*Paper_Space
340
2F9
  0
BLOCK_RECORD
  5
1B
330
1
100
AcDbSymbolTableRecord
100
AcDbBlockTableRecord
  2
*Paper_Space0
340
1E
  0
BLOCK_RECORD
  5
23
330
1
100
AcDbSymbolTableRecord
100
AcDbBlockTableRecord
  2
*Paper_Space1
340
26
  0
BLOCK_RECORD
  5
FF
330
1
100
AcDbSymbolTableRecord
100
AcDbBlockTableRecord
  2
*Paper_Space2
340
100
  0
BLOCK_RECORD
  5
143
330
1
100
AcDbSymbolTableRecord
100
AcDbBlockTableRecord
  2
*Paper_Space3
340
144
  0
BLOCK_RECORD
  5
176
330
1
100
AcDbSymbolTableRecord
100
AcDbBlockTableRecord
  2
*Paper_Space4
340
177
  0
BLOCK_RECORD
  5
1AB
330
1
100
AcDbSymbolTableRecord
100
AcDbBlockTableRecord
  2
*Paper_Space5
340
1AC
  0
BLOCK_RECORD
  5
1ED
330
1
100
AcDbSymbolTableRecord
100
AcDbBlockTableRecord
  2
*Paper_Space6
340
1EE
  0
BLOCK_RECORD
  5
21B
330
1
100
AcDbSymbolTableRecord
100
AcDbBlockTableRecord
  2
*Paper_Space7
340
21C
  0
BLOCK_RECORD
  5
289
330
1
100
AcDbSymbolTableRecord
100
AcDbBlockTableRecord
  2
*Paper_Space8
340
28A
  0
ENDTAB
  0
ENDSEC
  0
SECTION
  2
BLOCKS
  0
BLOCK
  5
20
330
1F
100
AcDbEntity
  8
0
100
AcDbBlockBegin
  2
*Model_Space
 70
     0
 10
0.0
 20
0.0
 30
0.0
  3
*Model_Space
  1

  0
ENDBLK
  5
21
330
1F
100
AcDbEntity
  8
0
100
AcDbBlockEnd
  0
BLOCK
  5
2FA
330
2F8
100
AcDbEntity
 67
     1
  8
0
100
AcDbBlockBegin
  2
*Paper_Space
 70
     0
 10
0.0
 20
0.0
 30
0.0
  3
*Paper_Space
  1

  0
ENDBLK
  5
2FB
330
2F8
100
AcDbEntity
 67
     1
  8
0
100
AcDbBlockEnd
  0
BLOCK
  5
1C
330
1B
100
AcDbEntity
  8
0
100
AcDbBlockBegin
  2
*Paper_Space0
 70
     0
 10
0.0
 20
0.0
 30
0.0
  3
*Paper_Space0
  1

  0
CIRCLE
  5
A6
330
1B
100
AcDbEntity
  8
0
  6
Continuous
 62
     7
370
    15
100
AcDbCircle
 10
0.0
 20
0.0
 30
0.0
 40
10.74999999999999
  0
CIRCLE
  5
A7
330
1B
100
AcDbEntity
  8
0
  6
Continuous
 62
     7
370
    15
100
AcDbCircle
 10
0.0
 20
0.0
 30
0.0
 40
11.5
  0
CIRCLE
  5
A8
330
1B
100
AcDbEntity
  8
0
  6
Continuous
 62
     7
370
    15
100
AcDbCircle
 10
0.0
 20
0.0
 30
0.0
 40
12.00000000000001
  0
LINE
  5
BF
330
1B
100
AcDbEntity
  8
0
  6
Continuous
 62
     7
370
    15
100
AcDbLine
 10
9.5
 20
-15.5
 30
0.0
 11
9.5
 21
-7.9843597113
 31
0.0
  0
LINE
  5
C0
330
1B
100
AcDbEntity
  8
0
  6
Continuous
 62
     7
370
    15
100
AcDbLine
 10
-8.5
 20
-16.5
 30
0.0
 11
8.5
 21
-16.5
 31
0.0
  0
LINE
  5
C1
330
1B
100
AcDbEntity
  8
0
  6
Continuous
 62
     7
370
    15
100
AcDbLine
 10
-9.5
 20
-7.9843597113
 30
0.0
 11
-9.5
 21
-15.5
 31
0.0
  0
LINE
  5
C2
330
1B
100
AcDbEntity
  8
0
  6
Continuous
 62
     7
370
    15
100
AcDbLine
 10
5.0
 20
-12.25
 30
0.0
 11
-5.0
 21
-12.25
 31
0.0
  0
LINE
  5
C3
330
1B
100
AcDbEntity
  8
0
  6
Continuous
 62
     7
370
    15
100
AcDbLine
 10
-5.0
 20
-14.75
 30
0.0
 11
5.0
 21
-14.75
 31
0.0
  0
LINE
  5
C4
330
1B
100
AcDbEntity
  8
0
  6
Continuous
 62
     7
370
    15
100
AcDbLine
 10
-9.5
 20
15.5
 30
0.0
 11
-9.5
 21
7.9843597113
 31
0.0
  0
LINE
  5
C5
330
1B
100
AcDbEntity
  8
0
  6
Continuous
 62
     7
370
    15
100
AcDbLine
 10
8.5
 20
16.5
 30
0.0
 11
-8.5
 21
16.5
 31
0.0
  0
LINE
  5
C6
330
1B
100
AcDbEntity
  8
0
  6
Continuous
 62
     7
370
    15
100
AcDbLine
 10
9.5
 20
7.9843597113
 30
0.0
 11
9.5
 21
15.5
 31
0.0
  0
LINE
  5
C7
330
1B
100
AcDbEntity
  8
0
  6
Continuous
 62
     7
370
    15
100
AcDbLine
 10
5.0
 20
14.75
 30
0.0
 11
-5.0
 21
14.75
 31
0.0
  0
LINE
  5
C8
330
1B
100
AcDbEntity
  8
0
  6
Continuous
 62
     7
370
    15
100
AcDbLine
 10
-5.0
 20
12.25
 30
0.0
 11
5.0
 21
12.25
 31
0.0
  0
ARC
  5
C9
330
1B
100
AcDbEntity
  8
0
  6
Continuous
 62
     7
370
    15
100
AcDbCircle
 10
11.5
 20
-7.9843597113
 30
0.0
 40
1.999999999999995
100
AcDbArc
 50
145.2280559681
 51
180.0
  0
ARC
  5
CA
330
1B
100
AcDbEntity
  8
0
  6
Continuous
 62
     7
370
    15
100
AcDbCircle
 10
8.5
 20
-15.5
 30
0.0
 40
1.0
100
AcDbArc
 50
270.0
 51
0.0
  0
ARC
  5
CB
330
1B
100
AcDbEntity
  8
0
  6
Continuous
 62
     7
370
    15
100
AcDbCircle
 10
-8.5
 20
-15.5
 30
0.0
 40
1.000000000000005
100
AcDbArc
 50
180.0
 51
270.0
  0
ARC
  5
CC
330
1B
100
AcDbEntity
  8
0
  6
Continuous
 62
     7
370
    15
100
AcDbCircle
 10
-11.5
 20
-7.9843597113
 30
0.0
 40
2.00000000000001
100
AcDbArc
 50
0.0
 51
34.7719440319
  0
ARC
  5
CD
330
1B
100
AcDbEntity
  8
0
  6
Continuous
 62
     7
370
    15
100
AcDbCircle
 10
-5.0
 20
-13.5
 30
0.0
 40
1.250000000000002
100
AcDbArc
 50
90.0
 51
270.0
  0
ARC
  5
CE
330
1B
100
AcDbEntity
  8
0
  6
Continuous
 62
     7
370
    15
100
AcDbCircle
 10
5.0
 20
-13.5
 30
0.0
 40
1.250000000000002
100
AcDbArc
 50
270.0
 51
90.0
  0
ARC
  5
CF
330
1B
100
AcDbEntity
  8
0
  6
Continuous
 62
     7
370
    15
100
AcDbCircle
 10
-11.5
 20
7.9843597113
 30
0.0
 40
1.999999999999995
100
AcDbArc
 50
325.2280559681
 51
0.0
  0
ARC
  5
D0
330
1B
100
AcDbEntity
  8
0
  6
Continuous
 62
     7
370
    15
100
AcDbCircle
 10
-8.5
 20
15.5
 30
0.0
 40
0.9999999999999964
100
AcDbArc
 50
90.0
 51
180.0
  0
ARC
  5
D1
330
1B
100
AcDbEntity
  8
0
  6
Continuous
 62
     7
370
    15
100
AcDbCircle
 10
8.5
 20
15.5
 30
0.0
 40
1.0
100
AcDbArc
 50
0.0
 51
90.0
  0
ARC
  5
D2
330
1B
100
AcDbEntity
  8
0
  6
Continuous
 62
     7
370
    15
100
AcDbCircle
 10
11.5
 20
7.9843597113
 30
0.0
 40
2.000000000000009
100
AcDbArc
 50
180.0
 51
214.771944032
  0
ARC
  5
D3
330
1B
100
AcDbEntity
  8
0
  6
Continuous
 62
     7
370
    15
100
AcDbCircle
 10
-5.0
 20
13.5
 30
0.0
 40
1.250000000000002
100
AcDbArc
 50
90.0
 51
270.0
  0
ARC
  5
D4
330
1B
100
AcDbEntity
  8
0
  6
Continuous
 62
     7
370
    15
100
AcDbCircle
 10
5.0
 20
13.5
 30
0.0
 40
1.250000000000002
100
AcDbArc
 50
270.0
 51
90.0
  0
VIEWPORT
  5
372
330
1B
100
AcDbEntity
  8
0
100
AcDbViewport
 10
0.0
 20
0.0
 30
0.0
 40
243.84
 41
204.216
 68
     1
 69
     1
 12
10.9413581274
 22
-0.7593179437
 13
0.0
 23
0.0
 14
10.0
 24
10.0
 15
10.0
 25
10.0
 16
0.0
 26
0.0
 36
1.0
 17
0.0
 27
0.0
 37
0.0
 42
50.0
 43
0.0
 44
0.0
 45
38.3913139752
 50
0.0
 51
0.0
 72
   100
 90
   557152
  1

281
     0
 71
     1
 74
     0
110
0.0
120
0.0
130
0.0
111
1.0
121
0.0
131
0.0
112
0.0
122
1.0
132
0.0
 79
     0
146
0.0
  0
ENDBLK
  5
1D
330
1B
100
AcDbEntity
  8
0
100
AcDbBlockEnd
  0
BLOCK
  5
24
330
23
100
AcDbEntity
  8
0
100
AcDbBlockBegin
  2
*Paper_Space1
 70
     0
 10
0.0
 20
0.0
 30
0.0
  3
*Paper_Space1
  1

  0
SPLINE
  5
E5
330
23
100
AcDbEntity
  8
0
  6
Continuous
 62
     7
370
    15
100
AcDbSpline
210
0.0
220
0.0
230
1.0
 70
     8
 71
     3
 72
    56
 73
    52
 74
     0
 42
0.00000001
 43
0.00000001
 12
1.0
 22
0.0
 32
0.0
 13
1.0
 23
0.0
 33
0.0
 40
-0.0624999999999997
 40
-0.0624999999999997
 40
0.0
 40
0.0
 40
0.0625000000000002
 40
0.0625000000000002
 40
0.0937500000000003
 40
0.0937500000000003
 40
0.1250000000000004
 40
0.1250000000000004
 40
0.1562500000000004
 40
0.1562500000000004
 40
0.1875000000000005
 40
0.1875000000000005
 40
0.2187500000000005
 40
0.2187500000000005
 40
0.2500000000000006
 40
0.2500000000000006
 40
0.3125000000000007
 40
0.3125000000000007
 40
0.3437500000000008
 40
0.3437500000000008
 40
0.3750000000000008
 40
0.3750000000000008
 40
0.4062500000000009
 40
0.4062500000000009
 40
0.4375000000000009
 40
0.4375000000000009
 40
0.500000000000001
 40
0.500000000000001
 40
0.5625000000000012
 40
0.5625000000000012
 40
0.6250000000000013
 40
0.6250000000000013
 40
0.6562500000000012
 40
0.6562500000000012
 40
0.6875000000000011
 40
0.6875000000000011
 40
0.718750000000001
 40
0.718750000000001
 40
0.7500000000000009
 40
0.7500000000000009
 40
0.7812500000000008
 40
0.7812500000000008
 40
0.8125000000000007
 40
0.8125000000000007
 40
0.8437500000000006
 40
0.8437500000000006
 40
0.8750000000000004
 40
0.8750000000000004
 40
0.9375000000000003
 40
0.9375000000000003
 40
1.0
 40
1.0
 40
1.0625
 40
1.0625
 10
0.2400983385289218
 20
-15.8
 30
0.0
 10
-0.240098338528924
 20
-15.8
 30
0.0
 10
-0.4762421184452454
 20
-15.75379022907049
 30
0.0
 10
-0.807309780025613
 20
-15.61974294985222
 30
0.0
 10
-0.9137682306084295
 20
-15.56405207159344
 30
0.0
 10
-1.111580377844664
 20
-15.43487409050375
 30
0.0
 10
-1.204321973241575
 20
-15.36073352738842
 30
0.0
 10
-1.375349507618816
 20
-15.19372728068606
 30
0.0
 10
-1.451355471069408
 20
-15.10317820113788
 30
0.0
 10
-1.584881570685237
 20
-14.90828769357053
 30
0.0
 10
-1.642880876249285
 20
-14.80262228136862
 30
0.0
 10
-1.735704977485328
 20
-14.58391354041854
 30
0.0
 10
-1.770832791569791
 20
-14.47106231293635
 30
0.0
 10
-1.818407047929239
 20
-14.23830380097191
 30
0.0
 10
-1.830544274503361
 20
-14.1179190839562
 30
0.0
 10
-1.83043663111597
 20
-13.76255338657388
 30
0.0
 10
-1.781412856016457
 20
-13.52347705467307
 30
0.0
 10
-1.64270546714069
 20
-13.19711761264806
 30
0.0
 10
-1.584980001357017
 20
-13.09177162905447
 30
0.0
 10
-1.450439575184872
 20
-12.89556984383383
 30
0.0
 10
-1.37436370198707
 20
-12.8052891788277
 30
0.0
 10
-1.204978942490182
 20
-12.63992894912825
 30
0.0
 10
-1.110792866545842
 20
-12.56452101649835
 30
0.0
 10
-0.9125766402037622
 20
-12.43526131102347
 30
0.0
 10
-0.8078531885221258
 20
-12.38051175245471
 30
0.0
 10
-0.4765386855202981
 20
-12.24626070683563
 30
0.0
 10
-0.235914947991395
 20
-12.19984551308623
 30
0.0
 10
0.2383467007080231
 20
-12.20015528107356
 30
0.0
 10
0.4774464110201404
 20
-12.2467437332009
 30
0.0
 10
0.9158392915371825
 20
-12.42415370235145
 30
0.0
 10
1.119519596125352
 20
-12.55671545352922
 30
0.0
 10
1.373479677488628
 20
-12.80431928139653
 30
0.0
 10
1.451203804396878
 20
-12.8965957555741
 30
0.0
 10
1.58507860338031
 20
-13.09200456612579
 30
0.0
 10
1.641940267457423
 20
-13.19549840098728
 30
0.0
 10
1.735113900859362
 20
-13.41436237665348
 30
0.0
 10
1.770931849074524
 20
-13.52942144843339
 30
0.0
 10
1.818309049199546
 20
-13.76121761776781
 30
0.0
 10
1.83046579789893
 20
-13.87932695953115
 30
0.0
 10
1.830550928720033
 20
-14.1194178362206
 30
0.0
 10
1.818502816209135
 20
-14.23738446979889
 30
0.0
 10
1.771274693430972
 20
-14.46934598296168
 30
0.0
 10
1.735468155241488
 20
-14.58460024806847
 30
0.0
 10
1.642525761912753
 20
-14.80332945016161
 30
0.0
 10
1.585736758255438
 20
-14.90690716731078
 30
0.0
 10
1.45177539243332
 20
-15.10269636543105
 30
0.0
 10
1.374179036514763
 20
-15.19489440543913
 30
0.0
 10
1.120577811863994
 20
-15.44246022228274
 30
0.0
 10
0.9168714236565837
 20
-15.57525383222528
 30
0.0
 10
0.4787561475121936
 20
-15.75290008712151
 30
0.0
 10
0.2400983385289218
 20
-15.8
 30
0.0
 10
-0.240098338528924
 20
-15.8
 30
0.0
  0
SPLINE
  5
E9
330
23
100
AcDbEntity
  8
0
  6
Continuous
 62
     7
370
    15
100
AcDbSpline
210
0.0
220
0.0
230
1.0
 70
     8
 71
     3
 72
    52
 73
    48
 74
     0
 42
0.00000001
 43
0.00000001
 12
1.0
 22
0.0
 32
0.0
 13
1.0
 23
0.0
 33
0.0
 40
-0.0625
 40
-0.0625
 40
0.0
 40
0.0
 40
0.0625
 40
0.0625
 40
0.1249999999999999
 40
0.1249999999999999
 40
0.1562499999999999
 40
0.1562499999999999
 40
0.1874999999999999
 40
0.1874999999999999
 40
0.2187499999999998
 40
0.2187499999999998
 40
0.2499999999999998
 40
0.2499999999999998
 40
0.2812499999999998
 40
0.2812499999999998
 40
0.3124999999999997
 40
0.3124999999999997
 40
0.3437499999999997
 40
0.3437499999999997
 40
0.3749999999999997
 40
0.3749999999999997
 40
0.4374999999999996
 40
0.4374999999999996
 40
0.4999999999999994
 40
0.4999999999999994
 40
0.5624999999999993
 40
0.5624999999999993
 40
0.5937499999999992
 40
0.5937499999999992
 40
0.6249999999999992
 40
0.6249999999999992
 40
0.6874999999999992
 40
0.6874999999999992
 40
0.7499999999999992
 40
0.7499999999999992
 40
0.7812499999999993
 40
0.7812499999999993
 40
0.8124999999999996
 40
0.8124999999999996
 40
0.8437499999999998
 40
0.8437499999999998
 40
0.875
 40
0.875
 40
0.9375
 40
0.9375
 40
1.0
 40
1.0
 40
1.0625
 40
1.0625
 10
-0.2117508894873945
 20
-15.6
 30
0.0
 10
0.2117508894873945
 20
-15.60000000000001
 30
0.0
 10
0.4220760471141733
 20
-15.55731943286505
 30
0.0
 10
0.806749063841423
 20
-15.39733602026057
 30
0.0
 10
0.984821973765178
 20
-15.27807457655498
 30
0.0
 10
1.205539355830281
 20
-15.05712444743088
 30
0.0
 10
1.272896616170097
 20
-14.97501409363503
 30
0.0
 10
1.388893923433363
 20
-14.80118159470502
 30
0.0
 10
1.437977782253759
 20
-14.70936349918931
 30
0.0
 10
1.518202073084966
 20
-14.51578982300742
 30
0.0
 10
1.549019752704077
 20
-14.41403986345363
 30
0.0
 10
1.589678529015198
 20
-14.20931645225393
 30
0.0
 10
1.600037036477082
 20
-14.10526161433507
 30
0.0
 10
1.599962766495901
 20
-13.89361545517526
 30
0.0
 10
1.589510316264234
 20
-13.78943752878236
 30
0.0
 10
1.548719846227675
 20
-13.58485371530479
 30
0.0
 10
1.517893238408199
 20
-13.4832825042585
 30
0.0
 10
1.437465517401741
 20
-13.28958481161251
 30
0.0
 10
1.388315089482815
 20
-13.19783564430835
 30
0.0
 10
1.272380049435982
 20
-13.02432820527333
 30
0.0
 10
1.204925583608637
 20
-12.94216725433718
 30
0.0
 10
0.9838779749741468
 20
-12.721169577432
 30
0.0
 10
0.8058475363099828
 20
-12.60213423963416
 30
0.0
 10
0.4209451958346785
 20
-12.44236587162333
 30
0.0
 10
0.2101888425143232
 20
-12.40015172211533
 30
0.0
 10
-0.2078725829986607
 20
-12.39984911617512
 30
0.0
 10
-0.4201245195713182
 20
-12.4419284475518
 30
0.0
 10
-0.7109772393510913
 20
-12.56280333330888
 30
0.0
 10
-0.8027264976679924
 20
-12.61201460535296
 30
0.0
 10
-0.9760865137457218
 20
-12.72794323888611
 30
0.0
 10
-1.058243731329241
 20
-12.79542965040354
 30
0.0
 10
-1.27929721549818
 20
-13.01670110214816
 30
0.0
 10
-1.398184803099623
 20
-13.19469860627597
 30
0.0
 10
-1.557817702261217
 20
-13.57972023023446
 30
0.0
 10
-1.599933039109447
 20
-13.79056213160962
 30
0.0
 10
-1.600033357481856
 20
-14.10395067355634
 30
0.0
 10
-1.589605599162574
 20
-14.21006309177239
 30
0.0
 10
-1.548649653312969
 20
-14.4155198126535
 30
0.0
 10
-1.518383839713095
 20
-14.51523731388202
 30
0.0
 10
-1.438304601995653
 20
-14.70868811630813
 30
0.0
 10
-1.388181010271167
 20
-14.80236713798915
 30
0.0
 10
-1.272494010166205
 20
-14.97549912121615
 30
0.0
 10
-1.206537216086105
 20
-15.05609817545541
 30
0.0
 10
-0.9834486050111807
 20
-15.27950399815933
 30
0.0
 10
-0.8075685369302072
 20
-15.397107686463
 30
0.0
 10
-0.4197920318531113
 20
-15.55815643611488
 30
0.0
 10
-0.2117508894873945
 20
-15.6
 30
0.0
 10
0.2117508894873945
 20
-15.60000000000001
 30
0.0
  0
LINE
  5
F0
330
23
100
AcDbEntity
  8
0
  6
Continuous
 62
     7
370
    15
100
AcDbLine
 10
-12.0
 20
0.0
 30
0.0
 11
-12.0
 21
-25.5
 31
0.0
  0
LINE
  5
F1
330
23
100
AcDbEntity
  8
0
  6
Continuous
 62
     7
370
    15
100
AcDbLine
 10
12.0
 20
-25.5
 30
0.0
 11
12.0
 21
0.0
 31
0.0
  0
LINE
  5
F2
330
23
100
AcDbEntity
  8
0
  6
Continuous
 62
     7
370
    15
100
AcDbLine
 10
-9.5
 20
-6.0
 30
0.0
 11
-9.5
 21
0.0
 31
0.0
  0
LINE
  5
F3
330
23
100
AcDbEntity
  8
0
  6
Continuous
 62
     7
370
    15
100
AcDbLine
 10
-8.5
 20
0.0
 30
0.0
 11
-8.5
 21
-6.0
 31
0.0
  0
LINE
  5
F4
330
23
100
AcDbEntity
  8
0
  6
Continuous
 62
     7
370
    15
100
AcDbLine
 10
8.5
 20
-6.0
 30
0.0
 11
8.5
 21
0.0
 31
0.0
  0
LINE
  5
F5
330
23
100
AcDbEntity
  8
0
  6
Continuous
 62
     7
370
    15
100
AcDbLine
 10
9.5
 20
0.0
 30
0.0
 11
9.5
 21
-6.0
 31
0.0
  0
LINE
  5
F6
330
23
100
AcDbEntity
  8
0
  6
Continuous
 62
     7
370
    15
100
AcDbLine
 10
9.8571428571
 20
-6.0
 30
0.0
 11
-9.8571428571
 21
-6.0
 31
0.0
  0
LINE
  5
F7
330
23
100
AcDbEntity
  8
0
  6
Continuous
 62
     7
370
    15
100
AcDbLine
 10
-9.8571428571
 20
-6.0
 30
0.0
 11
-9.8571428571
 21
0.0
 31
0.0
  0
LINE
  5
F8
330
23
100
AcDbEntity
  8
0
  6
Continuous
 62
     7
370
    15
100
AcDbLine
 10
9.8571428571
 20
0.0
 30
0.0
 11
9.8571428571
 21
-6.0
 31
0.0
  0
LINE
  5
F9
330
23
100
AcDbEntity
  8
0
  6
Continuous
 62
     7
370
    15
100
AcDbLine
 10
12.0
 20
0.0
 30
0.0
 11
-12.0
 21
0.0
 31
0.0
  0
LINE
  5
FA
330
23
100
AcDbEntity
  8
0
  6
Continuous
 62
     7
370
    15
100
AcDbLine
 10
11.5
 20
-26.0
 30
0.0
 11
-11.4999999996
 21
-26.0
 31
0.0
  0
LINE
  5
FB
330
23
100
AcDbEntity
  8
0
  6
Continuous
 62
     7
370
    15
100
AcDbLine
 10
0.3270962107
 20
-15.561997985
 30
0.0
 11
0.4449728377
 21
-15.531797659
 31
0.0
  0
LINE
  5
FC
330
23
100
AcDbEntity
  8
0
  6
Continuous
 62
     8
370
    15
100
AcDbLine
 10
-12.0
 20
-25.5
 30
0.0
 11
12.0
 21
-25.5
 31
0.0
  0
ARC
  5
FD
330
23
100
AcDbEntity
  8
0
  6
Continuous
 62
     7
370
    15
100
AcDbCircle
 10
11.5
 20
-25.5
 30
0.0
 40
0.5000000000000071
100
AcDbArc
 50
270.0
 51
0.0
  0
ARC
  5
FE
330
23
100
AcDbEntity
  8
0
  6
Continuous
 62
     7
370
    15
100
AcDbCircle
 10
-11.5
 20
-25.5
 30
0.0
 40
0.5000000000000071
100
AcDbArc
 50
180.0
 51
270.0
  0
VIEWPORT
  5
373
330
23
100
AcDbEntity
  8
0
100
AcDbViewport
 10
0.0
 20
0.0
 30
0.0
 40
243.84
 41
204.216
 68
     1
 69
     1
 12
10.9413581274
 22
-0.7593179437
 13
0.0
 23
0.0
 14
10.0
 24
10.0
 15
10.0
 25
10.0
 16
0.0
 26
0.0
 36
1.0
 17
0.0
 27
0.0
 37
0.0
 42
50.0
 43
0.0
 44
0.0
 45
38.3913139752
 50
0.0
 51
0.0
 72
   100
 90
   557152
  1

281
     0
 71
     1
 74
     0
110
0.0
120
0.0
130
0.0
111
1.0
121
0.0
131
0.0
112
0.0
122
1.0
132
0.0
 79
     0
146
0.0
  0
ENDBLK
  5
25
330
23
100
AcDbEntity
  8
0
100
AcDbBlockEnd
  0
BLOCK
  5
101
330
FF
100
AcDbEntity
  8
0
100
AcDbBlockBegin
  2
*Paper_Space2
 70
     0
 10
0.0
 20
0.0
 30
0.0
  3
*Paper_Space2
  1

  0
SPLINE
  5
109
330
FF
100
AcDbEntity
  8
0
  6
Continuous
 62
     7
370
    15
100
AcDbSpline
210
0.0
220
0.0
230
1.0
 70
     8
 71
     3
 72
    10
 73
     6
 74
     0
 42
0.00000001
 43
0.00000001
 12
1.0
 22
0.0
 32
0.0
 13
1.0
 23
0.0
 33
0.0
 40
0.0
 40
0.0
 40
0.0
 40
0.0
 40
0.3186013937097184
 40
0.9284887678222278
 40
1.0
 40
1.0
 40
1.0
 40
1.0
 10
-15.72266373640568
 20
11.99061014814779
 30
0.0
 10
-15.73076874253742
 20
11.99181557964736
 30
0.0
 10
-15.75438887510752
 20
11.99532852601178
 30
0.0
 10
-15.7699563409686
 20
11.99772245974655
 30
0.0
 10
-15.76785757332774
 20
11.99738146573291
 30
0.0
 10
-15.76763731244275
 20
11.99734567918763
 30
0.0
  0
SPLINE
  5
10A
330
FF
100
AcDbEntity
  8
0
  6
Continuous
 62
     7
370
    15
100
AcDbSpline
210
0.0
220
0.0
230
1.0
 70
     8
 71
     3
 72
    12
 73
     8
 74
     0
 42
0.00000001
 43
0.00000001
 12
1.0
 22
0.0
 32
0.0
 13
1.0
 23
0.0
 33
0.0
 40
0.0
 40
0.0
 40
0.0
 40
0.0
 40
0.0313245188912869
 40
0.0883188459554202
 40
0.1764674865949865
 40
0.3650819400286294
 40
1.0
 40
1.0
 40
1.0
 40
1.0
 10
-15.77600378863133
 20
-11.99852954333414
 30
0.0
 10
-15.77563283011755
 20
-11.99848520848846
 30
0.0
 10
-15.77458692010859
 20
-11.99836020728991
 30
0.0
 10
-15.77341284948903
 20
-11.99820371422202
 30
0.0
 10
-15.77204776398436
 20
-11.9980195404325
 30
0.0
 10
-15.77063508758596
 20
-11.99781483591211
 30
0.0
 10
-15.77009880825177
 20
-11.99773600181627
 30
0.0
 10
-15.76968535349567
 20
-11.99767522317017
 30
0.0
  0
SPLINE
  5
10B
330
FF
100
AcDbEntity
  8
0
  6
Continuous
 62
     7
370
    15
100
AcDbSpline
210
0.0
220
0.0
230
1.0
 70
     8
 71
     3
 72
    11
 73
     7
 74
     0
 42
0.00000001
 43
0.00000001
 12
1.0
 22
0.0
 32
0.0
 13
1.0
 23
0.0
 33
0.0
 40
0.0
 40
0.0
 40
0.0
 40
0.0
 40
0.001125925951417
 40
0.2132272428092534
 40
0.6955162750280489
 40
1.0
 40
1.0
 40
1.0
 40
1.0
 10
-15.76857066945534
 20
-11.99749492384897
 30
0.0
 10
-15.76857452969215
 20
-11.99749553680531
 30
0.0
 10
-15.76930557923499
 20
-11.99761161814431
 30
0.0
 10
-15.76389911960432
 20
-11.99677301133794
 30
0.0
 10
-15.75132072035133
 20
-11.99487913349026
 30
0.0
 10
-15.73065964328996
 20
-11.99180128568527
 30
0.0
 10
-15.72266373640568
 20
-11.99061014814779
 30
0.0
  0
SPLINE
  5
111
330
FF
100
AcDbEntity
  8
0
  6
Continuous
 62
     7
370
    15
100
AcDbSpline
210
0.0
220
0.0
230
1.0
 70
     8
 71
     3
 72
    26
 73
    22
 74
     0
 42
0.00000001
 43
0.00000001
 12
1.0
 22
0.0
 32
0.0
 13
1.0
 23
0.0
 33
0.0
 40
0.0
 40
0.0
 40
0.0
 40
0.0
 40
0.0182281656363843
 40
0.0768633496408414
 40
0.1337526226826622
 40
0.1922329727851824
 40
0.2491655404547632
 40
0.3077094518515191
 40
0.3647840335858841
 40
0.4235497154063375
 40
0.4801777120918762
 40
0.5385343127955906
 40
0.5945833072026141
 40
0.6523155810296744
 40
0.7085491918917816
 40
0.7664153269130705
 40
0.8235307567809887
 40
0.8822838294740558
 40
0.9399726653035316
 40
0.9993232119055374
 40
1.0
 40
1.0
 40
1.0
 40
1.0
 10
-12.20531463924446
 20
11.99917745391808
 30
0.0
 10
-12.20382514791413
 20
11.99940794419605
 30
0.0
 10
-12.19754435723042
 20
12.00037986068934
 30
0.0
 10
-12.23756485338349
 20
11.99416963502405
 30
0.0
 10
-12.32558121567231
 20
11.98101290136346
 30
0.0
 10
-12.46269465852972
 20
11.96180278351243
 30
0.0
 10
-12.6434437414195
 20
11.93896664425312
 30
0.0
 10
-12.86145418732365
 20
11.91514723029709
 30
0.0
 10
-13.1147391582395
 20
11.89266238632042
 30
0.0
 10
-13.3914007581378
 20
11.87449906494805
 30
0.0
 10
-13.68821936032496
 20
11.86248707130768
 30
0.0
 10
-13.98986604646788
 20
11.85822209135715
 30
0.0
 10
-14.29356202478577
 20
11.86202688350931
 30
0.0
 10
-14.58504530177142
 20
11.87329746126057
 30
0.0
 10
-14.86229314615423
 20
11.8909236568163
 30
0.0
 10
-15.11400161862047
 20
11.91274291673597
 30
0.0
 10
-15.33659375331805
 20
11.93659245175271
 30
0.0
 10
-15.5230437310655
 20
11.95992155698428
 30
0.0
 10
-15.6596852117985
 20
11.97883600415786
 30
0.0
 10
-15.74043500985477
 20
11.99087946081406
 30
0.0
 10
-15.75232703419184
 20
11.9927008485264
 30
0.0
 10
-15.75246111278339
 20
11.99272138406285
 30
0.0
  0
SPLINE
  5
112
330
FF
100
AcDbEntity
  8
0
  6
Continuous
 62
     7
370
    15
100
AcDbSpline
210
0.0
220
0.0
230
1.0
 70
     8
 71
     3
 72
    26
 73
    22
 74
     0
 42
0.00000001
 43
0.00000001
 12
1.0
 22
0.0
 32
0.0
 13
1.0
 23
0.0
 33
0.0
 40
0.0
 40
0.0
 40
0.0
 40
0.0
 40
0.0236844534189241
 40
0.0769202849823448
 40
0.1316447103881958
 40
0.1848594815403448
 40
0.2395649877461461
 40
0.293004073544375
 40
0.3479996628389494
 40
0.4012233976331762
 40
0.4560628162621999
 40
0.5086820128746925
 40
0.5628977141777228
 40
0.6153808447947524
 40
0.6694042333709338
 40
0.7225661031242627
 40
0.777253982233083
 40
0.8311666142937025
 40
0.8866298324466309
 40
0.9636737736520308
 40
1.0
 40
1.0
 40
1.0
 40
1.0
 10
-15.79695510787374
 20
-11.99952892917113
 30
0.0
 10
-15.79539255914993
 20
-11.99928646722135
 30
0.0
 10
-15.79031785081665
 20
-11.99849902062317
 30
0.0
 10
-15.7414069411211
 20
-11.99096718695245
 30
0.0
 10
-15.63852684691953
 20
-11.97582620291839
 30
0.0
 10
-15.4875084825112
 20
-11.95523664778412
 30
0.0
 10
-15.29636941981692
 20
-11.9319766238123
 30
0.0
 10
-15.06588759726671
 20
-11.90812881538638
 30
0.0
 10
-14.80648354326083
 20
-11.88680680404995
 30
0.0
 10
-14.52095669502257
 20
-11.87014687125707
 30
0.0
 10
-14.22391014909847
 20
-11.860416279067
 30
0.0
 10
-13.9184774477409
 20
-11.8585172415443
 30
0.0
 10
-13.61975620180861
 20
-11.86459686021116
 30
0.0
 10
-13.3298241954795
 20
-11.87799657305335
 30
0.0
 10
-13.06107719114932
 20
-11.89698186256648
 30
0.0
 10
-12.81588589301455
 20
-11.91979107440068
 30
0.0
 10
-12.60478897902612
 20
-11.94360632213174
 30
0.0
 10
-12.4304174869388
 20
-11.96617625800955
 30
0.0
 10
-12.28549702487394
 20
-11.98680622337486
 30
0.0
 10
-12.20613771032763
 20
-11.99904780053499
 30
0.0
 10
-12.20551437061866
 20
-11.99914599144916
 30
0.0
 10
-12.20531463924445
 20
-11.99917745391807
 30
0.0
  0
SPLINE
  5
113
330
FF
100
AcDbEntity
  8
0
  6
Continuous
 62
     7
370
    15
100
AcDbSpline
210
0.0
220
0.0
230
1.0
 70
     8
 71
     3
 72
     9
 73
     5
 74
     0
 42
0.00000001
 43
0.00000001
 12
1.0
 22
0.0
 32
0.0
 13
1.0
 23
0.0
 33
0.0
 40
0.0
 40
0.0
 40
0.0
 40
0.0
 40
0.8345783455311426
 40
1.0
 40
1.0
 40
1.0
 40
1.0
 10
-15.74651731354347
 20
-11.99184502938513
 30
0.0
 10
-15.74884866745937
 20
-11.99218606253377
 30
0.0
 10
-15.75164211870139
 20
-11.99259469181401
 30
0.0
 10
-15.75234486356532
 20
-11.99270340117971
 30
0.0
 10
-15.75246111278339
 20
-11.99272138406285
 30
0.0
  0
CIRCLE
  5
11C
330
FF
100
AcDbEntity
  8
0
  6
Continuous
 62
     7
370
    15
100
AcDbCircle
 10
-3.0
 20
-13.0
 30
0.0
 40
1.600000000000001
  0
CIRCLE
  5
120
330
FF
100
AcDbEntity
  8
0
  6
Continuous
 62
     7
370
    15
100
AcDbCircle
 10
-3.0
 20
13.0
 30
0.0
 40
1.600000000000003
  0
LINE
  5
12D
330
FF
100
AcDbEntity
  8
0
  6
Continuous
 62
     7
370
    15
100
AcDbLine
 10
-15.8
 20
12.0
 30
0.0
 11
-25.5
 21
12.0
 31
0.0
  0
LINE
  5
12E
330
FF
100
AcDbEntity
  8
0
  6
Continuous
 62
     7
370
    15
100
AcDbLine
 10
-6.0
 20
12.0
 30
0.0
 11
-12.2053146392
 21
12.0
 31
0.0
  0
LINE
  5
12F
330
FF
100
AcDbEntity
  8
0
  6
Continuous
 62
     7
370
    15
100
AcDbLine
 10
-12.2053146392
 20
-12.0
 30
0.0
 11
-6.0
 21
-12.0
 31
0.0
  0
LINE
  5
130
330
FF
100
AcDbEntity
  8
0
  6
Continuous
 62
     7
370
    15
100
AcDbLine
 10
-25.5
 20
-12.0
 30
0.0
 11
-15.8
 21
-12.0
 31
0.0
  0
LINE
  5
131
330
FF
100
AcDbEntity
  8
0
  6
Continuous
 62
     7
370
    15
100
AcDbLine
 10
-26.0
 20
-11.5
 30
0.0
 11
-26.0
 21
11.5
 31
0.0
  0
LINE
  5
132
330
FF
100
AcDbEntity
  8
0
  6
Continuous
 62
     7
370
    15
100
AcDbLine
 10
0.0
 20
6.8437368954
 30
0.0
 11
-6.0
 21
6.8437368954
 31
0.0
  0
LINE
  5
133
330
FF
100
AcDbEntity
  8
0
  6
Continuous
 62
     7
370
    15
100
AcDbLine
 10
-6.0
 20
-6.8437368954
 30
0.0
 11
0.0
 21
-6.8437368954
 31
0.0
  0
LINE
  5
134
330
FF
100
AcDbEntity
  8
0
  6
Continuous
 62
     7
370
    15
100
AcDbLine
 10
-15.7760639013
 20
11.9963351757
 30
0.0
 11
-15.7465173135
 21
11.9918450294
 31
0.0
  0
LINE
  5
135
330
FF
100
AcDbEntity
  8
0
  6
Continuous
 62
     7
370
    15
100
AcDbLine
 10
0.0
 20
-16.5
 30
0.0
 11
0.0
 21
16.5
 31
0.0
  0
LINE
  5
136
330
FF
100
AcDbEntity
  8
0
  6
Continuous
 62
     7
370
    15
100
AcDbLine
 10
0.0
 20
-7.9843597113
 30
0.0
 11
-6.0
 21
-7.9843597113
 31
0.0
  0
LINE
  5
137
330
FF
100
AcDbEntity
  8
0
  6
Continuous
 62
     7
370
    15
100
AcDbLine
 10
-6.0
 20
-16.5
 30
0.0
 11
-6.0
 21
-6.8437368954
 31
0.0
  0
LINE
  5
138
330
FF
100
AcDbEntity
  8
0
  6
Continuous
 62
     7
370
    15
100
AcDbLine
 10
-6.0
 20
7.9843597113
 30
0.0
 11
0.0
 21
7.9843597113
 31
0.0
  0
LINE
  5
139
330
FF
100
AcDbEntity
  8
0
  6
Continuous
 62
     7
370
    15
100
AcDbLine
 10
-6.0
 20
6.8437368954
 30
0.0
 11
-6.0
 21
16.5
 31
0.0
  0
LINE
  5
13A
330
FF
100
AcDbEntity
  8
0
  6
Continuous
 62
     7
370
    15
100
AcDbLine
 10
-6.0
 20
-15.5
 30
0.0
 11
0.0
 21
-15.5
 31
0.0
  0
LINE
  5
13B
330
FF
100
AcDbEntity
  8
0
  6
Continuous
 62
     7
370
    15
100
AcDbLine
 10
0.0
 20
15.5
 30
0.0
 11
-6.0
 21
15.5
 31
0.0
  0
LINE
  5
13C
330
FF
100
AcDbEntity
  8
0
  6
Continuous
 62
     7
370
    15
100
AcDbLine
 10
-6.0
 20
16.5
 30
0.0
 11
0.0
 21
16.5
 31
0.0
  0
LINE
  5
13D
330
FF
100
AcDbEntity
  8
0
  6
Continuous
 62
     7
370
    15
100
AcDbLine
 10
0.0
 20
-16.5
 30
0.0
 11
-6.0
 21
-16.5
 31
0.0
  0
LINE
  5
13E
330
FF
100
AcDbEntity
  8
0
  6
Continuous
 62
     8
370
    15
100
AcDbLine
 10
-25.5
 20
12.0
 30
0.0
 11
-25.5
 21
-12.0
 31
0.0
  0
LINE
  5
13F
330
FF
100
AcDbEntity
  8
0
  6
Continuous
 62
     8
370
    15
100
AcDbLine
 10
-15.7524611128
 20
11.9927213841
 30
0.0
 11
-15.8
 21
12.0
 31
0.0
  0
LINE
  5
140
330
FF
100
AcDbEntity
  8
0
  6
Continuous
 62
     8
370
    15
100
AcDbLine
 10
-15.8
 20
-12.0
 30
0.0
 11
-15.7969551079
 21
-11.9995289292
 31
0.0
  0
ARC
  5
141
330
FF
100
AcDbEntity
  8
0
  6
Continuous
 62
     7
370
    15
100
AcDbCircle
 10
-25.5
 20
-11.5
 30
0.0
 40
0.5000000000000071
100
AcDbArc
 50
180.0
 51
270.0
  0
ARC
  5
142
330
FF
100
AcDbEntity
  8
0
  6
Continuous
 62
     7
370
    15
100
AcDbCircle
 10
-25.5
 20
11.5
 30
0.0
 40
0.5000000000000071
100
AcDbArc
 50
90.0
 51
180.0
  0
VIEWPORT
  5
374
330
FF
100
AcDbEntity
  8
0
100
AcDbViewport
 10
0.0
 20
0.0
 30
0.0
 40
243.84
 41
204.216
 68
     1
 69
     1
 12
10.9413581274
 22
-0.7593179437
 13
0.0
 23
0.0
 14
10.0
 24
10.0
 15
10.0
 25
10.0
 16
0.0
 26
0.0
 36
1.0
 17
0.0
 27
0.0
 37
0.0
 42
50.0
 43
0.0
 44
0.0
 45
38.3913139752
 50
0.0
 51
0.0
 72
   100
 90
   557152
  1

281
     0
 71
     1
 74
     0
110
0.0
120
0.0
130
0.0
111
1.0
121
0.0
131
0.0
112
0.0
122
1.0
132
0.0
 79
     0
146
0.0
  0
ENDBLK
  5
102
330
FF
100
AcDbEntity
  8
0
100
AcDbBlockEnd
  0
BLOCK
  5
145
330
143
100
AcDbEntity
  8
0
100
AcDbBlockBegin
  2
*Paper_Space3
 70
     0
 10
0.0
 20
0.0
 30
0.0
  3
*Paper_Space3
  1

  0
CIRCLE
  5
147
330
143
100
AcDbEntity
  8
0
  6
Continuous
 62
     7
370
    15
100
AcDbCircle
 10
0.0
 20
0.0
 30
0.0
 40
10.74999999999999
  0
CIRCLE
  5
148
330
143
100
AcDbEntity
  8
0
  6
Continuous
 62
     7
370
    15
100
AcDbCircle
 10
0.0
 20
0.0
 30
0.0
 40
11.5
  0
CIRCLE
  5
149
330
143
100
AcDbEntity
  8
0
  6
Continuous
 62
     7
370
    15
100
AcDbCircle
 10
0.0
 20
0.0
 30
0.0
 40
12.00000000000001
  0
LINE
  5
160
330
143
100
AcDbEntity
  8
0
  6
Continuous
 62
     7
370
    15
100
AcDbLine
 10
9.5
 20
-15.5
 30
0.0
 11
9.5
 21
-7.9843597113
 31
0.0
  0
LINE
  5
161
330
143
100
AcDbEntity
  8
0
  6
Continuous
 62
     7
370
    15
100
AcDbLine
 10
-8.5
 20
-16.5
 30
0.0
 11
8.5
 21
-16.5
 31
0.0
  0
LINE
  5
162
330
143
100
AcDbEntity
  8
0
  6
Continuous
 62
     7
370
    15
100
AcDbLine
 10
-9.5
 20
-7.9843597113
 30
0.0
 11
-9.5
 21
-15.5
 31
0.0
  0
LINE
  5
163
330
143
100
AcDbEntity
  8
0
  6
Continuous
 62
     7
370
    15
100
AcDbLine
 10
5.0
 20
-12.25
 30
0.0
 11
-5.0
 21
-12.25
 31
0.0
  0
LINE
  5
164
330
143
100
AcDbEntity
  8
0
  6
Continuous
 62
     7
370
    15
100
AcDbLine
 10
-5.0
 20
-14.75
 30
0.0
 11
5.0
 21
-14.75
 31
0.0
  0
LINE
  5
165
330
143
100
AcDbEntity
  8
0
  6
Continuous
 62
     7
370
    15
100
AcDbLine
 10
-9.5
 20
15.5
 30
0.0
 11
-9.5
 21
7.9843597113
 31
0.0
  0
LINE
  5
166
330
143
100
AcDbEntity
  8
0
  6
Continuous
 62
     7
370
    15
100
AcDbLine
 10
8.5
 20
16.5
 30
0.0
 11
-8.5
 21
16.5
 31
0.0
  0
LINE
  5
167
330
143
100
AcDbEntity
  8
0
  6
Continuous
 62
     7
370
    15
100
AcDbLine
 10
9.5
 20
7.9843597113
 30
0.0
 11
9.5
 21
15.5
 31
0.0
  0
LINE
  5
168
330
143
100
AcDbEntity
  8
0
  6
Continuous
 62
     7
370
    15
100
AcDbLine
 10
5.0
 20
14.75
 30
0.0
 11
-5.0
 21
14.75
 31
0.0
  0
LINE
  5
169
330
143
100
AcDbEntity
  8
0
  6
Continuous
 62
     7
370
    15
100
AcDbLine
 10
-5.0
 20
12.25
 30
0.0
 11
5.0
 21
12.25
 31
0.0
  0
ARC
  5
16A
330
143
100
AcDbEntity
  8
0
  6
Continuous
 62
     7
370
    15
100
AcDbCircle
 10
11.5
 20
-7.9843597113
 30
0.0
 40
1.999999999999995
100
AcDbArc
 50
145.2280559681
 51
180.0
  0
ARC
  5
16B
330
143
100
AcDbEntity
  8
0
  6
Continuous
 62
     7
370
    15
100
AcDbCircle
 10
8.5
 20
-15.5
 30
0.0
 40
1.0
100
AcDbArc
 50
270.0
 51
0.0
  0
ARC
  5
16C
330
143
100
AcDbEntity
  8
0
  6
Continuous
 62
     7
370
    15
100
AcDbCircle
 10
-8.5
 20
-15.5
 30
0.0
 40
1.000000000000005
100
AcDbArc
 50
180.0
 51
270.0
  0
ARC
  5
16D
330
143
100
AcDbEntity
  8
0
  6
Continuous
 62
     7
370
    15
100
AcDbCircle
 10
-11.5
 20
-7.9843597113
 30
0.0
 40
2.00000000000001
100
AcDbArc
 50
0.0
 51
34.7719440319
  0
ARC
  5
16E
330
143
100
AcDbEntity
  8
0
  6
Continuous
 62
     7
370
    15
100
AcDbCircle
 10
-5.0
 20
-13.5
 30
0.0
 40
1.250000000000002
100
AcDbArc
 50
90.0
 51
270.0
  0
ARC
  5
16F
330
143
100
AcDbEntity
  8
0
  6
Continuous
 62
     7
370
    15
100
AcDbCircle
 10
5.0
 20
-13.5
 30
0.0
 40
1.250000000000002
100
AcDbArc
 50
270.0
 51
90.0
  0
ARC
  5
170
330
143
100
AcDbEntity
  8
0
  6
Continuous
 62
     7
370
    15
100
AcDbCircle
 10
-11.5
 20
7.9843597113
 30
0.0
 40
1.999999999999995
100
AcDbArc
 50
325.2280559681
 51
0.0
  0
ARC
  5
171
330
143
100
AcDbEntity
  8
0
  6
Continuous
 62
     7
370
    15
100
AcDbCircle
 10
-8.5
 20
15.5
 30
0.0
 40
0.9999999999999964
100
AcDbArc
 50
90.0
 51
180.0
  0
ARC
  5
172
330
143
100
AcDbEntity
  8
0
  6
Continuous
 62
     7
370
    15
100
AcDbCircle
 10
8.5
 20
15.5
 30
0.0
 40
1.0
100
AcDbArc
 50
0.0
 51
90.0
  0
ARC
  5
173
330
143
100
AcDbEntity
  8
0
  6
Continuous
 62
     7
370
    15
100
AcDbCircle
 10
11.5
 20
7.9843597113
 30
0.0
 40
2.000000000000009
100
AcDbArc
 50
180.0
 51
214.771944032
  0
ARC
  5
174
330
143
100
AcDbEntity
  8
0
  6
Continuous
 62
     7
370
    15
100
AcDbCircle
 10
-5.0
 20
13.5
 30
0.0
 40
1.250000000000002
100
AcDbArc
 50
90.0
 51
270.0
  0
ARC
  5
175
330
143
100
AcDbEntity
  8
0
  6
Continuous
 62
     7
370
    15
100
AcDbCircle
 10
5.0
 20
13.5
 30
0.0
 40
1.250000000000002
100
AcDbArc
 50
270.0
 51
90.0
  0
VIEWPORT
  5
375
330
143
100
AcDbEntity
  8
0
100
AcDbViewport
 10
0.0
 20
0.0
 30
0.0
 40
243.84
 41
204.216
 68
     1
 69
     1
 12
10.9413581274
 22
-0.7593179437
 13
0.0
 23
0.0
 14
10.0
 24
10.0
 15
10.0
 25
10.0
 16
0.0
 26
0.0
 36
1.0
 17
0.0
 27
0.0
 37
0.0
 42
50.0
 43
0.0
 44
0.0
 45
38.3913139752
 50
0.0
 51
0.0
 72
   100
 90
   557152
  1

281
     0
 71
     1
 74
     0
110
0.0
120
0.0
130
0.0
111
1.0
121
0.0
131
0.0
112
0.0
122
1.0
132
0.0
 79
     0
146
0.0
  0
ENDBLK
  5
146
330
143
100
AcDbEntity
  8
0
100
AcDbBlockEnd
  0
BLOCK
  5
178
330
176
100
AcDbEntity
  8
0
100
AcDbBlockBegin
  2
*Paper_Space4
 70
     0
 10
0.0
 20
0.0
 30
0.0
  3
*Paper_Space4
  1

  0
CIRCLE
  5
191
330
176
100
AcDbEntity
  8
0
  6
Continuous
 62
     7
370
    15
100
AcDbCircle
 10
0.0
 20
0.0
 30
0.0
 40
10.74999999999999
  0
LINE
  5
193
330
176
100
AcDbEntity
  8
0
  6
Continuous
 62
     7
370
    15
100
AcDbLine
 10
-9.5
 20
7.9843597113
 30
0.0
 11
-9.5
 21
15.5
 31
0.0
  0
LINE
  5
194
330
176
100
AcDbEntity
  8
0
  6
Continuous
 62
     7
370
    15
100
AcDbLine
 10
-8.5
 20
16.5
 30
0.0
 11
8.5
 21
16.5
 31
0.0
  0
LINE
  5
195
330
176
100
AcDbEntity
  8
0
  6
Continuous
 62
     7
370
    15
100
AcDbLine
 10
9.5
 20
15.5
 30
0.0
 11
9.5
 21
7.9843597113
 31
0.0
  0
LINE
  5
196
330
176
100
AcDbEntity
  8
0
  6
Continuous
 62
     7
370
    15
100
AcDbLine
 10
9.5
 20
-7.9843597113
 30
0.0
 11
9.5
 21
-15.5
 31
0.0
  0
LINE
  5
197
330
176
100
AcDbEntity
  8
0
  6
Continuous
 62
     7
370
    15
100
AcDbLine
 10
8.5
 20
-16.5
 30
0.0
 11
-8.5
 21
-16.5
 31
0.0
  0
LINE
  5
198
330
176
100
AcDbEntity
  8
0
  6
Continuous
 62
     7
370
    15
100
AcDbLine
 10
-5.0
 20
14.75
 30
0.0
 11
5.0
 21
14.75
 31
0.0
  0
LINE
  5
199
330
176
100
AcDbEntity
  8
0
  6
Continuous
 62
     7
370
    15
100
AcDbLine
 10
5.0
 20
12.25
 30
0.0
 11
-5.0
 21
12.25
 31
0.0
  0
LINE
  5
19A
330
176
100
AcDbEntity
  8
0
  6
Continuous
 62
     7
370
    15
100
AcDbLine
 10
-5.0
 20
-12.25
 30
0.0
 11
5.0
 21
-12.25
 31
0.0
  0
LINE
  5
19B
330
176
100
AcDbEntity
  8
0
  6
Continuous
 62
     7
370
    15
100
AcDbLine
 10
5.0
 20
-14.75
 30
0.0
 11
-5.0
 21
-14.75
 31
0.0
  0
LINE
  5
19C
330
176
100
AcDbEntity
  8
0
  6
Continuous
 62
     7
370
    15
100
AcDbLine
 10
-9.5
 20
-15.5
 30
0.0
 11
-9.5
 21
-7.9843597113
 31
0.0
  0
ARC
  5
19D
330
176
100
AcDbEntity
  8
0
  6
Continuous
 62
     7
370
    15
100
AcDbCircle
 10
-11.5
 20
-7.9843597113
 30
0.0
 40
1.999999999999977
100
AcDbArc
 50
0.0
 51
34.7719440319
  0
ARC
  5
19E
330
176
100
AcDbEntity
  8
0
  6
Continuous
 62
     7
370
    15
100
AcDbCircle
 10
0.0
 20
0.0
 30
0.0
 40
12.00000000000004
100
AcDbArc
 50
145.2280559681
 51
214.771944032
  0
ARC
  5
19F
330
176
100
AcDbEntity
  8
0
  6
Continuous
 62
     7
370
    15
100
AcDbCircle
 10
-11.5
 20
7.9843597113
 30
0.0
 40
2.000000000000025
100
AcDbArc
 50
325.2280559681
 51
0.0
  0
ARC
  5
1A0
330
176
100
AcDbEntity
  8
0
  6
Continuous
 62
     7
370
    15
100
AcDbCircle
 10
-8.5
 20
15.5
 30
0.0
 40
0.9999999999999982
100
AcDbArc
 50
90.0
 51
180.0
  0
ARC
  5
1A1
330
176
100
AcDbEntity
  8
0
  6
Continuous
 62
     7
370
    15
100
AcDbCircle
 10
8.5
 20
15.5
 30
0.0
 40
1.0
100
AcDbArc
 50
0.0
 51
90.0
  0
ARC
  5
1A2
330
176
100
AcDbEntity
  8
0
  6
Continuous
 62
     7
370
    15
100
AcDbCircle
 10
11.5
 20
7.9843597113
 30
0.0
 40
1.999999999999977
100
AcDbArc
 50
180.0
 51
214.771944032
  0
ARC
  5
1A3
330
176
100
AcDbEntity
  8
0
  6
Continuous
 62
     7
370
    15
100
AcDbCircle
 10
0.0
 20
0.0
 30
0.0
 40
12.00000000000004
100
AcDbArc
 50
325.2280559681
 51
34.7719440319
  0
ARC
  5
1A4
330
176
100
AcDbEntity
  8
0
  6
Continuous
 62
     7
370
    15
100
AcDbCircle
 10
11.5
 20
-7.9843597113
 30
0.0
 40
2.000000000000025
100
AcDbArc
 50
145.2280559681
 51
180.0
  0
ARC
  5
1A5
330
176
100
AcDbEntity
  8
0
  6
Continuous
 62
     7
370
    15
100
AcDbCircle
 10
8.5
 20
-15.5
 30
0.0
 40
0.9999999999999947
100
AcDbArc
 50
270.0
 51
0.0
  0
ARC
  5
1A6
330
176
100
AcDbEntity
  8
0
  6
Continuous
 62
     7
370
    15
100
AcDbCircle
 10
-8.5
 20
-15.5
 30
0.0
 40
1.000000000000002
100
AcDbArc
 50
180.0
 51
270.0
  0
ARC
  5
1A7
330
176
100
AcDbEntity
  8
0
  6
Continuous
 62
     7
370
    15
100
AcDbCircle
 10
5.0
 20
13.5
 30
0.0
 40
1.250000000000002
100
AcDbArc
 50
270.0
 51
90.0
  0
ARC
  5
1A8
330
176
100
AcDbEntity
  8
0
  6
Continuous
 62
     7
370
    15
100
AcDbCircle
 10
-5.0
 20
13.5
 30
0.0
 40
1.250000000000002
100
AcDbArc
 50
90.0
 51
270.0
  0
ARC
  5
1A9
330
176
100
AcDbEntity
  8
0
  6
Continuous
 62
     7
370
    15
100
AcDbCircle
 10
5.0
 20
-13.5
 30
0.0
 40
1.250000000000002
100
AcDbArc
 50
270.0
 51
90.0
  0
ARC
  5
1AA
330
176
100
AcDbEntity
  8
0
  6
Continuous
 62
     7
370
    15
100
AcDbCircle
 10
-5.0
 20
-13.5
 30
0.0
 40
1.250000000000002
100
AcDbArc
 50
90.0
 51
270.0
  0
VIEWPORT
  5
376
330
176
100
AcDbEntity
  8
0
100
AcDbViewport
 10
0.0
 20
0.0
 30
0.0
 40
243.84
 41
204.216
 68
     1
 69
     1
 12
10.9413581274
 22
-0.7593179437
 13
0.0
 23
0.0
 14
10.0
 24
10.0
 15
10.0
 25
10.0
 16
0.0
 26
0.0
 36
1.0
 17
0.0
 27
0.0
 37
0.0
 42
50.0
 43
0.0
 44
0.0
 45
38.3913139752
 50
0.0
 51
0.0
 72
   100
 90
   557152
  1

281
     0
 71
     1
 74
     0
110
0.0
120
0.0
130
0.0
111
1.0
121
0.0
131
0.0
112
0.0
122
1.0
132
0.0
 79
     0
146
0.0
  0
ENDBLK
  5
179
330
176
100
AcDbEntity
  8
0
100
AcDbBlockEnd
  0
BLOCK
  5
1AD
330
1AB
100
AcDbEntity
  8
0
100
AcDbBlockBegin
  2
*Paper_Space5
 70
     0
 10
0.0
 20
0.0
 30
0.0
  3
*Paper_Space5
  1

  0
SPLINE
  5
1B5
330
1AB
100
AcDbEntity
  8
0
  6
Continuous
 62
     7
370
    15
100
AcDbSpline
210
0.0
220
0.0
230
1.0
 70
     8
 71
     3
 72
    10
 73
     6
 74
     0
 42
0.00000001
 43
0.00000001
 12
1.0
 22
0.0
 32
0.0
 13
1.0
 23
0.0
 33
0.0
 40
0.0
 40
0.0
 40
0.0
 40
0.0
 40
0.3186013937097184
 40
0.9284887678222278
 40
1.0
 40
1.0
 40
1.0
 40
1.0
 10
15.72266373640568
 20
-11.99061014814779
 30
0.0
 10
15.73076874253742
 20
-11.99181557964736
 30
0.0
 10
15.75438887510752
 20
-11.99532852601178
 30
0.0
 10
15.7699563409686
 20
-11.99772245974655
 30
0.0
 10
15.76785757332774
 20
-11.99738146573291
 30
0.0
 10
15.76763731244275
 20
-11.99734567918763
 30
0.0
  0
SPLINE
  5
1B6
330
1AB
100
AcDbEntity
  8
0
  6
Continuous
 62
     7
370
    15
100
AcDbSpline
210
0.0
220
0.0
230
1.0
 70
     8
 71
     3
 72
    12
 73
     8
 74
     0
 42
0.00000001
 43
0.00000001
 12
1.0
 22
0.0
 32
0.0
 13
1.0
 23
0.0
 33
0.0
 40
0.0
 40
0.0
 40
0.0
 40
0.0
 40
0.0313245188912869
 40
0.0883188459554202
 40
0.1764674865949865
 40
0.3650819400286294
 40
1.0
 40
1.0
 40
1.0
 40
1.0
 10
15.77600378863133
 20
11.99852954333414
 30
0.0
 10
15.77563283011755
 20
11.99848520848846
 30
0.0
 10
15.77458692010859
 20
11.99836020728991
 30
0.0
 10
15.77341284948903
 20
11.99820371422202
 30
0.0
 10
15.77204776398436
 20
11.9980195404325
 30
0.0
 10
15.77063508758596
 20
11.99781483591211
 30
0.0
 10
15.77009880825177
 20
11.99773600181627
 30
0.0
 10
15.76968535349567
 20
11.99767522317017
 30
0.0
  0
SPLINE
  5
1B7
330
1AB
100
AcDbEntity
  8
0
  6
Continuous
 62
     7
370
    15
100
AcDbSpline
210
0.0
220
0.0
230
1.0
 70
     8
 71
     3
 72
    11
 73
     7
 74
     0
 42
0.00000001
 43
0.00000001
 12
1.0
 22
0.0
 32
0.0
 13
1.0
 23
0.0
 33
0.0
 40
0.0
 40
0.0
 40
0.0
 40
0.0
 40
0.001125925951417
 40
0.2132272428092534
 40
0.6955162750280489
 40
1.0
 40
1.0
 40
1.0
 40
1.0
 10
15.76857066945534
 20
11.99749492384897
 30
0.0
 10
15.76857452969215
 20
11.99749553680531
 30
0.0
 10
15.76930557923499
 20
11.99761161814431
 30
0.0
 10
15.76389911960432
 20
11.99677301133794
 30
0.0
 10
15.75132072035133
 20
11.99487913349026
 30
0.0
 10
15.73065964328996
 20
11.99180128568527
 30
0.0
 10
15.72266373640568
 20
11.99061014814779
 30
0.0
  0
SPLINE
  5
1BB
330
1AB
100
AcDbEntity
  8
0
  6
Continuous
 62
     7
370
    15
100
AcDbSpline
210
0.0
220
0.0
230
1.0
 70
     8
 71
     3
 72
    26
 73
    22
 74
     0
 42
0.00000001
 43
0.00000001
 12
1.0
 22
0.0
 32
0.0
 13
1.0
 23
0.0
 33
0.0
 40
0.0
 40
0.0
 40
0.0
 40
0.0
 40
0.0236844534189241
 40
0.0769202849823448
 40
0.1316447103881958
 40
0.1848594815403448
 40
0.2395649877461461
 40
0.293004073544375
 40
0.3479996628389494
 40
0.4012233976331762
 40
0.4560628162621999
 40
0.5086820128746925
 40
0.5628977141777228
 40
0.6153808447947524
 40
0.6694042333709338
 40
0.7225661031242627
 40
0.777253982233083
 40
0.8311666142937025
 40
0.8866298324466309
 40
0.9636737736520308
 40
1.0
 40
1.0
 40
1.0
 40
1.0
 10
15.79695510787374
 20
11.99952892917113
 30
0.0
 10
15.79539255914993
 20
11.99928646722135
 30
0.0
 10
15.79031785081665
 20
11.99849902062317
 30
0.0
 10
15.7414069411211
 20
11.99096718695245
 30
0.0
 10
15.63852684691953
 20
11.97582620291839
 30
0.0
 10
15.4875084825112
 20
11.95523664778412
 30
0.0
 10
15.29636941981692
 20
11.9319766238123
 30
0.0
 10
15.06588759726671
 20
11.90812881538638
 30
0.0
 10
14.80648354326083
 20
11.88680680404995
 30
0.0
 10
14.52095669502257
 20
11.87014687125707
 30
0.0
 10
14.22391014909847
 20
11.860416279067
 30
0.0
 10
13.9184774477409
 20
11.8585172415443
 30
0.0
 10
13.61975620180861
 20
11.86459686021116
 30
0.0
 10
13.3298241954795
 20
11.87799657305335
 30
0.0
 10
13.06107719114932
 20
11.89698186256648
 30
0.0
 10
12.81588589301455
 20
11.91979107440068
 30
0.0
 10
12.60478897902612
 20
11.94360632213174
 30
0.0
 10
12.4304174869388
 20
11.96617625800955
 30
0.0
 10
12.28549702487394
 20
11.98680622337486
 30
0.0
 10
12.20613771032763
 20
11.99904780053499
 30
0.0
 10
12.20551437061866
 20
11.99914599144916
 30
0.0
 10
12.20531463924445
 20
11.99917745391807
 30
0.0
  0
SPLINE
  5
1BC
330
1AB
100
AcDbEntity
  8
0
  6
Continuous
 62
     7
370
    15
100
AcDbSpline
210
0.0
220
0.0
230
1.0
 70
     8
 71
     3
 72
     9
 73
     5
 74
     0
 42
0.00000001
 43
0.00000001
 12
1.0
 22
0.0
 32
0.0
 13
1.0
 23
0.0
 33
0.0
 40
0.0
 40
0.0
 40
0.0
 40
0.0
 40
0.8345783455311426
 40
1.0
 40
1.0
 40
1.0
 40
1.0
 10
15.74651731354347
 20
11.99184502938513
 30
0.0
 10
15.74884866745937
 20
11.99218606253377
 30
0.0
 10
15.75164211870139
 20
11.99259469181401
 30
0.0
 10
15.75234486356532
 20
11.99270340117971
 30
0.0
 10
15.75246111278339
 20
11.99272138406285
 30
0.0
  0
SPLINE
  5
1BE
330
1AB
100
AcDbEntity
  8
0
  6
Continuous
 62
     7
370
    15
100
AcDbSpline
210
0.0
220
0.0
230
1.0
 70
     8
 71
     3
 72
    26
 73
    22
 74
     0
 42
0.00000001
 43
0.00000001
 12
1.0
 22
0.0
 32
0.0
 13
1.0
 23
0.0
 33
0.0
 40
0.0
 40
0.0
 40
0.0
 40
0.0
 40
0.0182281656363843
 40
0.0768633496408414
 40
0.1337526226826622
 40
0.1922329727851824
 40
0.2491655404547632
 40
0.3077094518515191
 40
0.3647840335858841
 40
0.4235497154063375
 40
0.4801777120918762
 40
0.5385343127955906
 40
0.5945833072026141
 40
0.6523155810296744
 40
0.7085491918917816
 40
0.7664153269130705
 40
0.8235307567809887
 40
0.8822838294740558
 40
0.9399726653035316
 40
0.9993232119055374
 40
1.0
 40
1.0
 40
1.0
 40
1.0
 10
12.20531463924446
 20
-11.99917745391808
 30
0.0
 10
12.20382514791413
 20
-11.99940794419605
 30
0.0
 10
12.19754435723042
 20
-12.00037986068934
 30
0.0
 10
12.23756485338349
 20
-11.99416963502405
 30
0.0
 10
12.32558121567231
 20
-11.98101290136346
 30
0.0
 10
12.46269465852972
 20
-11.96180278351243
 30
0.0
 10
12.6434437414195
 20
-11.93896664425312
 30
0.0
 10
12.86145418732365
 20
-11.91514723029709
 30
0.0
 10
13.1147391582395
 20
-11.89266238632042
 30
0.0
 10
13.3914007581378
 20
-11.87449906494805
 30
0.0
 10
13.68821936032496
 20
-11.86248707130768
 30
0.0
 10
13.98986604646788
 20
-11.85822209135715
 30
0.0
 10
14.29356202478577
 20
-11.86202688350931
 30
0.0
 10
14.58504530177142
 20
-11.87329746126057
 30
0.0
 10
14.86229314615423
 20
-11.8909236568163
 30
0.0
 10
15.11400161862047
 20
-11.91274291673597
 30
0.0
 10
15.33659375331805
 20
-11.93659245175271
 30
0.0
 10
15.5230437310655
 20
-11.95992155698428
 30
0.0
 10
15.6596852117985
 20
-11.97883600415786
 30
0.0
 10
15.74043500985477
 20
-11.99087946081406
 30
0.0
 10
15.75232703419184
 20
-11.9927008485264
 30
0.0
 10
15.75246111278339
 20
-11.99272138406285
 30
0.0
  0
CIRCLE
  5
1CE
330
1AB
100
AcDbEntity
  8
0
  6
Continuous
 62
     7
370
    15
100
AcDbCircle
 10
3.0
 20
-13.0
 30
0.0
 40
1.600000000000001
  0
CIRCLE
  5
1D1
330
1AB
100
AcDbEntity
  8
0
  6
Continuous
 62
     7
370
    15
100
AcDbCircle
 10
3.0
 20
13.0
 30
0.0
 40
1.6
  0
LINE
  5
1D7
330
1AB
100
AcDbEntity
  8
0
  6
Continuous
 62
     7
370
    15
100
AcDbLine
 10
15.8
 20
-12.0
 30
0.0
 11
25.5
 21
-12.0
 31
0.0
  0
LINE
  5
1D8
330
1AB
100
AcDbEntity
  8
0
  6
Continuous
 62
     7
370
    15
100
AcDbLine
 10
6.0
 20
-12.0
 30
0.0
 11
12.2053146392
 21
-12.0
 31
0.0
  0
LINE
  5
1D9
330
1AB
100
AcDbEntity
  8
0
  6
Continuous
 62
     7
370
    15
100
AcDbLine
 10
12.2053146392
 20
12.0
 30
0.0
 11
6.0
 21
12.0
 31
0.0
  0
LINE
  5
1DA
330
1AB
100
AcDbEntity
  8
0
  6
Continuous
 62
     7
370
    15
100
AcDbLine
 10
25.5
 20
12.0
 30
0.0
 11
15.8
 21
12.0
 31
0.0
  0
LINE
  5
1DB
330
1AB
100
AcDbEntity
  8
0
  6
Continuous
 62
     7
370
    15
100
AcDbLine
 10
26.0
 20
11.5
 30
0.0
 11
26.0
 21
-11.5
 31
0.0
  0
LINE
  5
1DC
330
1AB
100
AcDbEntity
  8
0
  6
Continuous
 62
     7
370
    15
100
AcDbLine
 10
6.0
 20
6.8437368954
 30
0.0
 11
0.0
 21
6.8437368954
 31
0.0
  0
LINE
  5
1DD
330
1AB
100
AcDbEntity
  8
0
  6
Continuous
 62
     7
370
    15
100
AcDbLine
 10
0.0
 20
-6.8437368954
 30
0.0
 11
6.0
 21
-6.8437368954
 31
0.0
  0
LINE
  5
1DE
330
1AB
100
AcDbEntity
  8
0
  6
Continuous
 62
     7
370
    15
100
AcDbLine
 10
15.7760639013
 20
-11.9963351757
 30
0.0
 11
15.7465173135
 21
-11.9918450294
 31
0.0
  0
LINE
  5
1DF
330
1AB
100
AcDbEntity
  8
0
  6
Continuous
 62
     7
370
    15
100
AcDbLine
 10
6.0
 20
-7.9843597113
 30
0.0
 11
0.0
 21
-7.9843597113
 31
0.0
  0
LINE
  5
1E0
330
1AB
100
AcDbEntity
  8
0
  6
Continuous
 62
     7
370
    15
100
AcDbLine
 10
0.0
 20
7.9843597113
 30
0.0
 11
6.0
 21
7.9843597113
 31
0.0
  0
LINE
  5
1E1
330
1AB
100
AcDbEntity
  8
0
  6
Continuous
 62
     7
370
    15
100
AcDbLine
 10
6.0
 20
15.5
 30
0.0
 11
0.0
 21
15.5
 31
0.0
  0
LINE
  5
1E2
330
1AB
100
AcDbEntity
  8
0
  6
Continuous
 62
     7
370
    15
100
AcDbLine
 10
0.0
 20
16.5
 30
0.0
 11
6.0
 21
16.5
 31
0.0
  0
LINE
  5
1E3
330
1AB
100
AcDbEntity
  8
0
  6
Continuous
 62
     7
370
    15
100
AcDbLine
 10
6.0
 20
16.5
 30
0.0
 11
6.0
 21
6.8437368954
 31
0.0
  0
LINE
  5
1E4
330
1AB
100
AcDbEntity
  8
0
  6
Continuous
 62
     7
370
    15
100
AcDbLine
 10
6.0
 20
-16.5
 30
0.0
 11
0.0
 21
-16.5
 31
0.0
  0
LINE
  5
1E5
330
1AB
100
AcDbEntity
  8
0
  6
Continuous
 62
     7
370
    15
100
AcDbLine
 10
0.0
 20
-15.5
 30
0.0
 11
6.0
 21
-15.5
 31
0.0
  0
LINE
  5
1E6
330
1AB
100
AcDbEntity
  8
0
  6
Continuous
 62
     7
370
    15
100
AcDbLine
 10
6.0
 20
-6.8437368954
 30
0.0
 11
6.0
 21
-16.5
 31
0.0
  0
LINE
  5
1E7
330
1AB
100
AcDbEntity
  8
0
  6
Continuous
 62
     7
370
    15
100
AcDbLine
 10
0.0
 20
16.5
 30
0.0
 11
0.0
 21
-16.5
 31
0.0
  0
LINE
  5
1E8
330
1AB
100
AcDbEntity
  8
0
  6
Continuous
 62
     8
370
    15
100
AcDbLine
 10
25.5
 20
-12.0
 30
0.0
 11
25.5
 21
12.0
 31
0.0
  0
LINE
  5
1E9
330
1AB
100
AcDbEntity
  8
0
  6
Continuous
 62
     8
370
    15
100
AcDbLine
 10
15.8
 20
12.0
 30
0.0
 11
15.7969551079
 21
11.9995289292
 31
0.0
  0
LINE
  5
1EA
330
1AB
100
AcDbEntity
  8
0
  6
Continuous
 62
     8
370
    15
100
AcDbLine
 10
15.7524611128
 20
-11.9927213841
 30
0.0
 11
15.8
 21
-12.0
 31
0.0
  0
ARC
  5
1EB
330
1AB
100
AcDbEntity
  8
0
  6
Continuous
 62
     7
370
    15
100
AcDbCircle
 10
25.5
 20
11.5
 30
0.0
 40
0.5000000000000071
100
AcDbArc
 50
0.0
 51
90.0
  0
ARC
  5
1EC
330
1AB
100
AcDbEntity
  8
0
  6
Continuous
 62
     7
370
    15
100
AcDbCircle
 10
25.5
 20
-11.5
 30
0.0
 40
0.5000000000000071
100
AcDbArc
 50
270.0
 51
0.0
  0
VIEWPORT
  5
377
330
1AB
100
AcDbEntity
  8
0
100
AcDbViewport
 10
0.0
 20
0.0
 30
0.0
 40
243.84
 41
204.216
 68
     1
 69
     1
 12
10.9413581274
 22
-0.7593179437
 13
0.0
 23
0.0
 14
10.0
 24
10.0
 15
10.0
 25
10.0
 16
0.0
 26
0.0
 36
1.0
 17
0.0
 27
0.0
 37
0.0
 42
50.0
 43
0.0
 44
0.0
 45
38.3913139752
 50
0.0
 51
0.0
 72
   100
 90
   557152
  1

281
     0
 71
     1
 74
     0
110
0.0
120
0.0
130
0.0
111
1.0
121
0.0
131
0.0
112
0.0
122
1.0
132
0.0
 79
     0
146
0.0
  0
ENDBLK
  5
1AE
330
1AB
100
AcDbEntity
  8
0
100
AcDbBlockEnd
  0
BLOCK
  5
1EF
330
1ED
100
AcDbEntity
  8
0
100
AcDbBlockBegin
  2
*Paper_Space6
 70
     0
 10
0.0
 20
0.0
 30
0.0
  3
*Paper_Space6
  1

  0
SPLINE
  5
201
330
1ED
100
AcDbEntity
  8
0
  6
Continuous
 62
     7
370
    15
100
AcDbSpline
210
0.0
220
0.0
230
1.0
 70
     8
 71
     3
 72
    56
 73
    52
 74
     0
 42
0.00000001
 43
0.00000001
 12
1.0
 22
0.0
 32
0.0
 13
1.0
 23
0.0
 33
0.0
 40
-0.0624999999999997
 40
-0.0624999999999997
 40
0.0
 40
0.0
 40
0.0625000000000002
 40
0.0625000000000002
 40
0.0937500000000003
 40
0.0937500000000003
 40
0.1250000000000004
 40
0.1250000000000004
 40
0.1562500000000004
 40
0.1562500000000004
 40
0.1875000000000005
 40
0.1875000000000005
 40
0.2187500000000005
 40
0.2187500000000005
 40
0.2500000000000006
 40
0.2500000000000006
 40
0.3125000000000007
 40
0.3125000000000007
 40
0.3437500000000008
 40
0.3437500000000008
 40
0.3750000000000008
 40
0.3750000000000008
 40
0.4062500000000009
 40
0.4062500000000009
 40
0.4375000000000009
 40
0.4375000000000009
 40
0.500000000000001
 40
0.500000000000001
 40
0.5625000000000012
 40
0.5625000000000012
 40
0.6250000000000013
 40
0.6250000000000013
 40
0.6562500000000012
 40
0.6562500000000012
 40
0.6875000000000011
 40
0.6875000000000011
 40
0.718750000000001
 40
0.718750000000001
 40
0.7500000000000009
 40
0.7500000000000009
 40
0.7812500000000008
 40
0.7812500000000008
 40
0.8125000000000007
 40
0.8125000000000007
 40
0.8437500000000006
 40
0.8437500000000006
 40
0.8750000000000004
 40
0.8750000000000004
 40
0.9375000000000003
 40
0.9375000000000003
 40
1.0
 40
1.0
 40
1.0625
 40
1.0625
 10
-0.2400983385289218
 20
15.8
 30
0.0
 10
0.240098338528924
 20
15.8
 30
0.0
 10
0.4762421184452454
 20
15.75379022907049
 30
0.0
 10
0.807309780025613
 20
15.61974294985222
 30
0.0
 10
0.9137682306084295
 20
15.56405207159344
 30
0.0
 10
1.111580377844664
 20
15.43487409050375
 30
0.0
 10
1.204321973241575
 20
15.36073352738842
 30
0.0
 10
1.375349507618816
 20
15.19372728068606
 30
0.0
 10
1.451355471069408
 20
15.10317820113788
 30
0.0
 10
1.584881570685237
 20
14.90828769357053
 30
0.0
 10
1.642880876249285
 20
14.80262228136862
 30
0.0
 10
1.735704977485328
 20
14.58391354041854
 30
0.0
 10
1.770832791569791
 20
14.47106231293635
 30
0.0
 10
1.818407047929239
 20
14.23830380097191
 30
0.0
 10
1.830544274503361
 20
14.1179190839562
 30
0.0
 10
1.83043663111597
 20
13.76255338657388
 30
0.0
 10
1.781412856016457
 20
13.52347705467307
 30
0.0
 10
1.64270546714069
 20
13.19711761264806
 30
0.0
 10
1.584980001357017
 20
13.09177162905447
 30
0.0
 10
1.450439575184872
 20
12.89556984383383
 30
0.0
 10
1.37436370198707
 20
12.8052891788277
 30
0.0
 10
1.204978942490182
 20
12.63992894912825
 30
0.0
 10
1.110792866545842
 20
12.56452101649835
 30
0.0
 10
0.9125766402037622
 20
12.43526131102347
 30
0.0
 10
0.8078531885221258
 20
12.38051175245471
 30
0.0
 10
0.4765386855202981
 20
12.24626070683563
 30
0.0
 10
0.235914947991395
 20
12.19984551308623
 30
0.0
 10
-0.2383467007080231
 20
12.20015528107356
 30
0.0
 10
-0.4774464110201404
 20
12.2467437332009
 30
0.0
 10
-0.9158392915371825
 20
12.42415370235145
 30
0.0
 10
-1.119519596125352
 20
12.55671545352922
 30
0.0
 10
-1.373479677488628
 20
12.80431928139653
 30
0.0
 10
-1.451203804396878
 20
12.8965957555741
 30
0.0
 10
-1.58507860338031
 20
13.09200456612579
 30
0.0
 10
-1.641940267457423
 20
13.19549840098728
 30
0.0
 10
-1.735113900859362
 20
13.41436237665348
 30
0.0
 10
-1.770931849074524
 20
13.52942144843339
 30
0.0
 10
-1.818309049199546
 20
13.76121761776781
 30
0.0
 10
-1.83046579789893
 20
13.87932695953115
 30
0.0
 10
-1.830550928720033
 20
14.1194178362206
 30
0.0
 10
-1.818502816209135
 20
14.23738446979889
 30
0.0
 10
-1.771274693430972
 20
14.46934598296168
 30
0.0
 10
-1.735468155241488
 20
14.58460024806847
 30
0.0
 10
-1.642525761912753
 20
14.80332945016161
 30
0.0
 10
-1.585736758255438
 20
14.90690716731078
 30
0.0
 10
-1.45177539243332
 20
15.10269636543105
 30
0.0
 10
-1.374179036514763
 20
15.19489440543913
 30
0.0
 10
-1.120577811863994
 20
15.44246022228274
 30
0.0
 10
-0.9168714236565837
 20
15.57525383222528
 30
0.0
 10
-0.4787561475121936
 20
15.75290008712151
 30
0.0
 10
-0.2400983385289218
 20
15.8
 30
0.0
 10
0.240098338528924
 20
15.8
 30
0.0
  0
SPLINE
  5
205
330
1ED
100
AcDbEntity
  8
0
  6
Continuous
 62
     7
370
    15
100
AcDbSpline
210
0.0
220
0.0
230
1.0
 70
     8
 71
     3
 72
    52
 73
    48
 74
     0
 42
0.00000001
 43
0.00000001
 12
1.0
 22
0.0
 32
0.0
 13
1.0
 23
0.0
 33
0.0
 40
-0.0625
 40
-0.0625
 40
0.0
 40
0.0
 40
0.0625
 40
0.0625
 40
0.1249999999999999
 40
0.1249999999999999
 40
0.1562499999999999
 40
0.1562499999999999
 40
0.1874999999999999
 40
0.1874999999999999
 40
0.2187499999999998
 40
0.2187499999999998
 40
0.2499999999999998
 40
0.2499999999999998
 40
0.2812499999999998
 40
0.2812499999999998
 40
0.3124999999999997
 40
0.3124999999999997
 40
0.3437499999999997
 40
0.3437499999999997
 40
0.3749999999999997
 40
0.3749999999999997
 40
0.4374999999999996
 40
0.4374999999999996
 40
0.4999999999999994
 40
0.4999999999999994
 40
0.5624999999999993
 40
0.5624999999999993
 40
0.5937499999999992
 40
0.5937499999999992
 40
0.6249999999999992
 40
0.6249999999999992
 40
0.6874999999999992
 40
0.6874999999999992
 40
0.7499999999999992
 40
0.7499999999999992
 40
0.7812499999999993
 40
0.7812499999999993
 40
0.8124999999999996
 40
0.8124999999999996
 40
0.8437499999999998
 40
0.8437499999999998
 40
0.875
 40
0.875
 40
0.9375
 40
0.9375
 40
1.0
 40
1.0
 40
1.0625
 40
1.0625
 10
0.2117508894873945
 20
15.6
 30
0.0
 10
-0.2117508894873945
 20
15.60000000000001
 30
0.0
 10
-0.4220760471141733
 20
15.55731943286505
 30
0.0
 10
-0.806749063841423
 20
15.39733602026057
 30
0.0
 10
-0.984821973765178
 20
15.27807457655498
 30
0.0
 10
-1.205539355830281
 20
15.05712444743088
 30
0.0
 10
-1.272896616170097
 20
14.97501409363503
 30
0.0
 10
-1.388893923433363
 20
14.80118159470502
 30
0.0
 10
-1.437977782253759
 20
14.70936349918931
 30
0.0
 10
-1.518202073084966
 20
14.51578982300742
 30
0.0
 10
-1.549019752704077
 20
14.41403986345363
 30
0.0
 10
-1.589678529015198
 20
14.20931645225393
 30
0.0
 10
-1.600037036477082
 20
14.10526161433507
 30
0.0
 10
-1.599962766495901
 20
13.89361545517526
 30
0.0
 10
-1.589510316264234
 20
13.78943752878236
 30
0.0
 10
-1.548719846227675
 20
13.58485371530479
 30
0.0
 10
-1.517893238408199
 20
13.4832825042585
 30
0.0
 10
-1.437465517401741
 20
13.28958481161251
 30
0.0
 10
-1.388315089482815
 20
13.19783564430835
 30
0.0
 10
-1.272380049435982
 20
13.02432820527333
 30
0.0
 10
-1.204925583608637
 20
12.94216725433718
 30
0.0
 10
-0.9838779749741468
 20
12.721169577432
 30
0.0
 10
-0.8058475363099828
 20
12.60213423963416
 30
0.0
 10
-0.4209451958346785
 20
12.44236587162333
 30
0.0
 10
-0.2101888425143232
 20
12.40015172211533
 30
0.0
 10
0.2078725829986607
 20
12.39984911617512
 30
0.0
 10
0.4201245195713182
 20
12.4419284475518
 30
0.0
 10
0.7109772393510913
 20
12.56280333330888
 30
0.0
 10
0.8027264976679924
 20
12.61201460535296
 30
0.0
 10
0.9760865137457218
 20
12.72794323888611
 30
0.0
 10
1.058243731329241
 20
12.79542965040354
 30
0.0
 10
1.27929721549818
 20
13.01670110214816
 30
0.0
 10
1.398184803099623
 20
13.19469860627597
 30
0.0
 10
1.557817702261217
 20
13.57972023023446
 30
0.0
 10
1.599933039109447
 20
13.79056213160962
 30
0.0
 10
1.600033357481856
 20
14.10395067355634
 30
0.0
 10
1.589605599162574
 20
14.21006309177239
 30
0.0
 10
1.548649653312969
 20
14.4155198126535
 30
0.0
 10
1.518383839713095
 20
14.51523731388202
 30
0.0
 10
1.438304601995653
 20
14.70868811630813
 30
0.0
 10
1.388181010271167
 20
14.80236713798915
 30
0.0
 10
1.272494010166205
 20
14.97549912121615
 30
0.0
 10
1.206537216086105
 20
15.05609817545541
 30
0.0
 10
0.9834486050111807
 20
15.27950399815933
 30
0.0
 10
0.8075685369302072
 20
15.397107686463
 30
0.0
 10
0.4197920318531113
 20
15.55815643611488
 30
0.0
 10
0.2117508894873945
 20
15.6
 30
0.0
 10
-0.2117508894873945
 20
15.60000000000001
 30
0.0
  0
LINE
  5
20C
330
1ED
100
AcDbEntity
  8
0
  6
Continuous
 62
     7
370
    15
100
AcDbLine
 10
12.0
 20
0.0
 30
0.0
 11
12.0
 21
25.5
 31
0.0
  0
LINE
  5
20D
330
1ED
100
AcDbEntity
  8
0
  6
Continuous
 62
     7
370
    15
100
AcDbLine
 10
-12.0
 20
25.5
 30
0.0
 11
-12.0
 21
0.0
 31
0.0
  0
LINE
  5
20E
330
1ED
100
AcDbEntity
  8
0
  6
Continuous
 62
     7
370
    15
100
AcDbLine
 10
-8.5
 20
6.0
 30
0.0
 11
-8.5
 21
0.0
 31
0.0
  0
LINE
  5
20F
330
1ED
100
AcDbEntity
  8
0
  6
Continuous
 62
     7
370
    15
100
AcDbLine
 10
-9.8571428571
 20
6.0
 30
0.0
 11
9.8571428571
 21
6.0
 31
0.0
  0
LINE
  5
210
330
1ED
100
AcDbEntity
  8
0
  6
Continuous
 62
     7
370
    15
100
AcDbLine
 10
8.5
 20
0.0
 30
0.0
 11
8.5
 21
6.0
 31
0.0
  0
LINE
  5
211
330
1ED
100
AcDbEntity
  8
0
  6
Continuous
 62
     7
370
    15
100
AcDbLine
 10
-9.5
 20
0.0
 30
0.0
 11
-9.5
 21
6.0
 31
0.0
  0
LINE
  5
212
330
1ED
100
AcDbEntity
  8
0
  6
Continuous
 62
     7
370
    15
100
AcDbLine
 10
9.5
 20
6.0
 30
0.0
 11
9.5
 21
0.0
 31
0.0
  0
LINE
  5
213
330
1ED
100
AcDbEntity
  8
0
  6
Continuous
 62
     7
370
    15
100
AcDbLine
 10
9.8571428571
 20
6.0
 30
0.0
 11
9.8571428571
 21
0.0
 31
0.0
  0
LINE
  5
214
330
1ED
100
AcDbEntity
  8
0
  6
Continuous
 62
     7
370
    15
100
AcDbLine
 10
-9.8571428571
 20
0.0
 30
0.0
 11
-9.8571428571
 21
6.0
 31
0.0
  0
LINE
  5
215
330
1ED
100
AcDbEntity
  8
0
  6
Continuous
 62
     7
370
    15
100
AcDbLine
 10
-12.0
 20
0.0
 30
0.0
 11
12.0
 21
0.0
 31
0.0
  0
LINE
  5
216
330
1ED
100
AcDbEntity
  8
0
  6
Continuous
 62
     7
370
    15
100
AcDbLine
 10
-11.4999999996
 20
26.0
 30
0.0
 11
11.5
 21
26.0
 31
0.0
  0
LINE
  5
217
330
1ED
100
AcDbEntity
  8
0
  6
Continuous
 62
     7
370
    15
100
AcDbLine
 10
-0.3261789422
 20
15.5621045532
 30
0.0
 11
-0.4479803636
 21
15.530976851
 31
0.0
  0
LINE
  5
218
330
1ED
100
AcDbEntity
  8
0
  6
Continuous
 62
     8
370
    15
100
AcDbLine
 10
12.0
 20
25.5
 30
0.0
 11
-12.0
 21
25.5
 31
0.0
  0
ARC
  5
219
330
1ED
100
AcDbEntity
  8
0
  6
Continuous
 62
     7
370
    15
100
AcDbCircle
 10
-11.5
 20
25.5
 30
0.0
 40
0.5000000000000071
100
AcDbArc
 50
90.0
 51
180.0
  0
ARC
  5
21A
330
1ED
100
AcDbEntity
  8
0
  6
Continuous
 62
     7
370
    15
100
AcDbCircle
 10
11.5
 20
25.5
 30
0.0
 40
0.5000000000000071
100
AcDbArc
 50
0.0
 51
90.0
  0
VIEWPORT
  5
378
330
1ED
100
AcDbEntity
  8
0
100
AcDbViewport
 10
0.0
 20
0.0
 30
0.0
 40
243.84
 41
204.216
 68
     1
 69
     1
 12
10.9413581274
 22
-0.7593179437
 13
0.0
 23
0.0
 14
10.0
 24
10.0
 15
10.0
 25
10.0
 16
0.0
 26
0.0
 36
1.0
 17
0.0
 27
0.0
 37
0.0
 42
50.0
 43
0.0
 44
0.0
 45
38.3913139752
 50
0.0
 51
0.0
 72
   100
 90
   557152
  1

281
     0
 71
     1
 74
     0
110
0.0
120
0.0
130
0.0
111
1.0
121
0.0
131
0.0
112
0.0
122
1.0
132
0.0
 79
     0
146
0.0
  0
ENDBLK
  5
1F0
330
1ED
100
AcDbEntity
  8
0
100
AcDbBlockEnd
  0
BLOCK
  5
21D
330
21B
100
AcDbEntity
  8
0
100
AcDbBlockBegin
  2
*Paper_Space7
 70
     0
 10
0.0
 20
0.0
 30
0.0
  3
*Paper_Space7
  1

  0
SPLINE
  5
21F
330
21B
100
AcDbEntity
  8
0
  6
Continuous
 62
     7
370
    15
100
AcDbSpline
210
0.0
220
0.0
230
1.0
 70
     8
 71
     3
 72
    70
 73
    66
 74
     0
 42
0.00000001
 43
0.00000001
 12
1.0
 22
0.0
 32
0.0
 13
1.0
 23
0.0
 33
0.0
 40
0.0
 40
0.0
 40
0.0
 40
0.0
 40
0.0094854847762634
 40
0.0249788561637821
 40
0.0404827245214858
 40
0.0560206747863132
 40
0.0716127802949544
 40
0.0872739423495287
 40
0.1030129511787006
 40
0.1188323609253013
 40
0.1347291336753269
 40
0.1506958670044029
 40
0.1667223225707869
 40
0.1827969553814
 40
0.1989082059532253
 40
0.2150454270441369
 40
0.2311994265162737
 40
0.2473626847308535
 40
0.263529087259248
 40
0.2796933711152242
 40
0.2958528326146784
 40
0.3120057333270674
 40
0.3281510878067694
 40
0.3442884829183182
 40
0.3604179310293035
 40
0.3765397546241693
 40
0.3926544979611432
 40
0.4087628609237234
 40
0.4248656505002052
 40
0.4409637459277695
 40
0.4570580742195508
 40
0.4731495934321583
 40
0.4892392815743865
 40
0.505328129489776
 40
0.5214171363679896
 40
0.537507038736699
 40
0.5535987782579203
 40
0.5696933639425228
 40
0.585791802022433
 40
0.6018950899819461
 40
0.6180042071471583
 40
0.6341201002527245
 40
0.6502436620106916
 40
0.6663757001780928
 40
0.6825168939740368
 40
0.6986677339617714
 40
0.7148284407672593
 40
0.730998857428224
 40
0.7471783100902739
 40
0.7633654327700079
 40
0.7795579549118495
 40
0.7957517881508522
 40
0.8119408271676068
 40
0.8281180138418058
 40
0.8442744570349536
 40
0.8603995083941092
 40
0.8764811444516903
 40
0.8925067506035409
 40
0.9084643423093303
 40
0.924344145549605
 40
0.9401403167265632
 40
0.9558524672153642
 40
0.9714866321138127
 40
0.9870554144442042
 40
1.0
 40
1.0
 40
1.0
 40
1.0
 10
-24.06536331563776
 20
-0.0409335941411494
 30
0.0
 10
-24.12868352719775
 20
-0.0779512393385712
 30
0.0
 10
-24.29542950741117
 20
-0.1754326498008118
 30
0.0
 10
-24.54827480796677
 20
-0.3620262861884181
 30
0.0
 10
-24.82461965688179
 20
-0.5968839440249739
 30
0.0
 10
-25.08324451729901
 20
-0.8570118738715424
 30
0.0
 10
-25.32444418091859
 20
-1.140515925998177
 30
0.0
 10
-25.54744086870507
 20
-1.447258786231217
 30
0.0
 10
-25.75171826877349
 20
-1.77655368079979
 30
0.0
 10
-25.93667706996735
 20
-2.127744539602082
 30
0.0
 10
-26.10175451980035
 20
-2.500022314918859
 30
0.0
 10
-26.24642416116433
 20
-2.892465240164046
 30
0.0
 10
-26.37022606837421
 20
-3.3040364751595
 30
0.0
 10
-26.47278152001677
 20
-3.733606707417545
 30
0.0
 10
-26.55380188332137
 20
-4.179976866998697
 30
0.0
 10
-26.6130893091308
 20
-4.641901154382588
 30
0.0
 10
-26.6505321367699
 20
-5.118105652195498
 30
0.0
 10
-26.66609718463947
 20
-5.607299030059323
 30
0.0
 10
-26.65982198861618
 20
-6.108173524920186
 30
0.0
 10
-26.63180839471544
 20
-6.619421388065054
 30
0.0
 10
-26.58221467912871
 20
-7.139738861589279
 30
0.0
 10
-26.51124785725052
 20
-7.667833097906843
 30
0.0
 10
-26.41916071622861
 20
-8.202407203318748
 30
0.0
 10
-26.30624972398991
 20
-8.742159584271295
 30
0.0
 10
-26.17285367610889
 20
-9.285783801352162
 30
0.0
 10
-26.01935280611081
 20
-9.831969017044406
 30
0.0
 10
-25.84616814263921
 20
-10.37940102654601
 30
0.0
 10
-25.65376095343368
 20
-10.92676380903079
 30
0.0
 10
-25.44263216424599
 20
-11.47274151513322
 30
0.0
 10
-25.21332167867306
 20
-12.0160208017512
 30
0.0
 10
-24.96640755308974
 20
-12.55529342964325
 30
0.0
 10
-24.70250500119081
 20
-13.08925904748676
 30
0.0
 10
-24.42226521681503
 20
-13.61662809542774
 30
0.0
 10
-24.12637401414931
 20
-14.13612476907949
 30
0.0
 10
-23.81555201588854
 20
-14.64648716064952
 30
0.0
 10
-23.49055202426894
 20
-15.14647260511874
 30
0.0
 10
-23.15215673220631
 20
-15.63486140962132
 30
0.0
 10
-22.80117461029098
 20
-16.11046223195434
 30
0.0
 10
-22.43843899032787
 20
-16.57211246872996
 30
0.0
 10
-22.06480632551049
 20
-17.01867998232769
 30
0.0
 10
-21.68115396294125
 20
-17.44906529664121
 30
0.0
 10
-21.28837792515112
 20
-17.86220353980315
 30
0.0
 10
-20.88739076521212
 20
-18.25706610191163
 30
0.0
 10
-20.47911957859509
 20
-18.63266198159966
 30
0.0
 10
-20.06450427816497
 20
-18.98803880626598
 30
0.0
 10
-19.64449626634079
 20
-19.32228353031606
 30
0.0
 10
-19.2200576688791
 20
-19.634522848399
 30
0.0
 10
-18.79216132393517
 20
-19.92392341221164
 30
0.0
 10
-18.36179173924803
 20
-20.1896920168938
 30
0.0
 10
-17.92994722550457
 20
-20.43107603219489
 30
0.0
 10
-17.4976493073047
 20
-20.64736152093193
 30
0.0
 10
-17.06595288307929
 20
-20.8378751546112
 30
0.0
 10
-16.63594553648903
 20
-21.00199483757929
 30
0.0
 10
-16.20874750465295
 20
-21.13916022614921
 30
0.0
 10
-15.78551092481993
 20
-21.24888449305386
 30
0.0
 10
-15.36742675934064
 20
-21.3307667960682
 30
0.0
 10
-14.95571947742342
 20
-21.38450963164859
 30
0.0
 10
-14.55163229808097
 20
-21.40993925724777
 30
0.0
 10
-14.15640963407152
 20
-21.40701245164194
 30
0.0
 10
-13.7712512038017
 20
-21.3758533520981
 30
0.0
 10
-13.39734243169618
 20
-21.31663777734349
 30
0.0
 10
-13.03559520290951
 20
-21.22998530548746
 30
0.0
 10
-12.68748318841658
 20
-21.11540934021055
 30
0.0
 10
-12.37038213428603
 20
-20.98455298170117
 30
0.0
 10
-12.17654121095588
 20
-20.8793974102542
 30
0.0
 10
-12.0885407184754
 20
-20.83165856380515
 30
0.0
  0
SPLINE
  5
222
330
21B
100
AcDbEntity
  8
0
  6
Continuous
 62
     7
370
    15
100
AcDbSpline
210
0.0
220
0.0
230
1.0
 70
     8
 71
     3
 72
    24
 73
    20
 74
     0
 42
0.00000001
 43
0.00000001
 12
1.0
 22
0.0
 32
0.0
 13
1.0
 23
0.0
 33
0.0
 40
0.0
 40
0.0
 40
0.0
 40
0.0
 40
0.0480904917157572
 40
0.1172758712066031
 40
0.1847130868111614
 40
0.2435602818316391
 40
0.3063207478305994
 40
0.3685232666359707
 40
0.4299230547288783
 40
0.4906181192708438
 40
0.5520162116196883
 40
0.6133767879756656
 40
0.6751514625727539
 40
0.737163279976262
 40
0.7993257106261271
 40
0.8618514422140215
 40
0.9241410180622173
 40
0.9824197675340938
 40
1.0
 40
1.0
 40
1.0
 40
1.0
 10
-8.302676610270678
 20
3.863624476325012
 30
0.0
 10
-8.30280405594134
 20
3.834410950762937
 30
0.0
 10
-8.303114851309104
 20
3.763169390548522
 30
0.0
 10
-8.338043155325288
 20
3.651396619468549
 30
0.0
 10
-8.400093709995412
 20
3.533893286871771
 30
0.0
 10
-8.48797482232141
 20
3.425570653442848
 30
0.0
 10
-8.599382813558204
 20
3.326091265202946
 30
0.0
 10
-8.736552056177066
 20
3.235974621342846
 30
0.0
 10
-8.895338091155082
 20
3.160100262627264
 30
0.0
 10
-9.071854163819026
 20
3.09903950732956
 30
0.0
 10
-9.263705817659625
 20
3.054530540858222
 30
0.0
 10
-9.468507853749884
 20
3.026929179942019
 30
0.0
 10
-9.681583968380474
 20
3.016168573306702
 30
0.0
 10
-9.89956771763841
 20
3.022839555510205
 30
0.0
 10
-10.11828465923551
 20
3.045541598691174
 30
0.0
 10
-10.33341644354869
 20
3.083588128546527
 30
0.0
 10
-10.53603460244521
 20
3.134708765723937
 30
0.0
 10
-10.68119230659221
 20
3.18169965369452
 30
0.0
 10
-10.75647912460796
 20
3.210452451790231
 30
0.0
 10
-10.7739267587381
 20
3.217115879925641
 30
0.0
  0
SPLINE
  5
223
330
21B
100
AcDbEntity
  8
0
  6
Continuous
 62
     7
370
    15
100
AcDbSpline
210
0.0
220
0.0
230
1.0
 70
     8
 71
     3
 72
    16
 73
    12
 74
     0
 42
0.00000001
 43
0.00000001
 12
1.0
 22
0.0
 32
0.0
 13
1.0
 23
0.0
 33
0.0
 40
0.0
 40
0.0
 40
0.0
 40
0.0
 40
0.0663303884464166
 40
0.194147395698116
 40
0.3214369396575616
 40
0.4450375748884751
 40
0.5693846899088216
 40
0.6927207946659314
 40
0.8159610184396575
 40
0.9488381471326636
 40
1.0
 40
1.0
 40
1.0
 40
1.0
 10
-10.7739267587381
 20
3.217115879925641
 30
0.0
 10
-10.80486384512042
 20
3.229620429229757
 30
0.0
 10
-10.89541592678761
 20
3.266220933744114
 30
0.0
 10
-11.03240759691425
 20
3.333696077044085
 30
0.0
 10
-11.17423808327166
 20
3.419171233618729
 30
0.0
 10
-11.29053753473832
 20
3.507684600447106
 30
0.0
 10
-11.38126691102778
 20
3.596509102962475
 30
0.0
 10
-11.4452869696733
 20
3.681565848234213
 30
0.0
 10
-11.48342914521923
 20
3.762539853923054
 30
0.0
 10
-11.50036252413157
 20
3.821719070526164
 30
0.0
 10
-11.49754499044149
 20
3.855694949044688
 30
0.0
 10
-11.49676173114024
 20
3.865140061613046
 30
0.0
  0
SPLINE
  5
225
330
21B
100
AcDbEntity
  8
0
  6
Continuous
 62
     7
370
    15
100
AcDbSpline
210
0.0
220
0.0
230
1.0
 70
     8
 71
     3
 72
    12
 73
     8
 74
     0
 42
0.00000001
 43
0.00000001
 12
1.0
 22
0.0
 32
0.0
 13
1.0
 23
0.0
 33
0.0
 40
0.0
 40
0.0
 40
0.0
 40
0.0
 40
0.0472303330746663
 40
0.3145982992281506
 40
0.5781479556246214
 40
0.8399764756624003
 40
1.0
 40
1.0
 40
1.0
 40
1.0
 10
-11.33164979135941
 20
-14.88610150517735
 30
0.0
 10
-11.32680171599193
 20
-14.87965836165132
 30
0.0
 10
-11.29450898871586
 20
-14.83674098497806
 30
0.0
 10
-11.20781802377692
 20
-14.76355046400872
 30
0.0
 10
-11.07343575534069
 20
-14.67224208209481
 30
0.0
 10
-10.93696457574087
 20
-14.60321323197236
 30
0.0
 10
-10.84062417571233
 20
-14.57097863645428
 30
0.0
 10
-10.80407882633164
 20
-14.55875090483801
 30
0.0
  0
LWPOLYLINE
  5
227
330
21B
100
AcDbEntity
  8
0
  6
Continuous
 62
     7
370
    15
100
AcDbPolyline
 90
      118
 70
   128
 43
0.0
 10
-10.2530483272
 20
-15.3076520967
 10
-10.2647712656
 20
-14.7968492622
 10
-10.2999062806
 20
-14.2739841879
 10
-10.3583520689
 20
-13.7405644292
 10
-10.439940116
 20
-13.1981279733
 10
-10.5444351826
 20
-12.648238805
 10
-10.6715359824
 20
-12.092482397
 10
-10.8208760507
 20
-11.532461139
 10
-10.9920248015
 20
-10.9697897171
 10
-11.1844887688
 20
-10.4060904589
 10
-11.3977130289
 20
-9.8429886551
 10
-11.6310828013
 20
-9.2821078741
 10
-11.8839252204
 20
-8.7250652803
 10
-12.155511276
 20
-8.1734669718
 10
-12.4450579154
 20
-7.6289033492
 10
-12.7517303005
 20
-7.0929445304
 10
-13.0746442154
 20
-6.5671358235
 10
-13.4128686159
 20
-6.0529932711
 10
-13.7654283133
 20
-5.5519992792
 10
-14.1313067869
 20
-5.0655983433
 10
-14.5094491141
 20
-4.5951928831
 10
-14.8987650129
 20
-4.1421391994
 10
-15.2981319847
 20
-3.7077435632
 10
-15.7063985511
 20
-3.2932584495
 10
-16.122387574
 20
-2.8998789264
 10
-16.5448996492
 20
-2.5287392087
 10
-16.9727165652
 20
-2.1809093883
 10
-17.404604815
 20
-1.8573923488
 10
-17.8393191529
 20
-1.5591208733
 10
-18.275606185
 20
-1.2869549559
 10
-18.7122079828
 20
-1.0416793213
 10
-19.1478657104
 20
-0.8240011626
 10
-19.5813232537
 20
-0.6345481024
 10
-20.0113308424
 20
-0.4738663829
 10
-20.4366486533
 20
-0.342419291
 10
-20.8560503851
 20
-0.2405858228
 10
-21.268326794
 20
-0.1686595904
 10
-21.6722891803
 20
-0.126847976
 10
-22.066772816
 20
-0.115271533
 10
-22.4506403027
 20
-0.1339636395
 10
-22.8227848509
 20
-0.1828704013
 10
-23.1821334716
 20
-0.2618508074
 10
-23.5276500697
 20
-0.3706771371
 10
-23.8583384314
 20
-0.5090356156
 10
-24.1732450966
 20
-0.6765273198
 10
-24.4714621078
 20
-0.8726693278
 10
-24.7521296282
 20
-1.0968961112
 10
-25.0144384206
 20
-1.3485611664
 10
-25.257632181
 20
-1.6269388776
 10
-25.4810097186
 20
-1.9312266101
 10
-25.6839269784
 20
-2.2605470234
 10
-25.8657988972
 20
-2.6139506015
 10
-26.0261010913
 20
-2.9904183905
 10
-26.1643713679
 20
-3.3888649362
 10
-26.2802110581
 20
-3.8081414142
 10
-26.373286166
 20
-4.2470389417
 10
-26.4433283319
 20
-4.7042920636
 10
-26.4901356063
 20
-5.1785824009
 10
-26.5135730316
 20
-5.6685424515
 10
-26.5135730316
 20
-6.172759534
 10
-26.4901356063
 20
-6.6897798599
 10
-26.4433283319
 20
-7.2181127258
 10
-26.373286166
 20
-7.7562348112
 10
-26.2802110581
 20
-8.3025945709
 10
-26.1643713679
 20
-8.8556167082
 10
-26.0261010913
 20
-9.4137067173
 10
-25.8657988972
 20
-9.97525548
 10
-25.6839269784
 20
-10.538643906
 10
-25.4810097186
 20
-11.1022476005
 10
-25.257632181
 20
-11.6644415482
 10
-25.0144384206
 20
-12.2236047985
 10
-24.7521296282
 20
-12.7781251389
 10
-24.4714621078
 20
-13.3264037438
 10
-24.1732450966
 20
-13.8668597839
 10
-23.8583384314
 20
-14.3979349847
 10
-23.5276500697
 20
-14.9180981187
 10
-23.1821334716
 20
-15.4258494212
 10
-22.8227848509
 20
-15.9197249135
 10
-22.4506403027
 20
-16.3983006249
 10
-22.066772816
 20
-16.8601966976
 10
-21.6722891803
 20
-17.3040813657
 10
-21.268326794
 20
-17.7286747948
 10
-20.8560503851
 20
-18.1327527721
 10
-20.4366486533
 20
-18.5151502363
 10
-20.0113308424
 20
-18.8747646363
 10
-19.5813232537
 20
-19.2105591109
 10
-19.1478657104
 20
-19.5215654776
 10
-18.7122079828
 20
-19.8068870246
 10
-18.275606185
 20
-20.0657010959
 10
-17.8393191529
 20
-20.2972614636
 10
-17.404604815
 20
-20.5009004793
 10
-16.9727165652
 20
-20.6760309988
 10
-16.5448996492
 20
-20.8221480757
 10
-16.122387574
 20
-20.9388304165
 10
-15.7063985511
 20
-21.0257415959
 10
-15.2981319847
 20
-21.0826310264
 10
-14.8987650129
 20
-21.109334681
 10
-14.5094491141
 20
-21.1057755663
 10
-14.1313067869
 20
-21.071963944
 10
-13.7654283133
 20
-21.0079973018
 10
-13.4128686159
 20
-20.9140600721
 10
-13.0746442154
 20
-20.7904231004
 10
-12.7517303005
 20
-20.6374428638
 10
-12.4450579154
 20
-20.4555604442
 10
-12.155511276
 20
-20.2453002555
 10
-11.8839252204
 20
-20.0072685323
 10
-11.6310828013
 20
-19.7421515818
 10
-11.3977130289
 20
-19.4507138047
 10
-11.1844887688
 20
-19.1337954916
 10
-10.9920248015
 20
-18.7923103999
 10
-10.8208760507
 20
-18.4272431197
 10
-10.6715359824
 20
-18.0396462344
 10
-10.5444351826
 20
-17.6306372861
 10
-10.439940116
 20
-17.2013955536
 10
-10.3583520689
 20
-16.7531586519
 10
-10.2999062806
 20
-16.287218964
 10
-10.2647712656
 20
-15.8049199145
 10
-10.2530483272
 20
-15.3076520967
  0
LWPOLYLINE
  5
228
330
21B
100
AcDbEntity
  8
0
  6
Continuous
 62
     7
370
    15
100
AcDbPolyline
 90
        3
 70
   128
 43
0.0
 10
-12.0317105244
 20
-20.8017897743
 10
-12.0709532191
 20
-20.8241497036
 10
-12.0832437183
 20
-20.8310325988
  0
LWPOLYLINE
  5
22A
330
21B
100
AcDbEntity
  8
0
  6
Continuous
 62
     7
370
    15
100
AcDbPolyline
 90
       34
 70
   128
 43
0.0
 10
2.7274118703
 20
-0.8847595485
 10
2.458399136
 20
-0.3066622325
 10
2.1701746197
 20
0.2652923896
 10
1.8635646569
 20
0.8294645325
 10
1.5394482937
 20
1.384236723
 10
1.198754767
 20
1.9280184373
 10
0.8424608401
 20
2.4592506614
 10
0.4715880024
 20
2.9764103604
 10
0.0871995408
 20
3.478014845
 10
-0.3096025086
 20
3.9626260225
 10
-0.7176805203
 20
4.4288545201
 10
-1.1358645405
 20
4.8753636673
 10
-1.562955642
 20
5.3008733292
 10
-1.9977293609
 20
5.7041635758
 10
-2.4389392073
 20
6.08407818
 10
-2.8853202392
 20
6.4395279321
 10
-3.3355926886
 20
6.7694937631
 10
-3.7884656313
 20
7.0730296658
 10
-4.2426406871
 20
7.3492654072
 10
-4.6968157429
 20
7.5974090235
 10
-5.1496886856
 20
7.8167490907
 10
-5.5999611351
 20
8.0066567641
 10
-6.0463421669
 20
8.1665875811
 10
-6.4875520133
 20
8.2960830225
 10
-6.9223257322
 20
8.3947718268
 10
-7.3494168337
 20
8.4623710546
 10
-7.767600854
 20
8.4986868999
 10
-8.1756788656
 20
8.5036152458
 10
-8.5724809151
 20
8.4771419627
 10
-8.9568693766
 20
8.4193429492
 10
-9.3277422144
 20
8.3303839142
 10
-9.6840361413
 20
8.2105199019
 10
-10.0247296679
 20
8.0600945606
 10
-10.2421530829
 20
7.9433620131
  0
LWPOLYLINE
  5
22C
330
21B
100
AcDbEntity
  8
0
  6
Continuous
 62
     7
370
    15
100
AcDbPolyline
 90
       24
 70
   128
 43
0.0
 10
6.9700525574
 20
-9.6119161749
 10
7.2156106297
 20
-9.3213373861
 10
7.4410782691
 20
-9.004805187
 10
7.6458277058
 20
-8.6632008985
 10
7.8292888557
 20
-8.2974756499
 10
7.9909509077
 20
-7.9086477304
 10
8.130363746
 20
-7.4977997539
 10
8.2471392032
 20
-7.0660756451
 10
8.3409521413
 20
-6.6146774537
 10
8.4115413569
 20
-6.1448620084
 10
8.4587103082
 20
-5.6579374168
 10
8.4823276628
 20
-5.1552594236
 10
8.4823276628
 20
-4.6382276357
 10
8.4587103082
 20
-4.1082816253
 10
8.4115413569
 20
-3.5668969216
 10
8.3409521413
 20
-3.0155809028
 10
8.2471392032
 20
-2.4558685987
 10
8.130363746
 20
-1.8893184168
 10
7.9909509077
 20
-1.3175078035
 10
7.8292888557
 20
-0.7420288517
 10
7.6458277058
 20
-0.1644838681
 10
7.4410782691
 20
0.4135190881
 10
7.2156106297
 20
0.9903706826
 10
6.9700525574
 20
1.5644647869
  0
SPLINE
  5
22F
330
21B
100
AcDbEntity
  8
0
  6
Continuous
 62
     7
370
    15
100
AcDbSpline
210
0.0
220
0.0
230
1.0
 70
     8
 71
     3
 72
    56
 73
    52
 74
     0
 42
0.00000001
 43
0.00000001
 12
1.0
 22
0.0
 32
0.0
 13
1.0
 23
0.0
 33
0.0
 40
-0.0624999999999997
 40
-0.0624999999999997
 40
0.0
 40
0.0
 40
0.0625000000000002
 40
0.0625000000000002
 40
0.0937500000000003
 40
0.0937500000000003
 40
0.1250000000000004
 40
0.1250000000000004
 40
0.1562500000000004
 40
0.1562500000000004
 40
0.1875000000000005
 40
0.1875000000000005
 40
0.2187500000000005
 40
0.2187500000000005
 40
0.2500000000000006
 40
0.2500000000000006
 40
0.3125000000000007
 40
0.3125000000000007
 40
0.3437500000000008
 40
0.3437500000000008
 40
0.3750000000000008
 40
0.3750000000000008
 40
0.4062500000000009
 40
0.4062500000000009
 40
0.4375000000000009
 40
0.4375000000000009
 40
0.500000000000001
 40
0.500000000000001
 40
0.5625000000000012
 40
0.5625000000000012
 40
0.6250000000000013
 40
0.6250000000000013
 40
0.6562500000000012
 40
0.6562500000000012
 40
0.6875000000000011
 40
0.6875000000000011
 40
0.718750000000001
 40
0.718750000000001
 40
0.7500000000000009
 40
0.7500000000000009
 40
0.7812500000000008
 40
0.7812500000000008
 40
0.8125000000000007
 40
0.8125000000000007
 40
0.8437500000000006
 40
0.8437500000000006
 40
0.8750000000000004
 40
0.8750000000000004
 40
0.9375000000000003
 40
0.9375000000000003
 40
1.0
 40
1.0
 40
1.0625
 40
1.0625
 10
-11.00251197942205
 20
3.250856543624526
 30
0.0
 10
-11.3420623060729
 20
3.446874774834692
 30
0.0
 10
-11.47636593180542
 20
3.556077207330694
 30
0.0
 10
-11.61568038020562
 20
3.730211820768801
 30
0.0
 10
-11.65157847486033
 20
3.790071462403309
 30
0.0
 10
-11.70011015916364
 20
3.909870623095403
 30
0.0
 10
-11.71326307522701
 20
3.970567228423759
 30
0.0
 10
-11.71610655501101
 20
4.093455952588308
 30
0.0
 10
-11.70582301899883
 20
4.153985391700998
 30
0.0
 10
-11.66243183001281
 20
4.274141350840994
 30
0.0
 10
-11.62872680277642
 20
4.334442250430359
 30
0.0
 10
-11.53971292038739
 20
4.450833947261036
 30
0.0
 10
-11.4847541677169
 20
4.506947680258265
 30
0.0
 10
-11.35380912480962
 20
4.615505043752314
 30
0.0
 10
-11.27726659027195
 20
4.668056598646811
 30
0.0
 10
-11.02590898048265
 20
4.81308794369722
 30
0.0
 10
-10.82219144116215
 20
4.897061959949829
 30
0.0
 10
-10.49333953132727
 20
4.989763386595013
 30
0.0
 10
-10.37803060365469
 20
5.015682416442048
 30
0.0
 10
-10.14416054315422
 20
5.054859660842187
 30
0.0
 10
-10.0265287068955
 20
5.068111651790971
 30
0.0
 10
-9.789828255066553
 20
5.081419908812871
 30
0.0
 10
-9.669907181555098
 20
5.081300095723678
 30
0.0
 10
-9.438346729491943
 20
5.066845753500127
 30
0.0
 10
-9.325582282527654
 20
5.052671650640737
 30
0.0
 10
-8.99637772601098
 20
4.987978914671143
 30
0.0
 10
-8.793410551239552
 20
4.91478432989206
 30
0.0
 10
-8.458275962431914
 20
4.721023115032969
 30
0.0
 10
-8.322149946314708
 20
4.598306410007625
 30
0.0
 10
-8.137607159913655
 20
4.326116895897441
 30
0.0
 10
-8.08731874852898
 20
4.174051574246088
 30
0.0
 10
-8.082824198579043
 20
3.946909713768656
 30
0.0
 10
-8.093114262015362
 20
3.869900726883762
 30
0.0
 10
-8.136625378868889
 20
3.721544265722363
 30
0.0
 10
-8.169599303051971
 20
3.649706109381217
 30
0.0
 10
-8.25847579639669
 20
3.511518240064996
 30
0.0
 10
-8.314507732218162
 20
3.445554375853111
 30
0.0
 10
-8.444911635925562
 20
3.325743400058475
 30
0.0
 10
-8.519831432965384
 20
3.271021601824268
 30
0.0
 10
-8.689541123392626
 20
3.172970052215946
 30
0.0
 10
-8.781475432006543
 20
3.131266683753738
 30
0.0
 10
-8.97889231681739
 20
3.061691518965447
 30
0.0
 10
-9.085708435199672
 20
3.033635136274618
 30
0.0
 10
-9.306093533825718
 20
2.993077529045735
 30
0.0
 10
-9.41948992958463
 20
2.9803535776487
 30
0.0
 10
-9.652658789448381
 20
2.969071519068892
 30
0.0
 10
-9.772721558215578
 20
2.970715264747745
 30
0.0
 10
-10.12710017176345
 20
2.995563107717543
 30
0.0
 10
-10.36504160232454
 20
3.039337123510474
 30
0.0
 10
-10.80045075651718
 20
3.166499831035577
 30
0.0
 10
-11.00251197942205
 20
3.250856543624526
 30
0.0
 10
-11.3420623060729
 20
3.446874774834692
 30
0.0
  0
LWPOLYLINE
  5
230
330
21B
100
AcDbEntity
  8
0
  6
Continuous
 62
     7
370
    15
100
AcDbPolyline
 90
      114
 70
   128
 43
0.0
 10
-10.7833784131
 20
-15.0014990547
 10
-10.7951261557
 20
-14.5068923154
 10
-10.8303330721
 20
-14.0002507221
 10
-10.8888903395
 20
-13.4831402752
 10
-10.9706169609
 20
-12.9571593332
 10
-11.075260324
 20
-12.4239336733
 10
-11.2024969821
 20
-11.8851114653
 10
-11.351933654
 20
-11.3423581778
 10
-11.5231084395
 20
-10.7973514301
 10
-11.7154922472
 20
-10.2517758068
 10
-11.9284904298
 20
-9.707317651
 10
-12.1614446219
 20
-9.1656598515
 10
-12.4136347757
 20
-8.6284766416
 10
-12.6842813858
 20
-8.0974284238
 10
-12.972547899
 20
-7.5741566378
 10
-13.2775433001
 20
-7.0602786866
 10
-13.5983248658
 20
-6.5573829375
 10
-13.9339010785
 20
-6.0670238125
 10
-14.2832346915
 20
-5.5907169834
 10
-14.6452459346
 20
-5.1299346876
 10
-15.0188158519
 20
-4.6861011765
 10
-15.4027897599
 20
-4.2605883141
 10
-15.7959808176
 20
-3.8547113364
 10
-16.1971736937
 20
-3.4697247858
 10
-16.6051283242
 20
-3.1068186336
 10
-17.0185837446
 20
-2.767114602
 10
-17.4362619879
 20
-2.4516626967
 10
-17.8568720347
 20
-2.1614379614
 10
-18.2791138033
 20
-1.8973374642
 10
-18.7016821686
 20
-1.6601775246
 10
-19.1232709962
 20
-1.4506911903
 10
-19.5425771789
 20
-1.2695259716
 10
-19.9583046656
 20
-1.1172418398
 10
-20.3691684662
 20
-0.9943094964
 10
-20.7738986245
 20
-0.9011089183
 10
-21.1712441426
 20
-0.8379281832
 10
-21.5599768483
 20
-0.8049625789
 10
-21.9388951911
 20
-0.8023140004
 10
-22.3068279561
 20
-0.8299906342
 10
-22.6626378842
 20
-0.8879069335
 10
-23.0052251874
 20
-0.9758838822
 10
-23.3335309479
 20
-1.0936495488
 10
-23.6465403914
 20
-1.2408399262
 10
-23.9432860237
 20
-1.4170000574
 10
-24.222850621
 20
-1.6215854416
 10
-24.4843700652
 20
-1.853963717
 10
-24.7270360146
 20
-2.1134166158
 10
-24.9500984027
 20
-2.3991421838
 10
-25.1528677565
 20
-2.7102572598
 10
-25.3347173275
 20
-3.0458002049
 10
-25.4950850292
 20
-3.404733875
 10
-25.633475174
 20
-3.7859488267
 10
-25.7494600061
 20
-4.1882667466
 10
-25.8426810229
 20
-4.6104440928
 10
-25.9128500836
 20
-5.0511759395
 10
-25.9597502997
 20
-5.5091000098
 10
-25.9832367054
 20
-5.9828008866
 10
-25.9832367054
 20
-6.4708143877
 10
-25.9597502997
 20
-6.9716320913
 10
-25.9128500836
 20
-7.4837059985
 10
-25.8426810229
 20
-8.0054533183
 10
-25.7494600061
 20
-8.5352613596
 10
-25.633475174
 20
-9.071492516
 10
-25.4950850292
 20
-9.612489328
 10
-25.3347173275
 20
-10.1565796052
 10
-25.1528677565
 20
-10.7020815958
 10
-24.9500984027
 20
-11.2473091845
 10
-24.7270360146
 20
-11.790577104
 10
-24.4843700652
 20
-12.3302061442
 10
-24.222850621
 20
-12.8645283429
 10
-23.9432860237
 20
-13.3918921406
 10
-23.6465403914
 20
-13.910667486
 10
-23.3335309479
 20
-14.4192508744
 10
-23.0052251874
 20
-14.9160703036
 10
-22.6626378842
 20
-15.3995901333
 10
-22.3068279561
 20
-15.8683158313
 10
-21.9388951911
 20
-16.3207985933
 10
-21.5599768483
 20
-16.7556398212
 10
-21.1712441426
 20
-17.1714954455
 10
-20.7738986245
 20
-17.5670800804
 10
-20.3691684662
 20
-17.9411709964
 10
-19.9583046656
 20
-18.2926119
 10
-19.5425771789
 20
-18.6203165074
 10
-19.1232709962
 20
-18.9232719026
 10
-18.7016821686
 20
-19.2005416676
 10
-18.2791138033
 20
-19.4512687777
 10
-17.8568720347
 20
-19.6746782496
 10
-17.4362619879
 20
-19.8700795374
 10
-17.0185837446
 20
-20.0368686671
 10
-16.6051283242
 20
-20.1745301029
 10
-16.1971736937
 20
-20.2826383412
 10
-15.7959808176
 20
-20.3608592257
 10
-15.4027897599
 20
-20.4089509802
 10
-15.0188158519
 20
-20.4267649556
 10
-14.6452459346
 20
-20.4142460901
 10
-14.2832346915
 20
-20.3714330788
 10
-13.9339010785
 20
-20.2984582542
 10
-13.5983248658
 20
-20.1955471774
 10
-13.2775433001
 20
-20.0630179405
 10
-12.972547899
 20
-19.9012801838
 10
-12.6842813858
 20
-19.7108338296
 10
-12.4136347757
 20
-19.4922675365
 10
-12.1614446219
 20
-19.2462568804
 10
-11.9284904298
 20
-18.9735622662
 10
-11.7154922472
 20
-18.6750265773
 10
-11.5231084395
 20
-18.3515725704
 10
-11.351933654
 20
-18.0042000233
 10
-11.2024969821
 20
-17.6339826446
 10
-11.075260324
 20
-17.2420647551
 10
-10.9706169609
 20
-16.8296577505
 10
-10.8888903395
 20
-16.3980363571
 10
-10.8303330721
 20
-15.9485346921
 10
-10.7951261557
 20
-15.4825421392
 10
-10.7833784131
 20
-15.0014990547
  0
SPLINE
  5
231
330
21B
100
AcDbEntity
  8
0
  6
Continuous
 62
     7
370
    15
100
AcDbSpline
210
0.0
220
0.0
230
1.0
 70
     8
 71
     3
 72
    20
 73
    16
 74
     0
 42
0.00000001
 43
0.00000001
 12
1.0
 22
0.0
 32
0.0
 13
1.0
 23
0.0
 33
0.0
 40
0.0
 40
0.0
 40
0.0
 40
0.0
 40
0.070639651257149
 40
0.1514802076985058
 40
0.2293899168516458
 40
0.3095434412348242
 40
0.3877721300194615
 40
0.4682260885101236
 40
0.547208199735127
 40
0.6284765380022121
 40
0.7074790091500618
 40
0.7888148566314089
 40
0.8670793415328166
 40
0.9476360957029956
 40
0.9999999999999999
 40
0.9999999999999999
 40
0.9999999999999999
 40
0.9999999999999999
 10
-11.23951051005006
 20
3.472265087565235
 30
0.0
 10
-11.19393854827604
 20
3.508269726249813
 30
0.0
 10
-11.09621368537109
 20
3.585478348446929
 30
0.0
 10
-10.90556984374001
 20
3.688820906769639
 30
0.0
 10
-10.68235016397716
 20
3.782298882575795
 30
0.0
 10
-10.43912138399996
 20
3.85675089535519
 30
0.0
 10
-10.17877512825179
 20
3.91101597771437
 30
0.0
 10
-9.911917891067416
 20
3.941427227546472
 30
0.0
 10
-9.641413713097114
 20
3.946004997074024
 30
0.0
 10
-9.379527181699983
 20
3.922850159874423
 30
0.0
 10
-9.129929580137421
 20
3.870784014695641
 30
0.0
 10
-8.90449731915289
 20
3.79165603590716
 30
0.0
 10
-8.707449459644735
 20
3.685246634495414
 30
0.0
 10
-8.55870514203833
 20
3.573318597117476
 30
0.0
 10
-8.492842242040012
 20
3.490149385351452
 30
0.0
 10
-8.466895646288783
 20
3.457384992701012
 30
0.0
  0
SPLINE
  5
232
330
21B
100
AcDbEntity
  8
0
  6
Continuous
 62
     7
370
    15
100
AcDbSpline
210
0.0
220
0.0
230
1.0
 70
     8
 71
     3
 72
     9
 73
     5
 74
     0
 42
0.00000001
 43
0.00000001
 12
1.0
 22
0.0
 32
0.0
 13
1.0
 23
0.0
 33
0.0
 40
0.0
 40
0.0
 40
0.0
 40
0.0
 40
0.8576682555212357
 40
1.0
 40
1.0
 40
1.0
 40
1.0
 10
-11.03086578651016
 20
-15.14579699998893
 30
0.0
 10
-10.96735118538037
 20
-15.18146032708233
 30
0.0
 10
-10.89329621048661
 20
-15.22304205389082
 30
0.0
 10
-10.80436369346745
 20
-15.24954313453597
 30
0.0
 10
-10.79170577317922
 20
-15.25331507957476
 30
0.0
  0
SPLINE
  5
233
330
21B
100
AcDbEntity
  8
0
  6
Continuous
 62
     7
370
    15
100
AcDbSpline
210
0.0
220
0.0
230
1.0
 70
     8
 71
     3
 72
    17
 73
    13
 74
     0
 42
0.00000001
 43
0.00000001
 12
1.0
 22
0.0
 32
0.0
 13
1.0
 23
0.0
 33
0.0
 40
0.0
 40
0.0
 40
0.0
 40
0.0
 40
0.071030977099505
 40
0.1679928612310438
 40
0.267772752980667
 40
0.3646933259546866
 40
0.4643733215692881
 40
0.5622138660118965
 40
0.6628623852608794
 40
0.7611591001435786
 40
0.8623454007880175
 40
0.9999999999999999
 40
0.9999999999999999
 40
0.9999999999999999
 40
0.9999999999999999
 10
-10.87495723048099
 20
-13.66848458181262
 30
0.0
 10
-10.92576491713797
 20
-13.69041073778971
 30
0.0
 10
-11.04592838669127
 20
-13.74226751674446
 30
0.0
 10
-11.20193001638352
 20
-13.85373038013903
 30
0.0
 10
-11.34059663383561
 20
-13.99279816487205
 30
0.0
 10
-11.43905281503076
 20
-14.14978617085345
 30
0.0
 10
-11.4944557644156
 20
-14.31583595034008
 30
0.0
 10
-11.50551100938907
 20
-14.48848537994697
 30
0.0
 10
-11.47152153276002
 20
-14.65892897054833
 30
0.0
 10
-11.39148708981502
 20
-14.82292651703632
 30
0.0
 10
-11.25649171215208
 20
-14.99414998406667
 30
0.0
 10
-11.11335932612198
 20
-15.09035169121333
 30
0.0
 10
-11.03086578651016
 20
-15.14579699998893
 30
0.0
  0
LWPOLYLINE
  5
23C
330
21B
100
AcDbEntity
  8
0
  6
Continuous
 62
     7
370
    15
100
AcDbPolyline
 90
       20
 70
   128
 43
0.0
 10
-7.7781745931
 20
11.6357729194
 10
-7.9236570317
 20
11.7058374531
 10
-8.0651710887
 20
11.7461494279
 10
-8.1988566294
 20
11.7556092384
 10
-8.3210670608
 20
11.7339588455
 10
-8.4284688009
 20
11.6817888155
 10
-8.5181322103
 20
11.6005222108
 10
-8.5876115047
 20
11.4923757726
 10
-8.6350114702
 20
11.3602994537
 10
-8.6590391593
 20
11.2078959519
 10
-8.6590391593
 20
11.0393224374
 10
-8.6350114702
 20
10.8591771563
 10
-8.5876115047
 20
10.6723740021
 10
-8.5181322103
 20
10.4840084781
 10
-8.4284688009
 20
10.2992187045
 10
-8.3210670608
 20
10.1230452649
 10
-8.1988566294
 20
9.9602937113
 10
-8.0651710887
 20
9.8154034819
 10
-7.9236570317
 20
9.6923268043
 10
-7.7781745931
 20
9.5944208897
  0
LWPOLYLINE
  5
23E
330
21B
100
AcDbEntity
  8
0
  6
Continuous
 62
     7
370
    15
100
AcDbPolyline
 90
       20
 70
   128
 43
0.0
 10
-0.7071067812
 20
5.5123803306
 10
-0.5616243425
 20
5.4423157969
 10
-0.4201102855
 20
5.402003822
 10
-0.2864247448
 20
5.3925440116
 10
-0.1642143134
 20
5.4141944045
 10
-0.0568125733
 20
5.4663644345
 10
0.032850836
 20
5.5476310392
 10
0.1023301304
 20
5.6557774774
 10
0.149730096
 20
5.7878537963
 10
0.1737577851
 20
5.9402572981
 10
0.1737577851
 20
6.1088308125
 10
0.149730096
 20
6.2889760937
 10
0.1023301304
 20
6.4757792479
 10
0.032850836
 20
6.6641447719
 10
-0.0568125733
 20
6.8489345454
 10
-0.1642143134
 20
7.0251079851
 10
-0.2864247448
 20
7.1878595387
 10
-0.4201102855
 20
7.3327497681
 10
-0.5616243425
 20
7.4558264456
 10
-0.7071067812
 20
7.5537323603
  0
LWPOLYLINE
  5
244
330
21B
100
AcDbEntity
  8
0
  6
Continuous
 62
     7
370
    15
100
AcDbPolyline
 90
       44
 70
   128
 43
0.0
 10
3.4648232278
 20
4.8593533662
 10
3.4768798305
 20
5.0565363679
 10
3.5127926731
 20
5.2634370135
 10
3.5717963357
 20
5.4756455749
 10
3.6526332577
 20
5.688639195
 10
3.7535805403
 20
5.8978782847
 10
3.8724866677
 20
6.098903276
 10
4.0068173619
 20
6.2874296701
 10
4.1537095977
 20
6.4594393544
 10
4.3100326219
 20
6.6112662411
 10
4.4724546807
 20
6.7396744036
 10
4.63751403
 20
6.8419270449
 10
4.8016927162
 20
6.9158448275
 10
4.9614915557
 20
6.9598523221
 10
5.1135047136
 20
6.9730115855
 10
5.2544922935
 20
6.9550421508
 10
5.3814493899
 20
6.9063270053
 10
5.4916701325
 20
6.8279044277
 10
5.5828053578
 20
6.7214458591
 10
5.6529126765
 20
6.5892202791
 10
5.7004978729
 20
6.4340458463
 10
5.7245467511
 20
6.2592298345
 10
5.7245467511
 20
6.0684981433
 10
5.7004978729
 20
5.8659158876
 10
5.6529126765
 20
5.6558007566
 10
5.5828053578
 20
5.4426309893
 10
5.4916701325
 20
5.2309499294
 10
5.3814493899
 20
5.0252691911
 10
5.2544922935
 20
4.8299725022
 10
5.1135047136
 20
4.6492222726
 10
4.9614915557
 20
4.4868708797
 10
4.8016927162
 20
4.3463785614
 10
4.63751403
 20
4.2307396678
 10
4.4724546807
 20
4.1424188409
 10
4.3100326219
 20
4.0832984859
 10
4.1537095977
 20
4.0546386506
 10
4.0068173619
 20
4.0570501695
 10
3.8724866677
 20
4.0904816453
 10
3.7535805403
 20
4.1542205442
 10
3.6526332577
 20
4.2469083822
 10
3.5717963357
 20
4.3665696789
 10
3.5127926731
 20
4.5106540615
 10
3.4768798305
 20
4.6760906216
 10
3.4648232278
 20
4.8593533662
  0
SPLINE
  5
247
330
21B
100
AcDbEntity
  8
0
  6
Continuous
 62
     7
370
    15
100
AcDbSpline
210
0.0
220
0.0
230
1.0
 70
     8
 71
     3
 72
    15
 73
    11
 74
     0
 42
0.00000001
 43
0.00000001
 12
1.0
 22
0.0
 32
0.0
 13
1.0
 23
0.0
 33
0.0
 40
0.0
 40
0.0
 40
0.0
 40
0.0
 40
0.0443877522967073
 40
0.147760709266382
 40
0.336298503240672
 40
0.5392137283880373
 40
0.6541061950449046
 40
0.7720720505424262
 40
0.884230538459535
 40
1.0
 40
1.0
 40
1.0
 40
1.0
 10
-7.636257579694972
 20
11.55384597145656
 30
0.0
 10
-7.63810057424821
 20
11.52921044720078
 30
0.0
 10
-7.644235649089135
 20
11.44720218255945
 30
0.0
 10
-7.611534315573922
 20
11.25887213882772
 30
0.0
 10
-7.501378722039275
 20
10.99244299582111
 30
0.0
 10
-7.311843798829838
 20
10.75268346729534
 30
0.0
 10
-7.123261178561528
 20
10.57260597603794
 30
0.0
 10
-6.965353777483102
 20
10.44524730067905
 30
0.0
 10
-6.805349540096869
 20
10.33191957158344
 30
0.0
 10
-6.7064581154966
 20
10.27235856644055
 30
0.0
 10
-6.65622905405772
 20
10.24210626297969
 30
0.0
  0
LWPOLYLINE
  5
252
330
21B
100
AcDbEntity
  8
0
  6
Continuous
 62
     7
370
    15
100
AcDbPolyline
 90
       20
 70
   128
 43
0.0
 10
-0.7071067812
 20
-16.5342215903
 10
-0.5616243425
 20
-16.604286124
 10
-0.4201102855
 20
-16.6445980989
 10
-0.2864247448
 20
-16.6540579093
 10
-0.1642143134
 20
-16.6324075164
 10
-0.0568125733
 20
-16.5802374864
 10
0.032850836
 20
-16.4989708817
 10
0.1023301304
 20
-16.3908244435
 10
0.149730096
 20
-16.2587481247
 10
0.1737577851
 20
-16.1063446229
 10
0.1737577851
 20
-15.9377711084
 10
0.149730096
 20
-15.7576258272
 10
0.1023301304
 20
-15.5708226731
 10
0.032850836
 20
-15.382457149
 10
-0.0568125733
 20
-15.1976673755
 10
-0.1642143134
 20
-15.0214939358
 10
-0.2864247448
 20
-14.8587423822
 10
-0.4201102855
 20
-14.7138521528
 10
-0.5616243425
 20
-14.5907754753
 10
-0.7071067812
 20
-14.4928695606
  0
LWPOLYLINE
  5
256
330
21B
100
AcDbEntity
  8
0
  6
Continuous
 62
     7
370
    15
100
AcDbPolyline
 90
       44
 70
   128
 43
0.0
 10
3.4648232278
 20
-16.3707077429
 10
3.4768798305
 20
-16.1735247411
 10
3.5127926731
 20
-15.9666240955
 10
3.5717963357
 20
-15.7544155341
 10
3.6526332577
 20
-15.541421914
 10
3.7535805403
 20
-15.3321828243
 10
3.8724866677
 20
-15.1311578331
 10
4.0068173619
 20
-14.9426314389
 10
4.1537095977
 20
-14.7706217546
 10
4.3100326219
 20
-14.6187948679
 10
4.4724546807
 20
-14.4903867054
 10
4.63751403
 20
-14.3881340641
 10
4.8016927162
 20
-14.3142162815
 10
4.9614915557
 20
-14.2702087869
 10
5.1135047136
 20
-14.2570495235
 10
5.2544922935
 20
-14.2750189582
 10
5.3814493899
 20
-14.3237341038
 10
5.4916701325
 20
-14.4021566814
 10
5.5828053578
 20
-14.5086152499
 10
5.6529126765
 20
-14.64084083
 10
5.7004978729
 20
-14.7960152627
 10
5.7245467511
 20
-14.9708312746
 10
5.7245467511
 20
-15.1615629657
 10
5.7004978729
 20
-15.3641452214
 10
5.6529126765
 20
-15.5742603525
 10
5.5828053578
 20
-15.7874301197
 10
5.4916701325
 20
-15.9991111796
 10
5.3814493899
 20
-16.204791918
 10
5.2544922935
 20
-16.4000886068
 10
5.1135047136
 20
-16.5808388364
 10
4.9614915557
 20
-16.7431902294
 10
4.8016927162
 20
-16.8836825476
 10
4.63751403
 20
-16.9993214413
 10
4.4724546807
 20
-17.0876422681
 10
4.3100326219
 20
-17.1467626231
 10
4.1537095977
 20
-17.1754224584
 10
4.0068173619
 20
-17.1730109395
 10
3.8724866677
 20
-17.1395794637
 10
3.7535805403
 20
-17.0758405648
 10
3.6526332577
 20
-16.9831527269
 10
3.5717963357
 20
-16.8634914302
 10
3.5127926731
 20
-16.7194070475
 10
3.4768798305
 20
-16.5539704874
 10
3.4648232278
 20
-16.3707077429
  0
LWPOLYLINE
  5
25A
330
21B
100
AcDbEntity
  8
0
  6
Continuous
 62
     8
370
    15
100
AcDbPolyline
 90
       46
 70
   128
 43
0.0
 10
-24.0307353161
 20
-0.0166170772
 10
-23.8299926298
 20
0.0917624252
 10
-23.4949842442
 20
0.2417918416
 10
-23.1447473758
 20
0.3621350238
 10
-22.7802581976
 20
0.4524565539
 10
-22.4025326063
 20
0.5125046895
 10
-22.0126233909
 20
0.5421120657
 10
-21.6116172983
 20
0.5411961614
 10
-21.2006320044
 20
0.5097595294
 10
-20.7808129989
 20
0.4478897893
 10
-20.3533303927
 20
0.3557593831
 10
-19.9193756565
 20
0.2336250948
 10
-19.4801583
 20
0.0818273345
 10
-19.0369025007
 20
-0.0992108101
 10
-18.590843692
 20
-0.3089847534
 10
-18.1432251199
 20
-0.5469098176
 10
-17.6952943775
 20
-0.8123228629
 10
-17.2482999283
 20
-1.1044841357
 10
-16.8034876258
 20
-1.42257933
 10
-16.3620972418
 20
-1.7657218575
 10
-15.9253590105
 20
-2.1329553183
 10
-15.4944901995
 20
-2.5232561671
 10
-15.0706917177
 20
-2.9355365652
 10
-14.6551447673
 20
-3.3686474133
 10
-14.2490075522
 20
-3.8213815539
 10
-13.8534120497
 20
-4.2924771355
 10
-13.4694608555
 20
-4.7806211304
 10
-13.0982241103
 20
-5.2844529937
 10
-12.7407365175
 20
-5.8025684556
 10
-12.3979944593
 20
-6.3335234354
 10
-12.0709532191
 20
-6.8758380663
 10
-11.7605243196
 20
-7.4280008202
 10
-11.4675729818
 20
-7.9884727205
 10
-11.1929157136
 20
-8.5556916314
 10
-10.937318034
 20
-9.1280766121
 10
-10.7014923398
 20
-9.7040323231
 10
-10.4860959193
 20
-10.2819534723
 10
-10.291729121
 20
-10.8602292901
 10
-10.1189336801
 20
-11.4372480178
 10
-9.9681912084
 20
-12.0114014009
 10
-9.8399218523
 20
-12.5810891708
 10
-9.7344831214
 20
-13.1447235057
 10
-9.6521688924
 20
-13.7007334554
 10
-9.5932085898
 20
-14.2475693206
 10
-9.5577665466
 20
-14.7837069716
 10
-9.545941546
 20
-15.3076520967
  0
SPLINE
  5
25B
330
21B
100
AcDbEntity
  8
0
  6
Continuous
 62
     8
370
    15
100
AcDbSpline
210
0.0
220
0.0
230
1.0
 70
     8
 71
     3
 72
    26
 73
    22
 74
     0
 42
0.00000001
 43
0.00000001
 12
1.0
 22
0.0
 32
0.0
 13
1.0
 23
0.0
 33
0.0
 40
0.0
 40
0.0
 40
0.0
 40
0.0
 40
0.0198535163093913
 40
0.0733346438755752
 40
0.126492567566819
 40
0.1796470261824819
 40
0.2327979447282723
 40
0.2859481020310329
 40
0.3616439948616637
 40
0.4155685808613615
 40
0.4694963691337218
 40
0.5229638914916634
 40
0.576430460310856
 40
0.6294720464791324
 40
0.6825101131579122
 40
0.7358185022106575
 40
0.7891262171126169
 40
0.8429829849919795
 40
0.8968432253096801
 40
0.9506703011876515
 40
1.0
 40
1.0
 40
1.0
 40
1.0
 10
-8.304833614722485
 20
3.863625441865174
 30
0.0
 10
-8.303468843581097
 20
3.885096905485236
 30
0.0
 10
-8.298427670820288
 20
3.964407900753102
 30
0.0
 10
-8.335661513324622
 20
4.100217481037978
 30
0.0
 10
-8.416360028225881
 20
4.262889257636579
 30
0.0
 10
-8.540303085434335
 20
4.411355590375066
 30
0.0
 10
-8.70228979569117
 20
4.53996311966161
 30
0.0
 10
-8.924711811569768
 20
4.660426752112285
 30
0.0
 10
-9.187856594164518
 20
4.744477781277328
 30
0.0
 10
-9.477512889484599
 20
4.788500114830748
 30
0.0
 10
-9.743789751923465
 20
4.798948108840314
 30
0.0
 10
-10.01356387990499
 20
4.781469777111054
 30
0.0
 10
-10.27883922566267
 20
4.739563213501942
 30
0.0
 10
-10.53289876186196
 20
4.675143327593345
 30
0.0
 10
-10.76981537816912
 20
4.591941066993576
 30
0.0
 10
-10.98259353748348
 20
4.492310743643256
 30
0.0
 10
-11.16657646339366
 20
4.379432155301036
 30
0.0
 10
-11.31465305633161
 20
4.256228566655589
 30
0.0
 10
-11.42238063029429
 20
4.12571279219557
 30
0.0
 10
-11.48786054357986
 20
3.994620111460017
 30
0.0
 10
-11.49454288688204
 20
3.907213863790697
 30
0.0
 10
-11.49773839181563
 20
3.865416086719935
 30
0.0
  0
SPLINE
  5
25D
330
21B
100
AcDbEntity
  8
0
  6
Continuous
 62
     8
370
    15
100
AcDbSpline
210
0.0
220
0.0
230
1.0
 70
     8
 71
     3
 72
    12
 73
     8
 74
     0
 42
0.00000001
 43
0.00000001
 12
1.0
 22
0.0
 32
0.0
 13
1.0
 23
0.0
 33
0.0
 40
0.0
 40
0.0
 40
0.0
 40
0.0
 40
0.0406561388246043
 40
0.3492537661670392
 40
0.6668414246735365
 40
0.9785806017577963
 40
1.0
 40
1.0
 40
1.0
 40
1.0
 10
-11.34952395437814
 20
-14.86410250530095
 30
0.0
 10
-11.34544180284409
 20
-14.85725824934117
 30
0.0
 10
-11.31037436066807
 20
-14.79846313894273
 30
0.0
 10
-11.20489722122239
 20
-14.6999055523023
 30
0.0
 10
-11.0326182515639
 20
-14.58019132348293
 30
0.0
 10
-10.89487767832603
 20
-14.50735097387982
 30
0.0
 10
-10.81294760690847
 20
-14.4832721647715
 30
0.0
 10
-10.80768016684338
 20
-14.48172409235288
 30
0.0
  0
LINE
  5
25F
330
21B
100
AcDbEntity
  8
0
  6
Continuous
 62
     7
370
    15
100
AcDbLine
 10
-10.2421530829
 20
7.9433620131
 30
0.0
 11
-24.0307353161
 21
-0.0166170772
 31
0.0
  0
LINE
  5
260
330
21B
100
AcDbEntity
  8
0
  6
Continuous
 62
     7
370
    15
100
AcDbLine
 10
-12.0317105244
 20
-20.8017897743
 30
0.0
 11
1.7568717087
 21
-12.841810684
 31
0.0
  0
LINE
  5
261
330
21B
100
AcDbEntity
  8
0
  6
Continuous
 62
     7
370
    15
100
AcDbLine
 10
-6.5103670064
 20
16.9921659219
 30
0.0
 11
-10.7530076935
 21
14.5429415864
 31
0.0
  0
LINE
  5
262
330
21B
100
AcDbEntity
  8
0
  6
Continuous
 62
     7
370
    15
100
AcDbLine
 10
2.2677263193
 20
-19.4413902573
 30
0.0
 11
6.5103670064
 21
-16.9921659219
 31
0.0
  0
LINE
  5
263
330
21B
100
AcDbEntity
  8
0
  6
Continuous
 62
     7
370
    15
100
AcDbLine
 10
-24.0643617316
 20
-0.036247992
 30
0.0
 11
-24.0307353161
 21
-0.0166170772
 31
0.0
  0
LINE
  5
264
330
21B
100
AcDbEntity
  8
0
  6
Continuous
 62
     7
370
    15
100
AcDbLine
 10
6.9700525574
 20
1.5644647869
 30
0.0
 11
2.7274118703
 21
-0.8847595485
 31
0.0
  0
LINE
  5
265
330
21B
100
AcDbEntity
  8
0
  6
Continuous
 62
     7
370
    15
100
AcDbLine
 10
2.7274118703
 20
-12.0611405104
 30
0.0
 11
6.9700525574
 21
-9.6119161749
 31
0.0
  0
LINE
  5
266
330
21B
100
AcDbEntity
  8
0
  6
Continuous
 62
     7
370
    15
100
AcDbLine
 10
-10.9601551084
 20
14.0850967799
 30
0.0
 11
-10.9601551084
 21
7.9482697568
 31
0.0
  0
LINE
  5
267
330
21B
100
AcDbEntity
  8
0
  6
Continuous
 62
     7
370
    15
100
AcDbLine
 10
1.767766953
 20
7.5539645854
 30
0.0
 11
-10.2530483272
 21
14.4934335359
 31
0.0
  0
LINE
  5
268
330
21B
100
AcDbEntity
  8
0
  6
Continuous
 62
     7
370
    15
100
AcDbLine
 10
2.4748737342
 20
0.1923926945
 30
0.0
 11
2.4748737342
 21
6.3292197176
 31
0.0
  0
LINE
  5
269
330
21B
100
AcDbEntity
  8
0
  6
Continuous
 62
     7
370
    15
100
AcDbLine
 10
-0.7071067812
 20
7.5537323603
 30
0.0
 11
-7.7781745931
 21
11.6357729194
 31
0.0
  0
LINE
  5
26A
330
21B
100
AcDbEntity
  8
0
  6
Continuous
 62
     7
370
    15
100
AcDbLine
 10
-7.7781745931
 20
9.5944208897
 30
0.0
 11
-0.7071067812
 21
5.5123803306
 31
0.0
  0
LINE
  5
26B
330
21B
100
AcDbEntity
  8
0
  6
Continuous
 62
     7
370
    15
100
AcDbLine
 10
1.767766953
 20
7.5539645854
 30
0.0
 11
6.0104076401
 21
10.0031889209
 31
0.0
  0
LINE
  5
26C
330
21B
100
AcDbEntity
  8
0
  6
Continuous
 62
     7
370
    15
100
AcDbLine
 10
6.7175144213
 20
8.7784440531
 30
0.0
 11
2.4748737342
 21
6.3292197176
 31
0.0
  0
LINE
  5
26D
330
21B
100
AcDbEntity
  8
0
  6
Continuous
 62
     7
370
    15
100
AcDbLine
 10
6.7175144213
 20
2.6416170299
 30
0.0
 11
6.7175144213
 21
8.7784440531
 31
0.0
  0
LINE
  5
26E
330
21B
100
AcDbEntity
  8
0
  6
Continuous
 62
     7
370
    15
100
AcDbLine
 10
2.4748737342
 20
0.1923926945
 30
0.0
 11
6.7175144213
 21
2.6416170299
 31
0.0
  0
LINE
  5
26F
330
21B
100
AcDbEntity
  8
0
  6
Continuous
 62
     7
370
    15
100
AcDbLine
 10
-6.0104076401
 20
16.9426578714
 30
0.0
 11
-10.2530483272
 21
14.4934335359
 31
0.0
  0
LINE
  5
270
330
21B
100
AcDbEntity
  8
0
  6
Continuous
 62
     7
370
    15
100
AcDbLine
 10
6.0104076401
 20
10.0031889209
 30
0.0
 11
-6.0104076401
 21
16.9426578714
 31
0.0
  0
LINE
  5
271
330
21B
100
AcDbEntity
  8
0
  6
Continuous
 62
     7
370
    15
100
AcDbLine
 10
-6.6562290541
 20
10.242106263
 30
0.0
 11
0.1441647585
 21
6.3163224777
 31
0.0
  0
LINE
  5
272
330
21B
100
AcDbEntity
  8
0
  6
Continuous
 62
     7
370
    15
100
AcDbLine
 10
-6.6562290541
 20
10.242106263
 30
0.0
 11
-7.7781745931
 21
9.5944208897
 31
0.0
  0
LINE
  5
273
330
21B
100
AcDbEntity
  8
0
  6
Continuous
 62
     7
370
    15
100
AcDbLine
 10
2.4748737342
 20
-18.9835454509
 30
0.0
 11
2.4748737342
 21
-12.8467184277
 31
0.0
  0
LINE
  5
274
330
21B
100
AcDbEntity
  8
0
  6
Continuous
 62
     7
370
    15
100
AcDbLine
 10
-3.9108237014
 20
-16.1137016001
 30
0.0
 11
1.767766953
 21
-19.3918822068
 31
0.0
  0
LINE
  5
275
330
21B
100
AcDbEntity
  8
0
  6
Continuous
 62
     7
370
    15
100
AcDbLine
 10
-0.7071067812
 20
-14.4928695606
 30
0.0
 11
-0.9051314115
 21
-14.3785523749
 31
0.0
  0
LINE
  5
276
330
21B
100
AcDbEntity
  8
0
  6
Continuous
 62
     7
370
    15
100
AcDbLine
 10
-2.6731856997
 20
-15.3992283897
 30
0.0
 11
-0.7071067812
 21
-16.5342215903
 31
0.0
  0
LINE
  5
277
330
21B
100
AcDbEntity
  8
0
  6
Continuous
 62
     7
370
    15
100
AcDbLine
 10
6.7175144213
 20
-10.3974940922
 30
0.0
 11
2.4748737342
 21
-12.8467184277
 31
0.0
  0
LINE
  5
278
330
21B
100
AcDbEntity
  8
0
  6
Continuous
 62
     7
370
    15
100
AcDbLine
 10
2.4748737342
 20
-18.9835454509
 30
0.0
 11
6.7175144213
 21
-16.5343211154
 31
0.0
  0
LINE
  5
279
330
21B
100
AcDbEntity
  8
0
  6
Continuous
 62
     7
370
    15
100
AcDbLine
 10
6.7175144213
 20
-16.5343211154
 30
0.0
 11
6.7175144213
 21
-10.3974940922
 31
0.0
  0
LINE
  5
27A
330
21B
100
AcDbEntity
  8
0
  6
Continuous
 62
     8
370
    15
100
AcDbLine
 10
0.1767766836
 20
6.0226353937
 30
0.0
 11
-0.7071067812
 21
5.5123803306
 31
0.0
  0
LINE
  5
27B
330
21B
100
AcDbEntity
  8
0
  6
Continuous
 62
     8
370
    15
100
AcDbLine
 10
0.1767766836
 20
-16.0239665272
 30
0.0
 11
-0.7071067812
 21
-16.5342215903
 31
0.0
  0
ARC
  5
27C
330
21B
100
AcDbEntity
  8
0
  6
Continuous
 62
     7
370
    15
100
AcDbCircle
 10
-0.2998984034
 20
-9.2911754054
 30
0.0
 40
4.103329645027625
100
AcDbArc
 50
300.0823486239
 51
317.5417316708
  0
ARC
  5
27D
330
21B
100
AcDbEntity
  8
0
  6
Continuous
 62
     7
370
    15
100
AcDbCircle
 10
-12.3926441128
 20
7.9239039131
 30
0.0
 40
1.432696214165644
100
AcDbArc
 50
342.3780748064
 51
0.9744754695
  0
ARC
  5
27E
330
21B
100
AcDbEntity
  8
0
  6
Continuous
 62
     7
370
    15
100
AcDbCircle
 10
-10.529080741
 20
14.1550239768
 30
0.0
 40
0.436709197428481
100
AcDbArc
 50
50.7967147643
 51
189.2140369905
  0
ARC
  5
27F
330
21B
100
AcDbEntity
  8
0
  6
Continuous
 62
     7
370
    15
100
AcDbCircle
 10
0.9396576328
 20
6.2593588653
 30
0.0
 40
1.536804807572058
100
AcDbArc
 50
2.6054784857
 51
57.39452166
  0
ARC
  5
280
330
21B
100
AcDbEntity
  8
0
  6
Continuous
 62
     7
370
    15
100
AcDbCircle
 10
5.1762705023
 20
0.2575547668
 30
0.0
 40
2.702182561339259
100
AcDbArc
 50
181.3817991902
 51
205.0075480486
  0
ARC
  5
281
330
21B
100
AcDbEntity
  8
0
  6
Continuous
 62
     7
370
    15
100
AcDbCircle
 10
5.1822983199
 20
8.7085832008
 30
0.0
 40
1.536804807572066
100
AcDbArc
 50
2.6054784857
 51
57.39452166
  0
ARC
  5
282
330
21B
100
AcDbEntity
  8
0
  6
Continuous
 62
     7
370
    15
100
AcDbCircle
 10
9.4189111895
 20
2.7067791023
 30
0.0
 40
2.702182561339296
100
AcDbArc
 50
181.3817991902
 51
205.0075480486
  0
ARC
  5
283
330
21B
100
AcDbEntity
  8
0
  6
Continuous
 62
     7
370
    15
100
AcDbCircle
 10
-6.3033276949
 20
16.5337765422
 30
0.0
 40
0.5029772359017856
100
AcDbArc
 50
54.3824225248
 51
114.3071190461
  0
ARC
  5
284
330
21B
100
AcDbEntity
  8
0
  6
Continuous
 62
     7
370
    15
100
AcDbCircle
 10
3.620267205
 20
-12.7815453191
 30
0.0
 40
1.147246153694245
100
AcDbArc
 50
141.1015012306
 51
183.2566293053
  0
ARC
  5
285
330
21B
100
AcDbEntity
  8
0
  6
Continuous
 62
     7
370
    15
100
AcDbCircle
 10
2.0437993667
 20
-19.0534726478
 30
0.0
 40
0.4367091974284765
100
AcDbArc
 50
230.7967147643
 51
9.2140369905
  0
ARC
  5
286
330
21B
100
AcDbEntity
  8
0
  6
Continuous
 62
     7
370
    15
100
AcDbCircle
 10
7.8629078921
 20
-10.3323209836
 30
0.0
 40
1.147246153694243
100
AcDbArc
 50
141.1015012306
 51
183.2566293053
  0
ARC
  5
287
330
21B
100
AcDbEntity
  8
0
  6
Continuous
 62
     7
370
    15
100
AcDbCircle
 10
6.2418288653
 20
-16.594885144
 30
0.0
 40
0.4795255464386647
100
AcDbArc
 50
304.0563508333
 51
7.2558295601
  0
ARC
  5
288
330
21B
100
AcDbEntity
  8
0
  6
Continuous
 62
     8
370
    15
100
AcDbCircle
 10
-15.475043695
 20
-15.9344874852
 30
0.0
 40
5.962145159061766
100
AcDbArc
 50
305.2771850499
 51
6.0349953434
  0
VIEWPORT
  5
379
330
21B
100
AcDbEntity
  8
0
100
AcDbViewport
 10
0.0
 20
0.0
 30
0.0
 40
243.84
 41
204.216
 68
     1
 69
     1
 12
10.9413581274
 22
-0.7593179437
 13
0.0
 23
0.0
 14
10.0
 24
10.0
 15
10.0
 25
10.0
 16
0.0
 26
0.0
 36
1.0
 17
0.0
 27
0.0
 37
0.0
 42
50.0
 43
0.0
 44
0.0
 45
38.3913139752
 50
0.0
 51
0.0
 72
   100
 90
   557152
  1

281
     0
 71
     1
 74
     0
110
0.0
120
0.0
130
0.0
111
1.0
121
0.0
131
0.0
112
0.0
122
1.0
132
0.0
 79
     0
146
0.0
  0
ENDBLK
  5
21E
330
21B
100
AcDbEntity
  8
0
100
AcDbBlockEnd
  0
BLOCK
  5
28B
330
289
100
AcDbEntity
  8
0
100
AcDbBlockBegin
  2
*Paper_Space8
 70
     0
 10
0.0
 20
0.0
 30
0.0
  3
*Paper_Space8
  1

  0
SPLINE
  5
28D
330
289
100
AcDbEntity
  8
0
  6
Continuous
 62
     7
370
    15
100
AcDbSpline
210
0.0
220
0.0
230
1.0
 70
     8
 71
     3
 72
    68
 73
    64
 74
     0
 42
0.00000001
 43
0.00000001
 12
1.0
 22
0.0
 32
0.0
 13
1.0
 23
0.0
 33
0.0
 40
0.0
 40
0.0
 40
0.0
 40
0.0
 40
0.0092521838253515
 40
0.0257609303298718
 40
0.0422779168914914
 40
0.0588076867292526
 40
0.0753540623533873
 40
0.0919199893321657
 40
0.1085074553996809
 40
0.1251174851018454
 40
0.141750201883066
 40
0.1584049431893864
 40
0.1750804105624097
 40
0.1917748360112137
 40
0.2084861478057779
 40
0.2252121224574039
 40
0.2419505140947697
 40
0.2586991568387407
 40
0.275456039494452
 40
0.2922193545885451
 40
0.3089875254276313
 40
0.3257592155764855
 40
0.3425333251810992
 40
0.3593089781400969
 40
0.3760854845174413
 40
0.3928622474261986
 40
0.4096389884615154
 40
0.4264155587392803
 40
0.4431919171928701
 40
0.4599681102681044
 40
0.4767442530771634
 40
0.4935205118978713
 40
0.5102970877806517
 40
0.527074196031607
 40
0.5438519914988412
 40
0.5606306925536534
 40
0.5774104960611561
 40
0.5941915613295636
 40
0.6109739930547186
 40
0.6277578229172873
 40
0.6445429895853393
 40
0.661329317001612
 40
0.678116488819629
 40
0.6949038364515289
 40
0.711690628541376
 40
0.7284759137199661
 40
0.7452584996851671
 40
0.7620369382928535
 40
0.7788095201955743
 40
0.7955742833393582
 40
0.8123290401103807
 40
0.8290714279235579
 40
0.845798987287263
 40
0.8625092695988416
 40
0.8791999739645183
 40
0.8958691082503311
 40
0.9125151647313934
 40
0.9291372958465391
 40
0.9457354717008694
 40
0.9623105991836344
 40
0.9788645837492111
 40
0.9954003193781604
 40
1.0
 40
1.0
 40
1.0
 40
1.0
 10
-20.74039852496207
 20
-3.524807925584308
 30
0.0
 10
-20.7964581508747
 20
-3.590202195463252
 30
0.0
 10
-20.95254542115749
 20
-3.772279990514011
 30
0.0
 10
-21.18404581953033
 20
-4.092806198965754
 30
0.0
 10
-21.43607454361141
 20
-4.483426168755302
 30
0.0
 10
-21.66337109549405
 20
-4.892689747775604
 30
0.0
 10
-21.86670188985091
 20
-5.318431301397283
 30
0.0
 10
-22.04519889570172
 20
-5.75996036634819
 30
0.0
 10
-22.19849458545532
 20
-6.216132344036328
 30
0.0
 10
-22.32615458412925
 20
-6.685864739055638
 30
0.0
 10
-22.42783616294109
 20
-7.167999227598041
 30
0.0
 10
-22.50325189914559
 20
-7.661341474426609
 30
0.0
 10
-22.55218498219957
 20
-8.164655204068689
 30
0.0
 10
-22.57448951493897
 20
-8.676670113972818
 30
0.0
 10
-22.570093432789
 20
-9.19608709913426
 30
0.0
 10
-22.5389992441246
 20
-9.721584676108357
 30
0.0
 10
-22.48128398362189
 20
-10.25182507687702
 30
0.0
 10
-22.39709822235908
 20
-10.78546005360653
 30
0.0
 10
-22.286664448058
 20
-11.3211361489081
 30
0.0
 10
-22.15027500638917
 20
-11.85749939036433
 30
0.0
 10
-21.98828979529437
 20
-12.39319941566206
 30
0.0
 10
-21.80113385300238
 20
-12.92689309230022
 30
0.0
 10
-21.58929493770385
 20
-13.45724771966875
 30
0.0
 10
-21.35332124496473
 20
-13.98294371044346
 30
0.0
 10
-21.09381962423636
 20
-14.50267631658395
 30
0.0
 10
-20.8114527404289
 20
-15.01515981844976
 30
0.0
 10
-20.50693669190414
 20
-15.51913001700409
 30
0.0
 10
-20.18103815231913
 20
-16.0133472943103
 30
0.0
 10
-19.83457319611697
 20
-16.49659718971864
 30
0.0
 10
-19.46840526160473
 20
-16.96769268108536
 30
0.0
 10
-19.08344309139934
 20
-17.42547645682467
 30
0.0
 10
-18.68063863866805
 20
-17.86882317361533
 30
0.0
 10
-18.26098497358679
 20
-18.29664164979741
 30
0.0
 10
-17.82551467215142
 20
-18.70787655096114
 30
0.0
 10
-17.37529704264781
 20
-19.10151126949989
 30
0.0
 10
-16.91143574962411
 20
-19.4765701186064
 30
0.0
 10
-16.43506581990982
 20
-19.83212082256417
 30
0.0
 10
-15.94735194057139
 20
-20.1672759155004
 30
0.0
 10
-15.44948615956628
 20
-20.48119465118002
 30
0.0
 10
-14.94268560531406
 20
-20.77308486251886
 30
0.0
 10
-14.4281902383438
 20
-21.04220478375698
 30
0.0
 10
-13.90726066781182
 20
-21.28786484411307
 30
0.0
 10
-13.38117797033423
 20
-21.50942865332748
 30
0.0
 10
-12.8512403339756
 20
-21.70631586128837
 30
0.0
 10
-12.31876096000914
 20
-21.87800428185996
 30
0.0
 10
-11.78506393462919
 20
-22.02403254972443
 30
0.0
 10
-11.25148333731925
 20
-22.14400180578633
 30
0.0
 10
-10.71936076962934
 20
-22.23757813069004
 30
0.0
 10
-10.19004258731592
 20
-22.30449513075852
 30
0.0
 10
-9.66487670996775
 20
-22.34455663330263
 30
0.0
 10
-9.145208888526053
 20
-22.35763938640748
 30
0.0
 10
-8.632378280045666
 20
-22.34369565291973
 30
0.0
 10
-8.127712387660042
 20
-22.30275533345889
 30
0.0
 10
-7.63252086726035
 20
-22.23492792669045
 30
0.0
 10
-7.148090143851562
 20
-22.1404019030356
 30
0.0
 10
-6.675672188127143
 20
-22.01944915140681
 30
0.0
 10
-6.216493401868325
 20
-21.87240470265456
 30
0.0
 10
-5.771688725960971
 20
-21.69973180818723
 30
0.0
 10
-5.342516547983254
 20
-21.50176215766172
 30
0.0
 10
-4.929532544169127
 20
-21.27963954515339
 30
0.0
 10
-4.535647781415494
 20
-21.03177645711991
 30
0.0
 10
-4.246261889696466
 20
-20.83064381341744
 30
0.0
 10
-4.09486890858142
 20
-20.70505828240266
 30
0.0
 10
-4.061921397481825
 20
-20.6777272222268
 30
0.0
  0
SPLINE
  5
290
330
289
100
AcDbEntity
  8
0
  6
Continuous
 62
     7
370
    15
100
AcDbSpline
210
0.0
220
0.0
230
1.0
 70
     8
 71
     3
 72
    21
 73
    17
 74
     0
 42
0.00000001
 43
0.00000001
 12
1.0
 22
0.0
 32
0.0
 13
1.0
 23
0.0
 33
0.0
 40
0.0
 40
0.0
 40
0.0
 40
0.0
 40
0.0754459556747895
 40
0.1502272336611797
 40
0.2217536566547672
 40
0.2881656997619002
 40
0.3592800891541365
 40
0.4295597281551229
 40
0.5002007254885169
 40
0.5699500729671434
 40
0.640912391919504
 40
0.712267365418432
 40
0.7842071111255925
 40
0.8566534143406332
 40
0.9290797419982451
 40
0.9999999999999999
 40
0.9999999999999999
 40
0.9999999999999999
 40
0.9999999999999999
 10
-4.934809600986882
 20
3.644823236149167
 30
0.0
 10
-4.936612280791564
 20
3.613438611477434
 30
0.0
 10
-4.940201758820067
 20
3.550945860185999
 30
0.0
 10
-4.976626985923491
 20
3.462057003490607
 30
0.0
 10
-5.034552134674167
 20
3.375302303888691
 30
0.0
 10
-5.116303598404362
 20
3.293481004073086
 30
0.0
 10
-5.224304756014223
 20
3.216068787735465
 30
0.0
 10
-5.358786422252226
 20
3.145584516909544
 30
0.0
 10
-5.515156704324403
 20
3.086604832643391
 30
0.0
 10
-5.690844041834448
 20
3.039422994648004
 30
0.0
 10
-5.88215194649702
 20
3.005158348942632
 30
0.0
 10
-6.087521190814036
 20
2.984381344565842
 30
0.0
 10
-6.302144084489113
 20
2.976633398586759
 30
0.0
 10
-6.522001975872533
 20
2.982457934916873
 30
0.0
 10
-6.741556425793994
 20
2.999922970451312
 30
0.0
 10
-6.883726426592445
 20
3.020950392671299
 30
0.0
 10
-6.954064573053046
 20
3.031353641566931
 30
0.0
  0
SPLINE
  5
291
330
289
100
AcDbEntity
  8
0
  6
Continuous
 62
     7
370
    15
100
AcDbSpline
210
0.0
220
0.0
230
1.0
 70
     8
 71
     3
 72
    18
 73
    14
 74
     0
 42
0.00000001
 43
0.00000001
 12
1.0
 22
0.0
 32
0.0
 13
1.0
 23
0.0
 33
0.0
 40
0.0
 40
0.0
 40
0.0
 40
0.0
 40
0.0514165678806227
 40
0.1503991186548801
 40
0.2496632131962344
 40
0.3468334321727818
 40
0.4438675577946813
 40
0.5393531625403813
 40
0.6327636093898198
 40
0.7268440629582851
 40
0.8191846561153525
 40
0.9143965808449047
 40
1.0
 40
1.0
 40
1.0
 40
1.0
 10
-6.954064573053046
 20
3.031353641566931
 30
0.0
 10
-6.99054644468812
 20
3.037664569066341
 30
0.0
 10
-7.097259933490691
 20
3.056124726422817
 30
0.0
 10
-7.267600891027414
 20
3.094531537632472
 30
0.0
 10
-7.456588160247545
 20
3.148327714963722
 30
0.0
 10
-7.627007398216943
 20
3.209669075024841
 30
0.0
 10
-7.775882381351425
 20
3.276347083163373
 30
0.0
 10
-7.899840517566145
 20
3.34622131069258
 30
0.0
 10
-7.997032638527976
 20
3.417104636476562
 30
0.0
 10
-8.067342322682464
 20
3.485869588825176
 30
0.0
 10
-8.109443742519751
 20
3.5474260396433
 30
0.0
 10
-8.130930172922328
 20
3.599443596003432
 30
0.0
 10
-8.131687267094238
 20
3.630612028609241
 30
0.0
 10
-8.132045698233682
 20
3.645368101536684
 30
0.0
  0
SPLINE
  5
293
330
289
100
AcDbEntity
  8
0
  6
Continuous
 62
     7
370
    15
100
AcDbSpline
210
0.0
220
0.0
230
1.0
 70
     8
 71
     3
 72
    22
 73
    18
 74
     0
 42
0.00000001
 43
0.00000001
 12
1.0
 22
0.0
 32
0.0
 13
1.0
 23
0.0
 33
0.0
 40
0.0
 40
0.0
 40
0.0
 40
0.0
 40
0.0438109739386332
 40
0.1151588198582851
 40
0.186773257548938
 40
0.257516015172821
 40
0.3297484223608441
 40
0.4023232808600738
 40
0.4755250091548342
 40
0.5490835206294999
 40
0.622596268696219
 40
0.6965074424216319
 40
0.7695236248470965
 40
0.8427889020170586
 40
0.9153555591445472
 40
0.9871995179913184
 40
1.0
 40
1.0
 40
1.0
 40
1.0
 10
-7.883782577854983
 20
-16.00361955386876
 30
0.0
 10
-7.861227865914776
 20
-15.98770629218358
 30
0.0
 10
-7.801941943330258
 20
-15.94587767549204
 30
0.0
 10
-7.678391603093743
 20
-15.88724643789637
 30
0.0
 10
-7.518852799539244
 20
-15.83043345782919
 30
0.0
 10
-7.339690936531162
 20
-15.78583437705719
 30
0.0
 10
-7.145578157904033
 20
-15.75420085038604
 30
0.0
 10
-6.937863068865537
 20
-15.73605236925928
 30
0.0
 10
-6.721833433331702
 20
-15.73098721720597
 30
0.0
 10
-6.501342033345601
 20
-15.73923547773495
 30
0.0
 10
-6.280754055294557
 20
-15.75983561535379
 30
0.0
 10
-6.065020133387857
 20
-15.79180979215969
 30
0.0
 10
-5.858315772453338
 20
-15.83444847898357
 30
0.0
 10
-5.664095112457248
 20
-15.88594016608562
 30
0.0
 10
-5.489116649084499
 20
-15.94567492061073
 30
0.0
 10
-5.370733913398265
 20
-15.99272044938673
 30
0.0
 10
-5.319147883177978
 20
-16.02032533882307
 30
0.0
 10
-5.311346708699648
 20
-16.02449992946377
 30
0.0
  0
LWPOLYLINE
  5
295
330
289
100
AcDbEntity
  8
0
  6
Continuous
 62
     7
370
    15
100
AcDbPolyline
 90
      118
 70
   128
 43
0.0
 10
-1.9632717129
 20
-14.6074419658
 10
-1.9779342497
 20
-14.0743437068
 10
-2.0218795841
 20
-13.5348125816
 10
-2.0949810104
 20
-12.9904041978
 10
-2.1970277583
 20
-12.442688226
 10
-2.3277256005
 20
-11.8932438729
 10
-2.4866977014
 20
-11.3436553289
 10
-2.6734857032
 20
-10.7955072001
 10
-2.8875510477
 20
-10.2503799394
 10
-3.1282765293
 20
-9.7098452897
 10
-3.3949680739
 20
-9.1754617526
 10
-3.6868567408
 20
-8.6487700939
 10
-4.0031009394
 20
-8.1312889021
 10
-4.3427888559
 20
-7.6245102095
 10
-4.704941082
 20
-7.1298951902
 10
-5.0885134391
 20
-6.6488699473
 10
-5.4923999889
 20
-6.1828214012
 10
-5.9154362217
 20
-5.7330932905
 10
-6.3564024148
 20
-5.3009822976
 10
-6.8140271483
 20
-4.8877343106
 10
-7.2869909717
 20
-4.4945408302
 10
-7.773930208
 20
-4.1225355351
 10
-8.273440885
 20
-3.7727910129
 10
-8.7840827844
 20
-3.4463156675
 10
-9.3043835934
 20
-3.1440508119
 10
-9.8328431499
 20
-2.8668679539
 10
-10.3679377682
 20
-2.6155662835
 10
-10.9081246322
 20
-2.3908703684
 10
-11.4518462432
 20
-2.1934280651
 10
-11.997534911
 20
-2.0238086509
 10
-12.5436172741
 20
-1.8825011824
 10
-13.0885188354
 20
-1.7699130857
 10
-13.6306685028
 20
-1.6863689815
 10
-14.1685031185
 20
-1.6321097489
 10
-14.700471966
 20
-1.6072918314
 10
-15.2250412414
 20
-1.6119867854
 10
-15.7406984757
 20
-1.6461810743
 10
-16.2459568957
 20
-1.7097761071
 10
-16.7393597104
 20
-1.8025885227
 10
-17.2194843118
 20
-1.9243507189
 10
-17.6849463765
 20
-2.0747116239
 10
-18.1344038568
 20
-2.2532377082
 10
-18.5665608504
 20
-2.4594142349
 10
-18.9801713368
 20
-2.6926467437
 10
-19.37404277
 20
-2.9522627649
 10
-19.7470395166
 20
-3.2375137583
 10
-20.0980861305
 20
-3.5475772714
 10
-20.4261704534
 20
-3.8815593109
 10
-20.7303465332
 20
-4.2384969201
 10
-21.0097373516
 20
-4.6173609555
 10
-21.2635373526
 20
-5.0170590539
 10
-21.4910147649
 20
-5.4364387824
 10
-21.6915137124
 20
-5.8742909604
 10
-21.8644561047
 20
-6.329353147
 10
-22.0093433041
 20
-6.80031328
 10
-22.1257575632
 20
-7.2858134593
 10
-22.2133632298
 20
-7.7844538624
 10
-22.2719077138
 20
-8.2947967799
 10
-22.3012222165
 20
-8.8153707609
 10
-22.3012222165
 20
-9.344674856
 10
-22.2719077138
 20
-9.8811829445
 10
-22.2133632298
 20
-10.4233481345
 10
-22.1257575632
 20
-10.9696072236
 10
-22.0093433041
 20
-11.5183852053
 10
-21.8644561047
 20
-12.0680998108
 10
-21.6915137124
 20
-12.6171660704
 10
-21.4910147649
 20
-13.164000884
 10
-21.2635373526
 20
-13.7070275852
 10
-21.0097373516
 20
-14.2446804876
 10
-20.7303465332
 20
-14.7754093986
 10
-20.4261704534
 20
-15.2976840894
 10
-20.0980861305
 20
-15.8099987068
 10
-19.7470395166
 20
-16.3108761153
 10
-19.37404277
 20
-16.7988721554
 10
-18.9801713368
 20
-17.2725798084
 10
-18.5665608504
 20
-17.7306332524
 10
-18.1344038568
 20
-18.1717118008
 10
-17.6849463765
 20
-18.59454371
 10
-17.2194843118
 20
-18.997909846
 10
-16.7393597104
 20
-19.3806472
 10
-16.2459568957
 20
-19.741652241
 10
-15.7406984757
 20
-20.079884098
 10
-15.2250412414
 20
-20.3943675611
 10
-14.700471966
 20
-20.684195893
 10
-14.1685031185
 20
-20.9485334435
 10
-13.6306685028
 20
-21.1866180592
 10
-13.0885188354
 20
-21.3977632804
 10
-12.5436172741
 20
-21.5813603209
 10
-11.997534911
 20
-21.7368798227
 10
-11.4518462432
 20
-21.8638733829
 10
-10.9081246322
 20
-21.9619748462
 10
-10.3679377682
 20
-22.0309013608
 10
-9.8328431499
 20
-22.0704541935
 10
-9.3043835934
 20
-22.0805193034
 10
-8.7840827844
 20
-22.0610676702
 10
-8.273440885
 20
-22.0121553778
 10
-7.773930208
 20
-21.9339234532
 10
-7.2869909717
 20
-21.8265974593
 10
-6.8140271483
 20
-21.6904868445
 10
-6.3564024148
 20
-21.5259840512
 10
-5.9154362217
 20
-21.3335633833
 10
-5.4923999889
 20
-21.1137796396
 10
-5.0885134391
 20
-20.8672665135
 10
-4.704941082
 20
-20.594734766
 10
-4.3427888559
 20
-20.2969701769
 10
-4.0031009394
 20
-19.9748312784
 10
-3.6868567408
 20
-19.6292468804
 10
-3.3949680739
 20
-19.2612133923
 10
-3.1282765293
 20
-18.8717919497
 10
-2.8875510477
 20
-18.4621053556
 10
-2.6734857032
 20
-18.0333348424
 10
-2.4866977014
 20
-17.5867166666
 10
-2.3277256005
 20
-17.123538544
 10
-2.1970277583
 20
-16.6451359369
 10
-2.0949810104
 20
-16.152888204
 10
-2.0218795841
 20
-15.6482146228
 10
-1.9779342497
 20
-15.1325702981
 10
-1.9632717129
 20
-14.6074419658
  0
LWPOLYLINE
  5
298
330
289
100
AcDbEntity
  8
0
  6
Continuous
 62
     7
370
    15
100
AcDbPolyline
 90
       37
 70
   128
 43
0.0
 10
5.9176634372
 20
0.7638524787
 10
5.5811941182
 20
1.2991333341
 10
5.2206955456
 20
1.822853968
 10
4.8372012635
 20
2.3335128811
 10
4.4318107443
 20
2.8296460219
 10
4.0056862367
 20
3.3098309839
 10
3.5600494334
 20
3.7726910839
 10
3.0961779684
 20
4.216899309
 10
2.6154017543
 20
4.6411821208
 10
2.1190991695
 20
5.0443231066
 10
1.6086931061
 20
5.4251664673
 10
1.0856468908
 20
5.7826203305
 10
0.5514600893
 20
6.1156598814
 10
0.0076642072
 20
6.4233303004
 10
-0.5441817006
 20
6.704749501
 10
-1.1024955003
 20
6.9591106587
 10
-1.6656765142
 20
7.1856845236
 10
-2.2321101109
 20
7.3838215118
 10
-2.8001723336
 20
7.5529535676
 10
-3.3682345563
 20
7.6925957918
 10
-3.9346681529
 20
7.8023478323
 10
-4.4978491669
 20
7.8818950316
 10
-5.0561629665
 20
7.931009329
 10
-5.6080088744
 20
7.9495499146
 10
-6.1518047564
 20
7.9374636328
 10
-6.685991558
 20
7.8947851348
 10
-7.2090377733
 20
7.8216367792
 10
-7.7194438367
 20
7.7182282812
 10
-8.2157464215
 20
7.5848561115
 10
-8.6965226355
 20
7.4219026462
 10
-9.1603941005
 20
7.2298350703
 10
-9.6060309039
 20
7.0092040389
 10
-10.0321554115
 20
6.7606420977
 10
-10.4375459306
 20
6.4848618702
 10
-10.8210402127
 20
6.1826540143
 10
-11.1815387853
 20
5.8548849554
 10
-11.1819102374
 20
5.8545224341
  0
LWPOLYLINE
  5
29A
330
289
100
AcDbEntity
  8
0
  6
Continuous
 62
     7
370
    15
100
AcDbPolyline
 90
       24
 70
   128
 43
0.0
 10
8.7178357708
 20
-8.2355484433
 10
9.0249690283
 20
-7.8651735995
 10
9.3069740542
 20
-7.4728997439
 10
9.5630656616
 20
-7.059819085
 10
9.7925308144
 20
-6.6270817637
 10
9.9947306125
 20
-6.1758926512
 10
10.1691020707
 20
-5.7075079937
 10
10.3151596865
 20
-5.2232319152
 10
10.4324967913
 20
-4.7244127861
 10
10.5207866834
 20
-4.2124394691
 10
10.5797835372
 20
-3.688737452
 10
10.6093230875
 20
-3.1547648791
 10
10.6093230875
 20
-2.6120084907
 10
10.5797835372
 20
-2.0619794841
 10
10.5207866834
 20
-1.5062093057
 10
10.4324967913
 20
-0.9462453869
 10
10.3151596865
 20
-0.3836468361
 10
10.1691020707
 20
0.180019903
 10
9.9947306125
 20
0.7431854126
 10
9.7925308144
 20
1.3042816701
 10
9.5630656616
 20
1.8617464147
 10
9.3069740542
 20
2.4140274967
 10
9.0249690283
 20
2.9595871991
 10
8.7178357708
 20
3.4969065195
  0
SPLINE
  5
29D
330
289
100
AcDbEntity
  8
0
  6
Continuous
 62
     7
370
    15
100
AcDbSpline
210
0.0
220
0.0
230
1.0
 70
     8
 71
     3
 72
    56
 73
    52
 74
     0
 42
0.00000001
 43
0.00000001
 12
1.0
 22
0.0
 32
0.0
 13
1.0
 23
0.0
 33
0.0
 40
-0.0624999999999997
 40
-0.0624999999999997
 40
0.0
 40
0.0
 40
0.0625000000000002
 40
0.0625000000000002
 40
0.0937500000000003
 40
0.0937500000000003
 40
0.1250000000000004
 40
0.1250000000000004
 40
0.1562500000000004
 40
0.1562500000000004
 40
0.1875000000000005
 40
0.1875000000000005
 40
0.2187500000000005
 40
0.2187500000000005
 40
0.2500000000000006
 40
0.2500000000000006
 40
0.3125000000000007
 40
0.3125000000000007
 40
0.3437500000000008
 40
0.3437500000000008
 40
0.3750000000000008
 40
0.3750000000000008
 40
0.4062500000000009
 40
0.4062500000000009
 40
0.4375000000000009
 40
0.4375000000000009
 40
0.500000000000001
 40
0.500000000000001
 40
0.5625000000000012
 40
0.5625000000000012
 40
0.6250000000000013
 40
0.6250000000000013
 40
0.6562500000000012
 40
0.6562500000000012
 40
0.6875000000000011
 40
0.6875000000000011
 40
0.718750000000001
 40
0.718750000000001
 40
0.7500000000000009
 40
0.7500000000000009
 40
0.7812500000000008
 40
0.7812500000000008
 40
0.8125000000000007
 40
0.8125000000000007
 40
0.8437500000000006
 40
0.8437500000000006
 40
0.8750000000000004
 40
0.8750000000000004
 40
0.9375000000000003
 40
0.9375000000000003
 40
1.0
 40
1.0
 40
1.0625
 40
1.0625
 10
-7.161439823515366
 20
3.031253848965464
 30
0.0
 10
-7.586134466674605
 20
3.146676752870717
 30
0.0
 10
-7.773418417937684
 20
3.218129914180356
 30
0.0
 10
-8.003661410230942
 20
3.34225734320315
 30
0.0
 10
-8.07182451704325
 20
3.386568684714738
 30
0.0
 10
-8.186486396621044
 20
3.478597559452213
 30
0.0
 10
-8.233907685284747
 20
3.526866356961021
 30
0.0
 10
-8.307226490735275
 20
3.62819916297082
 30
0.0
 10
-8.332188704269536
 20
3.67988420246555
 30
0.0
 10
-8.359327105258757
 20
3.78615683609823
 30
0.0
 10
-8.36130918150028
 20
3.8413979492901
 30
0.0
 10
-8.341334137841752
 20
3.952020009278952
 30
0.0
 10
-8.319734665691934
 20
4.007362834871297
 30
0.0
 10
-8.253182875873529
 20
4.118653715274584
 30
0.0
 10
-8.207734266673706
 20
4.174786130838513
 30
0.0
 10
-8.041791532558973
 20
4.336646774414461
 30
0.0
 10
-7.886858195767505
 20
4.440476464274427
 30
0.0
 10
-7.611872420708358
 20
4.5726978016541
 30
0.0
 10
-7.511654487901578
 20
4.613611169584598
 30
0.0
 10
-7.30109802843441
 20
4.685347648679056
 30
0.0
 10
-7.191681577487942
 20
4.71600964291563
 30
0.0
 10
-6.964701769939772
 20
4.76631336621933
 30
0.0
 10
-6.846209363117788
 20
4.785944161277033
 30
0.0
 10
-6.610578432010756
 20
4.811554026091253
 30
0.0
 10
-6.492407747048909
 20
4.81785618308883
 30
0.0
 10
-6.136732852670082
 20
4.815905003316806
 30
0.0
 10
-5.902259101794629
 20
4.785594545336539
 30
0.0
 10
-5.482958072559576
 20
4.671415927726266
 30
0.0
 10
-5.293236571656939
 20
4.586322029719919
 30
0.0
 10
-4.988310378266088
 20
4.37828349875072
 30
0.0
 10
-4.87003778388269
 20
4.253395817727527
 30
0.0
 10
-4.760986450489443
 20
4.056050693541489
 30
0.0
 10
-4.735310829165629
 20
3.987342814618032
 30
0.0
 10
-4.708105921749541
 20
3.851518195761231
 30
0.0
 10
-4.706116531123554
 20
3.784010373320135
 30
0.0
 10
-4.725854889526667
 20
3.650569258863225
 30
0.0
 10
-4.747874385298131
 20
3.584956461455259
 30
0.0
 10
-4.814151334353251
 20
3.461840954842188
 30
0.0
 10
-4.858520770693352
 20
3.40349541363149
 30
0.0
 10
-4.970494784527595
 20
3.294100131266734
 30
0.0
 10
-5.036204837502837
 20
3.244870497494979
 30
0.0
 10
-5.186229613742961
 20
3.156685978316693
 30
0.0
 10
-5.271686199072136
 20
3.117385445400906
 30
0.0
 10
-5.455966046045365
 20
3.051418387605003
 30
0.0
 10
-5.554530512981318
 20
3.024580539124783
 30
0.0
 10
-5.764382288484102
 20
2.982247240663614
 30
0.0
 10
-5.876038311974763
 20
2.966884275827838
 30
0.0
 10
-6.215865655913107
 20
2.938570777202499
 30
0.0
 10
-6.458001442584757
 20
2.94261100706215
 30
0.0
 10
-6.928385220211331
 20
2.988874496600155
 30
0.0
 10
-7.161439823515366
 20
3.031253848965464
 30
0.0
 10
-7.586134466674605
 20
3.146676752870717
 30
0.0
  0
LWPOLYLINE
  5
29E
330
289
100
AcDbEntity
  8
0
  6
Continuous
 62
     7
370
    15
100
AcDbPolyline
 90
      114
 70
   128
 43
0.0
 10
-2.6265853041
 20
-14.4271675448
 10
-2.6412788649
 20
-13.9110778077
 10
-2.6853141304
 20
-13.3885964844
 10
-2.75855499
 20
-12.8613385348
 10
-2.8607750605
 20
-12.330933683
 10
-2.9916583854
 20
-11.79902138
 10
-3.150800412
 20
-11.2672457362
 10
-3.3377092413
 20
-10.7372504396
 10
-3.5518071489
 20
-10.2106736754
 10
-3.7924323704
 20
-9.6891430622
 10
-4.058841147
 20
-9.1742706211
 10
-4.3502100245
 20
-8.6676477935
 10
-4.6656383983
 20
-8.1708405213
 10
-5.0041512975
 20
-7.6853844075
 10
-5.3647023981
 20
-7.2127799691
 10
-5.7461772572
 20
-6.7544879993
 10
-6.147396758
 20
-6.3119250522
 10
-6.5671207539
 20
-5.8864590647
 10
-7.0040519022
 20
-5.4794051277
 10
-7.4568396737
 20
-5.0920214216
 10
-7.9240845274
 20
-4.7255053272
 10
-8.4043422361
 20
-4.3809897248
 10
-8.8961283509
 20
-4.0595394923
 10
-9.397922789
 20
-3.7621482141
 10
-9.9081745326
 20
-3.4897351094
 10
-10.4253064227
 20
-3.2431421917
 10
-10.9477200345
 20
-3.0231316654
 10
-11.4738006172
 20
-2.8303835705
 10
-12.001922086
 20
-2.6654936804
 10
-12.5304520477
 20
-2.5289716601
 10
-13.0577568465
 20
-2.4212394916
 10
-13.5822066134
 20
-2.3426301686
 10
-14.1021803043
 20
-2.2933866682
 10
-14.6160707103
 20
-2.2736611992
 10
-15.1222894255
 20
-2.2835147318
 10
-15.6192717571
 20
-2.3229168093
 10
-16.105481561
 20
-2.3917456423
 10
-16.5794159906
 20
-2.4897884847
 10
-17.0396101417
 20
-2.6167422917
 10
-17.4846415807
 20
-2.7722146564
 10
-17.9131347408
 20
-2.9557250225
 10
-18.3237651742
 20
-3.1667061702
 10
-18.7152636458
 20
-3.4045059686
 10
-19.0864200562
 20
-3.6683893924
 10
-19.4360871823
 20
-3.9575407929
 10
-19.7631842231
 20
-4.2710664198
 10
-20.0667001402
 20
-4.6079971832
 10
-20.3456967834
 20
-4.9672916496
 10
-20.59931179
 20
-5.3478392602
 10
-20.8267612507
 20
-5.7484637644
 10
-21.0273421322
 20
-6.1679268545
 10
-21.2004344503
 20
-6.6049319944
 10
-21.3455031868
 20
-7.0581284262
 10
-21.4620999425
 20
-7.5261153455
 10
-21.5498643234
 20
-8.0074462318
 10
-21.6085250549
 20
-8.5006333188
 10
-21.6379008201
 20
-9.0041521935
 10
-21.6379008201
 20
-9.5164465079
 10
-21.6085250549
 20
-10.0359327897
 10
-21.5498643234
 20
-10.5610053365
 10
-21.4620999425
 20
-11.0900411791
 10
-21.3455031868
 20
-11.6214050981
 10
-21.2004344503
 20
-12.1534546781
 10
-21.0273421322
 20
-12.6845453843
 10
-20.8267612507
 20
-13.2130356458
 10
-20.59931179
 20
-13.7372919294
 10
-20.3456967834
 20
-14.2556937891
 10
-20.0667001402
 20
-14.7666388744
 10
-19.7631842231
 20
-15.2685478832
 10
-19.4360871823
 20
-15.7598694437
 10
-19.0864200562
 20
-16.2390849091
 10
-18.7152636458
 20
-16.7047130517
 10
-18.3237651742
 20
-17.1553146418
 10
-17.9131347408
 20
-17.5894968955
 10
-17.4846415807
 20
-18.0059177805
 10
-17.0396101417
 20
-18.4032901637
 10
-16.5794159906
 20
-18.7803857897
 10
-16.105481561
 20
-19.1360390776
 10
-15.6192717571
 20
-19.4691507236
 10
-15.1222894255
 20
-19.7786910985
 10
-14.6160707103
 20
-20.0637034308
 10
-14.1021803043
 20
-20.3233067638
 10
-13.5822066134
 20
-20.5566986783
 10
-13.0577568465
 20
-20.7631577735
 10
-12.5304520477
 20
-20.942045896
 10
-12.001922086
 20
-21.0928101129
 10
-11.4738006172
 20
-21.2149844206
 10
-10.9477200345
 20
-21.3081911854
 10
-10.4253064227
 20
-21.3721423105
 10
-9.9081745326
 20
-21.4066401267
 10
-9.397922789
 20
-21.4115780031
 10
-8.8961283509
 20
-21.3869406771
 10
-8.4043422361
 20
-21.3328043012
 10
-7.9240845274
 20
-21.249336208
 10
-7.4568396737
 20
-21.1367943923
 10
-7.0040519022
 20
-20.9955267146
 10
-6.5671207539
 20
-20.8259698252
 10
-6.147396758
 20
-20.6286478147
 10
-5.7461772572
 20
-20.4041705941
 10
-5.3647023981
 20
-20.1532320097
 10
-5.0041512975
 20
-19.8766076981
 10
-4.6656383983
 20
-19.5751526894
 10
-4.3502100245
 20
-19.2497987637
 10
-4.058841147
 20
-18.9015515713
 10
-3.7924323704
 20
-18.5314875243
 10
-3.5518071489
 20
-18.1407504695
 10
-3.3377092413
 20
-17.7305481527
 10
-3.150800412
 20
-17.3021484859
 10
-2.9916583854
 20
-16.8568756277
 10
-2.8607750605
 20
-16.3961058911
 10
-2.75855499
 20
-15.921263489
 10
-2.6853141304
 20
-15.433816132
 10
-2.6412788649
 20
-14.9352704919
 10
-2.6265853041
 20
-14.4271675448
  0
SPLINE
  5
29F
330
289
100
AcDbEntity
  8
0
  6
Continuous
 62
     7
370
    15
100
AcDbSpline
210
0.0
220
0.0
230
1.0
 70
     8
 71
     3
 72
    19
 73
    15
 74
     0
 42
0.00000001
 43
0.00000001
 12
1.0
 22
0.0
 32
0.0
 13
1.0
 23
0.0
 33
0.0
 40
0.0
 40
0.0
 40
0.0
 40
0.0
 40
0.0325331822537777
 40
0.1224756965438371
 40
0.2102582989066283
 40
0.3005379387219034
 40
0.3891659775034992
 40
0.4803594556713875
 40
0.5690103408925584
 40
0.6602795730402646
 40
0.7481023432281008
 40
0.8384973329540011
 40
0.9259330395721672
 40
0.9999999999999999
 40
0.9999999999999999
 40
0.9999999999999999
 40
0.9999999999999999
 10
-7.754001304511431
 20
3.269005085433838
 30
0.0
 10
-7.734004002981427
 20
3.28301302613184
 30
0.0
 10
-7.658721375700166
 20
3.335747870228857
 30
0.0
 10
-7.495197487093651
 20
3.415706391140167
 30
0.0
 10
-7.268503160940472
 20
3.504901558152441
 30
0.0
 10
-7.020319572263022
 20
3.574505793917055
 30
0.0
 10
-6.755880379444792
 20
3.62286243562088
 30
0.0
 10
-6.486314329151052
 20
3.645839644902847
 30
0.0
 10
-6.215338818030555
 20
3.641721614184054
 30
0.0
 10
-5.956453666843188
 20
3.609668751503614
 30
0.0
 10
-5.712046932431691
 20
3.549850722601117
 30
0.0
 10
-5.495055741490623
 20
3.464830399105991
 30
0.0
 10
-5.313156732406894
 20
3.364296204307061
 30
0.0
 10
-5.223800122388757
 20
3.285974393266824
 30
0.0
 10
-5.182820164477019
 20
3.250055119702742
 30
0.0
  0
SPLINE
  5
2A0
330
289
100
AcDbEntity
  8
0
  6
Continuous
 62
     7
370
    15
100
AcDbSpline
210
0.0
220
0.0
230
1.0
 70
     8
 71
     3
 72
    54
 73
    50
 74
     0
 42
0.00000001
 43
0.00000001
 12
1.0
 22
0.0
 32
0.0
 13
1.0
 23
0.0
 33
0.0
 40
-0.0625
 40
-0.0625
 40
0.0
 40
0.0
 40
0.0312500000000003
 40
0.0312500000000003
 40
0.0625000000000006
 40
0.0625000000000006
 40
0.0937500000000009
 40
0.0937500000000009
 40
0.1250000000000012
 40
0.1250000000000012
 40
0.1875000000000013
 40
0.1875000000000013
 40
0.2500000000000015
 40
0.2500000000000015
 40
0.2812500000000013
 40
0.2812500000000013
 40
0.3125000000000011
 40
0.3125000000000011
 40
0.3750000000000012
 40
0.3750000000000012
 40
0.4062500000000011
 40
0.4062500000000011
 40
0.4375000000000009
 40
0.4375000000000009
 40
0.4687500000000008
 40
0.4687500000000008
 40
0.5000000000000007
 40
0.5000000000000007
 40
0.5625000000000003
 40
0.5625000000000003
 40
0.6250000000000001
 40
0.6250000000000001
 40
0.6562499999999999
 40
0.6562499999999999
 40
0.6874999999999998
 40
0.6874999999999998
 40
0.7499999999999994
 40
0.7499999999999994
 40
0.7812499999999996
 40
0.7812499999999996
 40
0.8124999999999997
 40
0.8124999999999997
 40
0.8437499999999998
 40
0.8437499999999998
 40
0.8749999999999998
 40
0.8749999999999998
 40
0.9375
 40
0.9375
 40
1.0
 40
1.0
 40
1.03125
 40
1.03125
 10
-7.467698944339627
 20
-16.26959821261864
 30
0.0
 10
-7.186822628793645
 20
-16.34593437673259
 30
0.0
 10
-7.089932774460327
 20
-16.3648701131176
 30
0.0
 10
-6.889896206628554
 20
-16.3904175408314
 30
0.0
 10
-6.785565913722994
 20
-16.39699583963081
 30
0.0
 10
-6.576758045849012
 20
-16.39746238237599
 30
0.0
 10
-6.472591525655361
 20
-16.3915262882356
 30
0.0
 10
-6.264683514161285
 20
-16.36805824237349
 30
0.0
 10
-6.16050848838685
 20
-16.35029612631919
 30
0.0
 10
-5.861840949169232
 20
-16.28266423357653
 30
0.0
 10
-5.673259112062254
 20
-16.21666599293404
 30
0.0
 10
-5.352394656226366
 20
-16.06072251490553
 30
0.0
 10
-5.216738692463229
 20
-15.9692316393612
 30
0.0
 10
-5.07026488468202
 20
-15.82644172034362
 30
0.0
 10
-5.029929966879634
 20
-15.77693118737457
 30
0.0
 10
-4.970264711773559
 20
-15.67875383787336
 30
0.0
 10
-4.950433632278157
 20
-15.6298072022817
 30
0.0
 10
-4.921153139309083
 20
-15.48272254067097
 30
0.0
 10
-4.942745704414476
 20
-15.38757450841514
 30
0.0
 10
-5.036073303820096
 20
-15.25220432566213
 30
0.0
 10
-5.076545685139298
 20
-15.20935827718333
 30
0.0
 10
-5.17556538587344
 20
-15.12729335078001
 30
0.0
 10
-5.234925800599173
 20
-15.08767133696802
 30
0.0
 10
-5.368665424022421
 20
-15.0140341740655
 30
0.0
 10
-5.442710393724266
 20
-14.98000531271273
 30
0.0
 10
-5.605120524537926
 20
-14.91708520516857
 30
0.0
 10
-5.694087152467151
 20
-14.88813638843089
 30
0.0
 10
-5.971264418509113
 20
-14.8127508144949
 30
0.0
 10
-6.177291699584499
 20
-14.77565723927171
 30
0.0
 10
-6.592407043272677
 20
-14.73685210008202
 30
0.0
 10
-6.80557391914291
 20
-14.7348214367828
 30
0.0
 10
-7.104570172955645
 20
-14.76220510469217
 30
0.0
 10
-7.202688867692783
 20
-14.77660169331616
 30
0.0
 10
-7.386356941931746
 20
-14.81532494884974
 30
0.0
 10
-7.47273547180181
 20
-14.83962913315596
 30
0.0
 10
-7.715305697268505
 20
-14.92860259805094
 30
0.0
 10
-7.849294448633085
 20
-15.0075525520612
 30
0.0
 10
-7.997605838490498
 20
-15.15197632966563
 30
0.0
 10
-8.037056292633203
 20
-15.20318274666656
 30
0.0
 10
-8.09675835245432
 20
-15.31133922798809
 30
0.0
 10
-8.117052804352095
 20
-15.36897065086933
 30
0.0
 10
-8.136545007529648
 20
-15.48597073056319
 30
0.0
 10
-8.136039344977009
 20
-15.5452726783158
 30
0.0
 10
-8.114637597499929
 20
-15.6648513202613
 30
0.0
 10
-8.09340449844459
 20
-15.7252645747609
 30
0.0
 10
-8.001325739741414
 20
-15.89912550251987
 30
0.0
 10
-7.899430118621136
 20
-16.00971143637765
 30
0.0
 10
-7.633802987379783
 20
-16.193987081104
 30
0.0
 10
-7.467698944339627
 20
-16.26959821261864
 30
0.0
 10
-7.186822628793645
 20
-16.34593437673259
 30
0.0
  0
LWPOLYLINE
  5
2A9
330
289
100
AcDbEntity
  8
0
  6
Continuous
 62
     7
370
    15
100
AcDbPolyline
 90
       20
 70
   128
 43
0.0
 10
-7.222262942
 20
11.111993118
 10
-7.4042259899
 20
11.1468334695
 10
-7.5812255603
 20
11.1514968551
 10
-7.7484335662
 20
11.12585607
 10
-7.9012890091
 20
11.0706105277
 10
-8.0356223909
 20
10.9872671828
 10
-8.1477694473
 20
10.8780994244
 10
-8.2346710988
 20
10.7460850644
 10
-8.2939568949
 20
10.5948251103
 10
-8.3240096737
 20
10.4284455395
 10
-8.3240096737
 20
10.2514847529
 10
-8.2939568949
 20
10.0687697794
 10
-8.2346710988
 20
9.8852846072
 10
-8.1477694473
 20
9.7060342336
 10
-8.0356223909
 20
9.5359081414
 10
-7.9012890091
 20
9.3795469269
 10
-7.7484335662
 20
9.2412157166
 10
-7.5812255603
 20
9.1246878251
 10
-7.4042259899
 20
9.0331418296
 10
-7.222262942
 20
8.9690748662
  0
LWPOLYLINE
  5
2AB
330
289
100
AcDbEntity
  8
0
  6
Continuous
 62
     7
370
    15
100
AcDbPolyline
 90
       20
 70
   128
 43
0.0
 10
1.6219182748
 20
6.5654159194
 10
1.8038813228
 20
6.5305755678
 10
1.9808808931
 20
6.5259121822
 10
2.148088899
 20
6.5515529673
 10
2.3009443419
 20
6.6067985096
 10
2.4352777237
 20
6.6901418545
 10
2.5474247801
 20
6.7993096129
 10
2.6343264316
 20
6.9313239729
 10
2.6936122278
 20
7.082583927
 10
2.7236650066
 20
7.2489634978
 10
2.7236650066
 20
7.4259242844
 10
2.6936122278
 20
7.6086392579
 10
2.6343264316
 20
7.7921244301
 10
2.5474247801
 20
7.9713748037
 10
2.4352777237
 20
8.1415008959
 10
2.3009443419
 20
8.2978621104
 10
2.148088899
 20
8.4361933207
 10
1.9808808931
 20
8.5527212122
 10
1.8038813228
 20
8.6442672077
 10
1.6219182748
 20
8.7083341711
  0
LWPOLYLINE
  5
2B3
330
289
100
AcDbEntity
  8
0
  6
Continuous
 62
     7
370
    15
100
AcDbPolyline
 90
       44
 70
   128
 43
0.0
 10
6.2551733669
 20
6.7643574783
 10
6.2631308084
 20
6.9718114811
 10
6.2868335341
 20
7.1903773759
 10
6.3257763614
 20
7.41539681
 10
6.3791292916
 20
7.6420738848
 10
6.4457551996
 20
7.8655773722
 10
6.5242340698
 20
8.0811436832
 10
6.6128932614
 20
8.2841783963
 10
6.7098431577
 20
8.470354179
 10
6.8130174399
 20
8.6357030177
 10
6.9202171273
 20
8.776700789
 10
7.0291574448
 20
8.8903423702
 10
7.1375165184
 20
8.9742056883
 10
7.2429848629
 20
9.0265033422
 10
7.3433146034
 20
9.0461206984
 10
7.4363673858
 20
9.0326396468
 10
7.5201599515
 20
8.9863475127
 10
7.5929064076
 20
8.9082309326
 10
7.6530562895
 20
8.7999548257
 10
7.699327607
 20
8.6638269093
 10
7.7307341672
 20
8.5027485136
 10
7.746606594
 20
8.3201527449
 10
7.746606594
 20
8.1199313151
 10
7.7307341672
 20
7.9063515962
 10
7.699327607
 20
7.6839656692
 10
7.6530562895
 20
7.457513304
 10
7.5929064076
 20
7.2318209397
 10
7.5201599515
 20
7.0116988171
 10
7.4363673858
 20
6.8018384572
 10
7.3433146034
 20
6.6067126691
 10
7.2429848629
 20
6.4304802202
 10
7.1375165184
 20
6.2768971993
 10
7.0291574448
 20
6.1492369617
 10
6.9202171273
 20
6.0502203639
 10
6.8130174399
 20
5.9819577726
 10
6.7098431577
 20
5.9459040865
 10
6.6128932614
 20
5.9428277274
 10
6.5242340698
 20
5.9727942625
 10
6.4457551996
 20
6.035165007
 10
6.3791292916
 20
6.1286106369
 10
6.3257763614
 20
6.2511395209
 10
6.2868335341
 20
6.4001401684
 10
6.2631308084
 20
6.5724368894
 10
6.2551733669
 20
6.7643574783
  0
SPLINE
  5
2B4
330
289
100
AcDbEntity
  8
0
  6
Continuous
 62
     7
370
    15
100
AcDbSpline
210
0.0
220
0.0
230
1.0
 70
     8
 71
     3
 72
    17
 73
    13
 74
     0
 42
0.00000001
 43
0.00000001
 12
1.0
 22
0.0
 32
0.0
 13
1.0
 23
0.0
 33
0.0
 40
0.0
 40
0.0
 40
0.0
 40
0.0
 40
0.0204913122797772
 40
0.1073041003320439
 40
0.1918751092867277
 40
0.2792936828290835
 40
0.4387329161760606
 40
0.6103305956118183
 40
0.7074907798643828
 40
0.8072500120330266
 40
0.9020981745680065
 40
1.0
 40
1.0
 40
1.0
 40
1.0
 10
-7.60641795907773
 20
11.14436033245634
 30
0.0
 10
-7.610976399617506
 20
11.13090483744176
 30
0.0
 10
-7.634846972392908
 20
11.06044425554497
 30
0.0
 10
-7.650321968990861
 20
10.92915579430518
 30
0.0
 10
-7.647264800488294
 20
10.75390513400956
 30
0.0
 10
-7.598536724862215
 20
10.53566301284537
 30
0.0
 10
-7.464597447809791
 20
10.283050299504
 30
0.0
 10
-7.251772004178018
 20
10.07267559151546
 30
0.0
 10
-7.037404535686635
 20
9.92548506837996
 30
0.0
 10
-6.855113588542689
 20
9.827944887562708
 30
0.0
 10
-6.666056447260045
 20
9.747280449370376
 30
0.0
 10
-6.543844925824771
 20
9.71049946152817
 30
0.0
 10
-6.481771090368115
 20
9.691817614183202
 30
0.0
  0
SPLINE
  5
2B5
330
289
100
AcDbEntity
  8
0
  6
Continuous
 62
     7
370
    15
100
AcDbSpline
210
0.0
220
0.0
230
1.0
 70
     8
 71
     3
 72
    11
 73
     7
 74
     0
 42
0.00000001
 43
0.00000001
 12
1.0
 22
0.0
 32
0.0
 13
1.0
 23
0.0
 33
0.0
 40
0.0
 40
0.0
 40
0.0
 40
0.0
 40
0.0573941047716202
 40
0.5114176191578399
 40
0.9787799183991392
 40
1.0
 40
1.0
 40
1.0
 40
1.0
 10
2.362410126406099
 20
7.288158667343987
 30
0.0
 10
2.36946954221018
 20
7.286260621938383
 30
0.0
 10
2.432373382901391
 20
7.269347842023942
 30
0.0
 10
2.547409799763896
 20
7.248212241396271
 30
0.0
 10
2.658550535431077
 20
7.227201856454097
 30
0.0
 10
2.70514345590675
 20
7.233873910414141
 30
0.0
 10
2.70716707692397
 20
7.234163690674396
 30
0.0
  0
LWPOLYLINE
  5
2C1
330
289
100
AcDbEntity
  8
0
  6
Continuous
 62
     7
370
    15
100
AcDbPolyline
 90
       18
 70
   128
 43
0.0
 10
1.6219182748
 20
-16.5781011996
 10
1.8038813228
 20
-16.6129415511
 10
1.9808808931
 20
-16.6176049368
 10
2.148088899
 20
-16.5919641516
 10
2.3009443419
 20
-16.5367186094
 10
2.4352777237
 20
-16.4533752645
 10
2.5474247801
 20
-16.3442075061
 10
2.6343264316
 20
-16.212193146
 10
2.6936122278
 20
-16.060933192
 10
2.7236650066
 20
-15.8945536212
 10
2.7236650066
 20
-15.7175928345
 10
2.6936122278
 20
-15.534877861
 10
2.6343264316
 20
-15.3513926889
 10
2.5474247801
 20
-15.1721423153
 10
2.4352777237
 20
-15.0020162231
 10
2.3009443419
 20
-14.8456550086
 10
2.148088899
 20
-14.7073237982
 10
2.1279036541
 20
-14.6915104228
  0
LWPOLYLINE
  5
2C5
330
289
100
AcDbEntity
  8
0
  6
Continuous
 62
     7
370
    15
100
AcDbPolyline
 90
       44
 70
   128
 43
0.0
 10
6.2551733669
 20
-15.5219923399
 10
6.2631308084
 20
-15.3145383371
 10
6.2868335341
 20
-15.0959724424
 10
6.3257763614
 20
-14.8709530083
 10
6.3791292916
 20
-14.6442759334
 10
6.4457551996
 20
-14.4207724461
 10
6.5242340698
 20
-14.205206135
 10
6.6128932614
 20
-14.002171422
 10
6.7098431577
 20
-13.8159956393
 10
6.8130174399
 20
-13.6506468006
 10
6.9202171273
 20
-13.5096490293
 10
7.0291574448
 20
-13.3960074481
 10
7.1375165184
 20
-13.31214413
 10
7.2429848629
 20
-13.259846476
 10
7.3433146034
 20
-13.2402291199
 10
7.4363673858
 20
-13.2537101715
 10
7.5201599515
 20
-13.3000023055
 10
7.5929064076
 20
-13.3781188857
 10
7.6530562895
 20
-13.4863949925
 10
7.699327607
 20
-13.6225229089
 10
7.7307341672
 20
-13.7836013046
 10
7.746606594
 20
-13.9661970733
 10
7.746606594
 20
-14.1664185032
 10
7.7307341672
 20
-14.3799982221
 10
7.699327607
 20
-14.6023841491
 10
7.6530562895
 20
-14.8288365142
 10
7.5929064076
 20
-15.0545288785
 10
7.5201599515
 20
-15.2746510011
 10
7.4363673858
 20
-15.4845113611
 10
7.3433146034
 20
-15.6796371492
 10
7.2429848629
 20
-15.8558695981
 10
7.1375165184
 20
-16.009452619
 10
7.0291574448
 20
-16.1371128565
 10
6.9202171273
 20
-16.2361294544
 10
6.8130174399
 20
-16.3043920456
 10
6.7098431577
 20
-16.3404457317
 10
6.6128932614
 20
-16.3435220908
 10
6.5242340698
 20
-16.3135555558
 10
6.4457551996
 20
-16.2511848112
 10
6.3791292916
 20
-16.1577391813
 10
6.3257763614
 20
-16.0352102974
 10
6.2868335341
 20
-15.8862096499
 10
6.2631308084
 20
-15.7139129289
 10
6.2551733669
 20
-15.5219923399
  0
LWPOLYLINE
  5
2C9
330
289
100
AcDbEntity
  8
0
  6
Continuous
 62
     8
370
    15
100
AcDbPolyline
 90
       47
 70
   128
 43
0.0
 10
-19.7578452251
 20
-2.5653578125
 10
-19.5523778172
 20
-2.408048045
 10
-19.1535790188
 20
-2.1349906158
 10
-18.7345652361
 20
-1.8883570099
 10
-18.2965043357
 20
-1.6688346396
 10
-17.8406172718
 20
-1.4770353529
 10
-17.3681746834
 20
-1.313493729
 10
-16.8804933528
 20
-1.1786655876
 10
-16.3789325354
 20
-1.072926719
 10
-15.864890171
 20
-0.9965718364
 10
-15.3397989879
 20
-0.9498137545
 10
-14.8051225095
 20
-0.9327827964
 10
-14.262350975
 20
-0.9455264306
 10
-13.712997186
 20
-0.9880091382
 10
-13.1585922901
 20
-1.0601125123
 10
-12.6006815131
 20
-1.1616355878
 10
-12.0408198524
 20
-1.2922954018
 10
-11.4805677429
 20
-1.4517277819
 10
-10.9214867077
 20
-1.6394883614
 10
-10.365135006
 20
-1.855053818
 10
-9.8130632896
 20
-2.0978233321
 10
-9.2668102816
 20
-2.3671202614
 10
-8.7278984869
 20
-2.6621940272
 10
-8.1978299495
 20
-2.9822222059
 10
-7.6780820654
 20
-3.3263128216
 10
-7.1701034652
 20
-3.693506832
 10
-6.6753099764
 20
-4.0827808016
 10
-6.1950806771
 20
-4.493049754
 10
-5.7307540526
 20
-4.9231701961
 10
-5.2836242644
 20
-5.3719433049
 10
-4.8549375434
 20
-5.8381182695
 10
-4.4458887165
 20
-6.3203957765
 10
-4.0576178761
 20
-6.817431632
 10
-3.6912072026
 20
-7.327840508
 10
-3.3476779483
 20
-7.8501998033
 10
-3.0279875908
 20
-8.383053609
 10
-2.7330271646
 20
-8.9249167659
 10
-2.4636187772
 20
-9.4742790042
 10
-2.2205133182
 20
-10.0296091527
 10
-2.004388366
 20
-10.5893594069
 10
-1.8158462996
 20
-11.1519696423
 10
-1.6554126196
 20
-11.7158717632
 10
-1.5235344835
 20
-12.2794940735
 10
-1.4205794593
 20
-12.8412656564
 10
-1.346834501
 20
-13.399620754
 10
-1.3025051492
 20
-13.9530031304
 10
-1.2877149576
 20
-14.4998704097
  0
SPLINE
  5
2CA
330
289
100
AcDbEntity
  8
0
  6
Continuous
 62
     8
370
    15
100
AcDbSpline
210
0.0
220
0.0
230
1.0
 70
     8
 71
     3
 72
    27
 73
    23
 74
     0
 42
0.00000001
 43
0.00000001
 12
1.0
 22
0.0
 32
0.0
 13
1.0
 23
0.0
 33
0.0
 40
0.0
 40
0.0
 40
0.0
 40
0.0
 40
0.0080108132837345
 40
0.0619228418398132
 40
0.1153872339975492
 40
0.1688507283083428
 40
0.2219911253077025
 40
0.2751280583739507
 40
0.3282614525375226
 40
0.381394085709054
 40
0.4570650208570212
 40
0.510971827388708
 40
0.5648818351372366
 40
0.6183317287255592
 40
0.6717806690895238
 40
0.7248047669235451
 40
0.7778253464284803
 40
0.8311161591794274
 40
0.8844062980018625
 40
0.9382453087735176
 40
0.9920877908386135
 40
1.0
 40
1.0
 40
1.0
 40
1.0
 10
-4.936768868296092
 20
3.644989079858077
 30
0.0
 10
-4.935845590497756
 20
3.652614625441759
 30
0.0
 10
-4.928708738962777
 20
3.711559383782255
 30
0.0
 10
-4.958688931899792
 20
3.825187123610056
 30
0.0
 10
-5.029713941172776
 20
3.978572913727006
 30
0.0
 10
-5.145940509518031
 20
4.12288054973322
 30
0.0
 10
-5.300378168376509
 20
4.251938335993705
 30
0.0
 10
-5.488598878922624
 20
4.361896542681153
 30
0.0
 10
-5.706699062188913
 20
4.447852616337097
 30
0.0
 10
-5.981365235747715
 20
4.516480583933324
 30
0.0
 10
-6.280856711898601
 20
4.546132703176524
 30
0.0
 10
-6.588697363091545
 20
4.536278223147692
 30
0.0
 10
-6.857625861099322
 20
4.501131341111095
 30
0.0
 10
-7.116243989311032
 20
4.441402603500081
 30
0.0
 10
-7.357594847743838
 20
4.361719881945905
 30
0.0
 10
-7.575138249249838
 20
4.265153965996592
 30
0.0
 10
-7.76452644828614
 20
4.156047818283738
 30
0.0
 10
-7.91903914328451
 20
4.037831745901109
 30
0.0
 10
-8.037348306552264
 20
3.913796478013812
 30
0.0
 10
-8.10805432614549
 20
3.788182976479661
 30
0.0
 10
-8.13894743706375
 20
3.697703677533613
 30
0.0
 10
-8.131775121616307
 20
3.651494419595179
 30
0.0
 10
-8.130856181550953
 20
3.645573941219528
 30
0.0
  0
SPLINE
  5
2CB
330
289
100
AcDbEntity
  8
0
  6
Continuous
 62
     8
370
    15
100
AcDbSpline
210
0.0
220
0.0
230
1.0
 70
     8
 71
     3
 72
    19
 73
    15
 74
     0
 42
0.00000001
 43
0.00000001
 12
1.0
 22
0.0
 32
0.0
 13
1.0
 23
0.0
 33
0.0
 40
0.0
 40
0.0
 40
0.0
 40
0.0
 40
0.0706845683540409
 40
0.156689592496033
 40
0.2405846163836234
 40
0.3269403819131765
 40
0.4101768986662545
 40
0.4957806227150394
 40
0.5785028531633639
 40
0.6635941041677113
 40
0.7462818572697447
 40
0.8313904573047849
 40
0.9508701546030398
 40
1.0
 40
1.0
 40
1.0
 40
1.0
 10
-7.924168766584767
 20
-15.96912954629878
 30
0.0
 10
-7.885512179559311
 20
-15.93651716640069
 30
0.0
 10
-7.799820422371694
 20
-15.86422386907216
 30
0.0
 10
-7.623657665403407
 20
-15.7776263853495
 30
0.0
 10
-7.409152892410379
 20
-15.7063976528202
 30
0.0
 10
-7.171252326232199
 20
-15.65972561693571
 30
0.0
 10
-6.914220535599734
 20
-15.63560579176312
 30
0.0
 10
-6.649983768202882
 20
-15.63341664304883
 30
0.0
 10
-6.380395022035888
 20
-15.65133457937411
 30
0.0
 10
-6.117794248182884
 20
-15.68722039039003
 30
0.0
 10
-5.863755628877106
 20
-15.73973925532976
 30
0.0
 10
-5.598172322638659
 20
-15.81628578789814
 30
0.0
 10
-5.387353417370886
 20
-15.89773668630006
 30
0.0
 10
-5.282473858428403
 20
-15.96186362921111
 30
0.0
 10
-5.251913805694853
 20
-15.98054908876837
 30
0.0
  0
LINE
  5
2CD
330
289
100
AcDbEntity
  8
0
  6
Continuous
 62
     7
370
    15
100
AcDbLine
 10
-11.1819102374
 20
5.8545224341
 30
0.0
 11
-20.2824703215
 21
-3.0279031986
 31
0.0
  0
LINE
  5
2CE
330
289
100
AcDbEntity
  8
0
  6
Continuous
 62
     7
370
    15
100
AcDbLine
 10
-3.5189945139
 20
-20.2030561484
 30
0.0
 11
5.5815655702
 21
-11.3206305157
 31
0.0
  0
LINE
  5
2CF
330
289
100
AcDbEntity
  8
0
  6
Continuous
 62
     7
370
    15
100
AcDbLine
 10
-8.2160321929
 20
16.0448346386
 30
0.0
 11
-11.0162045265
 21
13.3117805978
 31
0.0
  0
LINE
  5
2D0
330
289
100
AcDbEntity
  8
0
  6
Continuous
 62
     7
370
    15
100
AcDbLine
 10
5.4158598593
 20
-18.7778886794
 30
0.0
 11
8.2160321929
 21
-16.0448346386
 31
0.0
  0
LINE
  5
2D1
330
289
100
AcDbEntity
  8
0
  6
Continuous
 62
     7
370
    15
100
AcDbLine
 10
8.7178357708
 20
3.4969065195
 30
0.0
 11
5.9176634372
 21
0.7638524787
 31
0.0
  0
LINE
  5
2D2
330
289
100
AcDbEntity
  8
0
  6
Continuous
 62
     7
370
    15
100
AcDbLine
 10
5.9176634372
 20
-10.9686024841
 30
0.0
 11
8.7178357708
 21
-8.2355484433
 31
0.0
  0
LINE
  5
2D3
330
289
100
AcDbEntity
  8
0
  6
Continuous
 62
     7
370
    15
100
AcDbLine
 10
5.5815655702
 20
-11.3206305157
 30
0.0
 11
5.9176634372
 21
-10.9686024841
 31
0.0
  0
LINE
  5
2D4
330
289
100
AcDbEntity
  8
0
  6
Continuous
 62
     7
370
    15
100
AcDbLine
 10
-11.2021444895
 20
12.8365151196
 30
0.0
 11
-11.2021444895
 21
6.3943540203
 31
0.0
  0
LINE
  5
2D5
330
289
100
AcDbEntity
  8
0
  6
Continuous
 62
     7
370
    15
100
AcDbLine
 10
4.7173817007
 20
9.3670963159
 30
0.0
 11
-10.3177263678
 21
13.4533165256
 31
0.0
  0
LINE
  5
2D6
330
289
100
AcDbEntity
  8
0
  6
Continuous
 62
     7
370
    15
100
AcDbLine
 10
5.6017998224
 20
1.8274020213
 30
0.0
 11
5.6017998224
 21
8.2695631206
 31
0.0
  0
LINE
  5
2D7
330
289
100
AcDbEntity
  8
0
  6
Continuous
 62
     7
370
    15
100
AcDbLine
 10
1.6219182748
 20
8.7083341711
 30
0.0
 11
-7.222262942
 21
11.111993118
 31
0.0
  0
LINE
  5
2D8
330
289
100
AcDbEntity
  8
0
  6
Continuous
 62
     7
370
    15
100
AcDbLine
 10
-7.222262942
 20
8.9690748662
 30
0.0
 11
1.6219182748
 21
6.5654159194
 31
0.0
  0
LINE
  5
2D9
330
289
100
AcDbEntity
  8
0
  6
Continuous
 62
     7
370
    15
100
AcDbLine
 10
4.7173817007
 20
9.3670963159
 30
0.0
 11
7.5175540343
 21
12.1001503568
 31
0.0
  0
LINE
  5
2DA
330
289
100
AcDbEntity
  8
0
  6
Continuous
 62
     7
370
    15
100
AcDbLine
 10
8.4019721559
 20
11.0026171614
 30
0.0
 11
5.6017998224
 21
8.2695631206
 31
0.0
  0
LINE
  5
2DB
330
289
100
AcDbEntity
  8
0
  6
Continuous
 62
     7
370
    15
100
AcDbLine
 10
-7.5175540343
 20
16.1863705664
 30
0.0
 11
-10.3177263678
 21
13.4533165256
 31
0.0
  0
LINE
  5
2DC
330
289
100
AcDbEntity
  8
0
  6
Continuous
 62
     7
370
    15
100
AcDbLine
 10
7.5175540343
 20
12.1001503568
 30
0.0
 11
-7.5175540343
 21
16.1863705664
 31
0.0
  0
LINE
  5
2DD
330
289
100
AcDbEntity
  8
0
  6
Continuous
 62
     7
370
    15
100
AcDbLine
 10
8.4019721559
 20
4.5604560621
 30
0.0
 11
8.4019721559
 21
11.0026171614
 31
0.0
  0
LINE
  5
2DE
330
289
100
AcDbEntity
  8
0
  6
Continuous
 62
     7
370
    15
100
AcDbLine
 10
5.6017998224
 20
1.8274020213
 30
0.0
 11
8.4019721559
 21
4.5604560621
 31
0.0
  0
LINE
  5
2DF
330
289
100
AcDbEntity
  8
0
  6
Continuous
 62
     7
370
    15
100
AcDbLine
 10
-6.4817710904
 20
9.6918176142
 30
0.0
 11
2.3624101264
 21
7.2881586673
 31
0.0
  0
LINE
  5
2E0
330
289
100
AcDbEntity
  8
0
  6
Continuous
 62
     7
370
    15
100
AcDbLine
 10
2.3624101264
 20
7.2881586673
 30
0.0
 11
1.6219182748
 21
6.5654159194
 31
0.0
  0
LINE
  5
2E1
330
289
100
AcDbEntity
  8
0
  6
Continuous
 62
     7
370
    15
100
AcDbLine
 10
-6.4817710904
 20
9.6918176142
 30
0.0
 11
-7.222262942
 21
8.9690748662
 31
0.0
  0
LINE
  5
2E2
330
289
100
AcDbEntity
  8
0
  6
Continuous
 62
     7
370
    15
100
AcDbLine
 10
5.6017998224
 20
-18.3026232012
 30
0.0
 11
5.6017998224
 21
-11.8604621019
 31
0.0
  0
LINE
  5
2E3
330
289
100
AcDbEntity
  8
0
  6
Continuous
 62
     7
370
    15
100
AcDbLine
 10
-6.9752140924
 20
-15.7416276127
 30
0.0
 11
-5.5137537739
 21
-16.138821212
 31
0.0
  0
LINE
  5
2E4
330
289
100
AcDbEntity
  8
0
  6
Continuous
 62
     7
370
    15
100
AcDbLine
 10
-0.6963658378
 20
-17.4480840288
 30
0.0
 11
4.7173817007
 21
-18.9194246072
 31
0.0
  0
LINE
  5
2E5
330
289
100
AcDbEntity
  8
0
  6
Continuous
 62
     7
370
    15
100
AcDbLine
 10
0.5057752759
 20
-16.2747574485
 30
0.0
 11
1.6219182748
 21
-16.5781011996
 31
0.0
  0
LINE
  5
2E6
330
289
100
AcDbEntity
  8
0
  6
Continuous
 62
     7
370
    15
100
AcDbLine
 10
8.4019721559
 20
-9.1274080611
 30
0.0
 11
5.6017998224
 21
-11.8604621019
 31
0.0
  0
LINE
  5
2E7
330
289
100
AcDbEntity
  8
0
  6
Continuous
 62
     7
370
    15
100
AcDbLine
 10
5.6017998224
 20
-18.3026232012
 30
0.0
 11
8.4019721559
 21
-15.5695691604
 31
0.0
  0
LINE
  5
2E8
330
289
100
AcDbEntity
  8
0
  6
Continuous
 62
     7
370
    15
100
AcDbLine
 10
8.4019721559
 20
-15.5695691604
 30
0.0
 11
8.4019721559
 21
-9.1274080611
 31
0.0
  0
LINE
  5
2E9
330
289
100
AcDbEntity
  8
0
  6
Continuous
 62
     8
370
    15
100
AcDbLine
 10
2.6930621423
 20
-15.5326319475
 30
0.0
 11
1.6219182748
 21
-16.5781011996
 31
0.0
  0
ARC
  5
2EA
330
289
100
AcDbEntity
  8
0
  6
Continuous
 62
     7
370
    15
100
AcDbCircle
 10
-8.3416348764
 20
-15.2620092176
 30
0.0
 40
6.904472882687738
100
AcDbArc
 50
308.4949629866
 51
319.7563512439
  0
ARC
  5
2EB
330
289
100
AcDbEntity
  8
0
  6
Continuous
 62
     7
370
    15
100
AcDbCircle
 10
-15.4588086376
 20
-7.9700029708
 30
0.0
 40
6.905932585019659
100
AcDbArc
 50
128.4999202123
 51
139.7467672075
  0
ARC
  5
2EC
330
289
100
AcDbEntity
  8
0
  6
Continuous
 62
     7
370
    15
100
AcDbCircle
 10
-12.5480628283
 20
6.3647007717
 30
0.0
 40
1.34624495906919
100
AcDbArc
 50
325.7818109746
 51
1.2621353892
  0
ARC
  5
2ED
330
289
100
AcDbEntity
  8
0
  6
Continuous
 62
     7
370
    15
100
AcDbCircle
 10
-10.5521512216
 20
12.8469785671
 30
0.0
 40
0.650077481544452
100
AcDbArc
 50
68.862298024
 51
180.9222550965
  0
ARC
  5
2EE
330
289
100
AcDbEntity
  8
0
  6
Continuous
 62
     7
370
    15
100
AcDbCircle
 10
4.3894276275
 20
8.1977141093
 30
0.0
 40
1.214499328616511
100
AcDbArc
 50
3.391562315
 51
74.3338098233
  0
ARC
  5
2EF
330
289
100
AcDbEntity
  8
0
  6
Continuous
 62
     7
370
    15
100
AcDbCircle
 10
7.6966772533
 20
1.8708807967
 30
0.0
 40
2.095328579178717
100
AcDbArc
 50
181.1889921036
 51
211.8927974768
  0
ARC
  5
2F0
330
289
100
AcDbEntity
  8
0
  6
Continuous
 62
     7
370
    15
100
AcDbCircle
 10
7.1895999611
 20
10.9307681502
 30
0.0
 40
1.214499328616505
100
AcDbArc
 50
3.391562315
 51
74.3338098233
  0
ARC
  5
2F1
330
289
100
AcDbEntity
  8
0
  6
Continuous
 62
     7
370
    15
100
AcDbCircle
 10
10.4968495869
 20
4.6039348375
 30
0.0
 40
2.095328579178732
100
AcDbArc
 50
181.1889921036
 51
211.8927974768
  0
ARC
  5
2F2
330
289
100
AcDbEntity
  8
0
  6
Continuous
 62
     7
370
    15
100
AcDbCircle
 10
-7.7435804841
 20
15.507549708
 30
0.0
 40
0.7154618884849859
100
AcDbArc
 50
71.583829316
 51
131.326192755
  0
ARC
  5
2F3
330
289
100
AcDbEntity
  8
0
  6
Continuous
 62
     7
370
    15
100
AcDbCircle
 10
6.9249081502
 20
-11.8271946228
 30
0.0
 40
1.323526491004851
100
AcDbArc
 50
139.5551746644
 51
181.4403088489
  0
ARC
  5
2F4
330
289
100
AcDbEntity
  8
0
  6
Continuous
 62
     7
370
    15
100
AcDbCircle
 10
4.9518065545
 20
-18.3130866487
 30
0.0
 40
0.6500774815444528
100
AcDbArc
 50
248.862298024
 51
0.9222550965
  0
ARC
  5
2F5
330
289
100
AcDbEntity
  8
0
  6
Continuous
 62
     7
370
    15
100
AcDbCircle
 10
9.7250804838
 20
-9.0941405819
 30
0.0
 40
1.323526491004841
100
AcDbArc
 50
139.5551746644
 51
181.4403088489
  0
ARC
  5
2F6
330
289
100
AcDbEntity
  8
0
  6
Continuous
 62
     7
370
    15
100
AcDbCircle
 10
7.7566522264
 20
-15.5911038793
 30
0.0
 40
0.6456791429339026
100
AcDbArc
 50
315.3544713609
 51
1.9112857848
  0
ARC
  5
2F7
330
289
100
AcDbEntity
  8
0
  6
Continuous
 62
     8
370
    15
100
AcDbCircle
 10
-9.2332201875
 20
-14.7021885558
 30
0.0
 40
7.948080648204562
100
AcDbArc
 50
320.8282536266
 51
1.4586198375
  0
VIEWPORT
  5
37A
330
289
100
AcDbEntity
  8
0
100
AcDbViewport
 10
0.0
 20
0.0
 30
0.0
 40
243.84
 41
204.216
 68
     1
 69
     1
 12
10.9413581274
 22
-0.7593179437
 13
0.0
 23
0.0
 14
10.0
 24
10.0
 15
10.0
 25
10.0
 16
0.0
 26
0.0
 36
1.0
 17
0.0
 27
0.0
 37
0.0
 42
50.0
 43
0.0
 44
0.0
 45
38.3913139752
 50
0.0
 51
0.0
 72
   100
 90
   557152
  1

281
     0
 71
     1
 74
     0
110
0.0
120
0.0
130
0.0
111
1.0
121
0.0
131
0.0
112
0.0
122
1.0
132
0.0
 79
     0
146
0.0
  0
ENDBLK
  5
28C
330
289
100
AcDbEntity
  8
0
100
AcDbBlockEnd
  0
ENDSEC
  0
SECTION
  2
ENTITIES
  0
SPLINE
  5
44
330
1F
100
AcDbEntity
  8
0
  6
Continuous
 62
     7
370
    15
100
AcDbSpline
210
0.0
220
0.0
230
1.0
 70
     8
 71
     3
 72
    51
 73
    47
 74
     0
 42
0.00000001
 43
0.00000001
 12
1.0
 22
0.0
 32
0.0
 13
1.0
 23
0.0
 33
0.0
 40
0.0
 40
0.0
 40
0.0
 40
0.0
 40
0.01483171065914
 40
0.0364964913912989
 40
0.0581944345742298
 40
0.0800098761461802
 40
0.1020117339751894
 40
0.1242460877696764
 40
0.1467321864876125
 40
0.1694628647397728
 40
0.192409470408806
 40
0.2155299664519069
 40
0.2387777783966167
 40
0.2621090234218235
 40
0.2854868743126972
 40
0.3088831270086245
 40
0.3322732620661559
 40
0.355645704874072
 40
0.3789940606600397
 40
0.4023152720378746
 40
0.4256085250133398
 40
0.4488744481196288
 40
0.4721145521343332
 40
0.4953308515998977
 40
0.5185256170526757
 40
0.5417012182036058
 40
0.5648600289665369
 40
0.5880043738111886
 40
0.611136501323328
 40
0.6342585754328125
 40
0.6573726779553642
 40
0.6804808182701899
 40
0.703584947422022
 40
0.7266869749102348
 40
0.749788787060924
 40
0.77289181733334
 40
0.7959977814035987
 40
0.8191086012870409
 40
0.842226247085873
 40
0.8653527554142119
 40
0.8884902461079186
 40
0.9116409358441909
 40
0.9348071465617834
 40
0.9579913054006234
 40
0.9811959311228733
 40
1.0
 40
1.0
 40
1.0
 40
1.0
 10
18.20312173225757
 20
-17.95175911835152
 30
0.0
 10
18.26817431365918
 20
-17.97141935137486
 30
0.0
 10
18.42824964358362
 20
-18.01979742061972
 30
0.0
 10
18.6924967550591
 20
-18.06384531594908
 30
0.0
 10
18.99309159558625
 20
-18.0882254841516
 30
0.0
 10
19.29989701055611
 20
-18.082657449304
 30
0.0
 10
19.61215895329135
 20
-18.04844743196912
 30
0.0
 10
19.92957129149282
 20
-17.98506051490602
 30
0.0
 10
20.2515358114152
 20
-17.8924304507846
 30
0.0
 10
20.57730394506821
 20
-17.77045471441228
 30
0.0
 10
20.90594160132362
 20
-17.61924109450531
 30
0.0
 10
21.23639810667981
 20
-17.43910641523165
 30
0.0
 10
21.567577589598
 20
-17.23058575458724
 30
0.0
 10
21.89840840090489
 20
-16.99439106861196
 30
0.0
 10
22.22788770761476
 20
-16.73135947379179
 30
0.0
 10
22.55507798462463
 20
-16.44242316799712
 30
0.0
 10
22.87913286893702
 20
-16.12855667086114
 30
0.0
 10
23.19928256183276
 20
-15.79075429052463
 30
0.0
 10
23.51483430748929
 20
-15.42999632066349
 30
0.0
 10
23.82512689393776
 20
-15.04727718313113
 30
0.0
 10
24.12951816343211
 20
-14.64361166088534
 30
0.0
 10
24.42737848138443
 20
-14.22003948289683
 30
0.0
 10
24.71808730899753
 20
-13.77762919605982
 30
0.0
 10
25.00103201690099
 20
-13.3174809091892
 30
0.0
 10
25.27560820548022
 20
-12.84072784334878
 30
0.0
 10
25.54122097412467
 20
-12.3485367859369
 30
0.0
 10
25.79728674216144
 20
-11.84210760595729
 30
0.0
 10
26.04323535054732
 20
-11.3226719954836
 30
0.0
 10
26.27851226510413
 20
-10.79149158697222
 30
0.0
 10
26.50258076545053
 20
-10.24985557313003
 30
0.0
 10
26.71492404605338
 20
-9.699077932765345
 30
0.0
 10
26.91504718288058
 20
-9.14049434579155
 30
0.0
 10
27.10247893672165
 20
-8.575458863131148
 30
0.0
 10
27.27677337179298
 20
-8.005340386841826
 30
0.0
 10
27.43751024144935
 20
-7.431522713334256
 30
0.0
 10
27.58429724647928
 20
-6.855398636815456
 30
0.0
 10
27.71677165241101
 20
-6.278364501196553
 30
0.0
 10
27.83460148905548
 20
-5.701812638800895
 30
0.0
 10
27.9374860297532
 20
-5.127129046169255
 30
0.0
 10
28.02515272628979
 20
-4.555693254346676
 30
0.0
 10
28.09736816214321
 20
-3.988865792152191
 30
0.0
 10
28.15389665526709
 20
-3.428016749210693
 30
0.0
 10
28.19465287972103
 20
-2.874401339756003
 30
0.0
 10
28.21912800503623
 20
-2.329607891197896
 30
0.0
 10
28.22793116539103
 20
-1.827910490895675
 30
0.0
 10
28.22260703464347
 20
-1.512679805683889
 30
0.0
 10
28.22022382987497
 20
-1.371575218325576
 30
0.0
  0
SPLINE
  5
45
330
1F
100
AcDbEntity
  8
0
  6
Continuous
 62
     7
370
    15
100
AcDbSpline
210
0.0
220
0.0
230
1.0
 70
     8
 71
     3
 72
    27
 73
    23
 74
     0
 42
0.00000001
 43
0.00000001
 12
1.0
 22
0.0
 32
0.0
 13
1.0
 23
0.0
 33
0.0
 40
0.0
 40
0.0
 40
0.0
 40
0.0
 40
0.0277367914890155
 40
0.0805339856694386
 40
0.1333892646554979
 40
0.1863143459697659
 40
0.2393119612112263
 40
0.2923819687801842
 40
0.3455196410976255
 40
0.3987132704064361
 40
0.4519409931866387
 40
0.5051533486666765
 40
0.5582873789328422
 40
0.6112606127135666
 40
0.6639704145431027
 40
0.7163021791090837
 40
0.7681456829651261
 40
0.8194177092763021
 40
0.8700848792657885
 40
0.9201787953489815
 40
0.9697981825780184
 40
1.0
 40
1.0
 40
1.0
 40
1.0
 10
28.22022382987497
 20
-1.371575218325576
 30
0.0
 10
28.21754516708255
 20
-1.280742891279382
 30
0.0
 10
28.20976764923148
 20
-1.017010536815927
 30
0.0
 10
28.18442214736085
 20
-0.5902580815397608
 30
0.0
 10
28.13877521953891
 20
-0.096868782736426
 30
0.0
 10
28.07649750999627
 20
0.3812365494457485
 30
0.0
 10
27.99784767970852
 20
0.8431662477445534
 30
0.0
 10
27.9027429128991
 20
1.287758133526226
 30
0.0
 10
27.79121033987778
 20
1.713933092586552
 30
0.0
 10
27.6632706292912
 20
2.120591157637877
 30
0.0
 10
27.51899429973843
 20
2.506587865070046
 30
0.0
 10
27.35851639864196
 20
2.870732311147638
 30
0.0
 10
27.18207366022082
 20
3.211789203141516
 30
0.0
 10
26.99003023698215
 20
3.528511447231614
 30
0.0
 10
26.78292471536892
 20
3.819661462986048
 30
0.0
 10
26.56149633430867
 20
4.084053853030369
 30
0.0
 10
26.32669954724405
 20
4.320691785156905
 30
0.0
 10
26.07960163388567
 20
4.528657035312862
 30
0.0
 10
25.82151890132115
 20
4.707874415860093
 30
0.0
 10
25.55311669026001
 20
4.856503107475009
 30
0.0
 10
25.31261041773656
 20
4.964578289152565
 30
0.0
 10
25.15831831053239
 20
5.011131069187429
 30
0.0
 10
25.09993906066005
 20
5.028745167712321
 30
0.0
  0
SPLINE
  5
48
330
1F
100
AcDbEntity
  8
0
  6
Continuous
 62
     7
370
    15
100
AcDbSpline
210
0.0
220
0.0
230
1.0
 70
     8
 71
     3
 72
    10
 73
     6
 74
     0
 42
0.00000001
 43
0.00000001
 12
1.0
 22
0.0
 32
0.0
 13
1.0
 23
0.0
 33
0.0
 40
0.0
 40
0.0
 40
0.0
 40
0.0
 40
0.2895635754869915
 40
0.6741150937452152
 40
0.9999999999999999
 40
0.9999999999999999
 40
0.9999999999999999
 40
0.9999999999999999
 10
13.23438138486288
 20
6.613298965657644
 30
0.0
 10
13.23477165749727
 20
6.601926471424661
 30
0.0
 10
13.23568022713718
 20
6.575450869294484
 30
0.0
 10
13.2186969513337
 20
6.523117210496591
 30
0.0
 10
13.19068527920982
 20
6.478254326920074
 30
0.0
 10
13.1778360208819
 20
6.457675234823726
 30
0.0
  0
SPLINE
  5
49
330
1F
100
AcDbEntity
  8
0
  6
Continuous
 62
     7
370
    15
100
AcDbSpline
210
0.0
220
0.0
230
1.0
 70
     8
 71
     3
 72
    30
 73
    26
 74
     0
 42
0.00000001
 43
0.00000001
 12
1.0
 22
0.0
 32
0.0
 13
1.0
 23
0.0
 33
0.0
 40
0.0
 40
0.0
 40
0.0
 40
0.0
 40
0.0235227755289248
 40
0.0666589387479317
 40
0.1108758621232119
 40
0.1560484315411502
 40
0.2012442903914005
 40
0.2473431998106728
 40
0.2937798648771753
 40
0.3404148443434388
 40
0.3873600926104355
 40
0.4342196975373329
 40
0.4811268819224506
 40
0.5273785366055902
 40
0.5736730205902338
 40
0.61961063811586
 40
0.6652337673902198
 40
0.7111935322968929
 40
0.7563179435587993
 40
0.8019132851799639
 40
0.848011160535205
 40
0.8940946984946918
 40
0.9423115046347602
 40
0.9916420326461993
 40
1.0
 40
1.0
 40
1.0
 40
1.0
 10
13.1778360208819
 20
6.457675234823726
 30
0.0
 10
13.16793791974749
 20
6.444315483491
 30
0.0
 10
13.13988863974527
 20
6.406456564815325
 30
0.0
 10
13.07275201047351
 20
6.337482847980843
 30
0.0
 10
12.96958466149354
 20
6.253596640407078
 30
0.0
 10
12.84034698448405
 20
6.169344257504374
 30
0.0
 10
12.68805953897346
 20
6.087829741684411
 30
0.0
 10
12.51609580831549
 20
6.012065581323975
 30
0.0
 10
12.32621790837933
 20
5.944509365040391
 30
0.0
 10
12.12310464501985
 20
5.887300939091445
 30
0.0
 10
11.91035201033529
 20
5.842900841993647
 30
0.0
 10
11.69204085445199
 20
5.813064138389924
 30
0.0
 10
11.47350480840979
 20
5.798780193752722
 30
0.0
 10
11.25863945361809
 20
5.801611391534997
 30
0.0
 10
11.05176460341163
 20
5.820924975596001
 30
0.0
 10
10.85644763017649
 20
5.856718754307876
 30
0.0
 10
10.6760660563406
 20
5.908545766395733
 30
0.0
 10
10.51396169533844
 20
5.973931597655032
 30
0.0
 10
10.37360348648924
 20
6.051461569440074
 30
0.0
 10
10.25555926243238
 20
6.138698215611139
 30
0.0
 10
10.16271634906422
 20
6.231843931885962
 30
0.0
 10
10.09447257933707
 20
6.329431826312458
 30
0.0
 10
10.05318056747926
 20
6.428113223252065
 30
0.0
 10
10.03584514985093
 20
6.497218936981323
 30
0.0
 10
10.03913000735776
 20
6.534186847959995
 30
0.0
 10
10.03960592082422
 20
6.539542796163213
 30
0.0
  0
LWPOLYLINE
  5
4C
330
1F
100
AcDbEntity
  8
0
  6
Continuous
 62
     7
370
    15
100
AcDbPolyline
 90
      118
 70
   128
 43
0.0
 10
28.1448128651
 20
-1.5104381199
 10
28.1230869296
 20
-0.9863920115
 10
28.0839109393
 20
-0.478492317
 10
28.0273978485
 20
0.0117965574
 10
27.9537105992
 20
0.4830609818
 10
27.8630616508
 20
0.933942179
 10
27.7557123676
 20
1.3631401417
 10
27.6319722655
 20
1.7694173811
 10
27.4921981192
 20
2.1516024948
 10
27.3367929338
 20
2.508593544
 10
27.1662047825
 20
2.8393612313
 10
26.9809255153
 20
3.1429518678
 10
26.7814893402
 20
3.418490123
 10
26.5684712834
 20
3.6651815488
 10
26.3424855309
 20
3.88231487
 10
26.1041836584
 20
4.069264035
 10
25.8542527517
 20
4.225490021
 10
25.5934134263
 20
4.350542388
 10
25.3224177496
 20
4.4440605777
 10
25.0420470723
 20
4.5057749529
 10
24.7531097755
 20
4.5355075751
 10
24.4564389403
 20
4.5331727174
 10
24.1528899456
 20
4.498777112
 10
23.8433380016
 20
4.43241993
 10
23.5286756268
 20
4.3342924967
 10
23.2098100742
 20
4.2046777386
 10
22.8876607157
 20
4.0439493687
 10
22.5631563915
 20
3.8525708086
 10
22.2372327313
 20
3.631093852
 10
21.9108294576
 20
3.3801570746
 10
21.5848876754
 20
3.1004839918
 10
21.2603471593
 20
2.7928809737
 10
20.9381436437
 20
2.4582349194
 10
20.6192061246
 20
2.0975107
 10
20.3044541814
 20
1.7117483769
 10
19.9947953256
 20
1.3020602027
 10
19.6911223838
 20
0.8696274145
 10
19.3943109236
 20
0.4156968279
 10
19.1052167293
 20
-0.0584227576
 10
18.8246733344
 20
-0.5513643326
 10
18.5534896181
 20
-1.0617066189
 10
18.2924474732
 20
-1.5879781675
 10
18.0422995518
 20
-2.1286616014
 10
17.8037670951
 20
-2.6821979903
 10
17.577537854
 20
-3.2469913454
 10
17.3642641059
 20
-3.8214132212
 10
17.1645607743
 20
-4.4038074109
 10
16.9790036554
 20
-4.9924947213
 10
16.8081277586
 20
-5.5857778143
 10
16.6524257634
 20
-6.1819461012
 10
16.5123465987
 20
-6.7792806746
 10
16.3882941493
 20
-7.3760592643
 10
16.2806260903
 20
-7.9705612031
 10
16.1896528566
 20
-8.5610723879
 10
16.1156367477
 20
-9.1458902222
 10
16.0587911712
 20
-9.7233285248
 10
16.0192800275
 20
-10.2917223916
 10
15.9972172375
 20
-10.8494329958
 10
15.992666414
 20
-11.3948523135
 10
16.0056406781
 20
-11.9264077596
 10
16.0361026217
 20
-12.4425667221
 10
16.0839644151
 20
-12.9418409811
 10
16.1490880604
 20
-13.4227909997
 10
16.2312857893
 20
-13.8840300744
 10
16.3303206044
 20
-14.3242283336
 10
16.4459069627
 20
-14.7421165718
 10
16.5777115988
 20
-15.136489909
 10
16.7253544859
 20
-15.5062112648
 10
16.8884099312
 20
-15.8502146368
 10
17.0664078037
 20
-16.1675081742
 10
17.2588348895
 20
-16.4571770376
 10
17.4651363715
 20
-16.7183860367
 10
17.684717429
 20
-16.9503820384
 10
17.9169449531
 20
-17.152496138
 10
18.1611493717
 20
-17.3241455884
 10
18.4166265802
 20
-17.4648354798
 10
18.6826399717
 20
-17.5741601666
 10
18.9584225607
 20
-17.6518044377
 10
19.2431791946
 20
-17.6975444244
 10
19.5360888464
 20
-17.7112482465
 10
19.8363069817
 20
-17.6928763924
 10
20.1429679939
 20
-17.6424818328
 10
20.4551876999
 20
-17.5602098684
 10
20.7720658894
 20
-17.4462977105
 10
21.0926889206
 20
-17.3010737973
 10
21.4161323544
 20
-17.124956847
 10
21.7414636195
 20
-16.9184546504
 10
22.0677447018
 20
-16.6821626066
 10
22.3940348483
 20
-16.416762007
 10
22.7193932801
 20
-16.12301807
 10
23.0428819047
 20
-15.8017777355
 10
23.3635680206
 20
-15.4539672226
 10
23.6805270066
 20
-15.080589359
 10
23.9928449881
 20
-14.6827206897
 10
24.2996214713
 20
-14.2615083731
 10
24.5999719404
 20
-13.8181668733
 10
24.8930304071
 20
-13.3539744588
 10
25.177951908
 20
-12.8702695163
 10
25.4539149406
 20
-12.3684466924
 10
25.7201238322
 20
-11.8499528722
 10
25.9758110335
 20
-11.3162830077
 10
26.2202393321
 20
-10.7689758073
 10
26.4527039781
 20
-10.2096092992
 10
26.6725347156
 20
-9.6397962818
 10
26.8790977158
 20
-9.0611796738
 10
27.0717974039
 20
-8.4754277764
 10
27.250078177
 20
-7.8842294641
 10
27.4134260054
 20
-7.2892893147
 10
27.561369915
 20
-6.6923226945
 10
27.6934833453
 20
-6.095050813
 10
27.809385379
 20
-5.4991957595
 10
27.9087418406
 20
-4.9064755385
 10
27.9912662597
 20
-4.3185991158
 10
28.0567206969
 20
-3.7372614912
 10
28.1049164303
 20
-3.1641388116
 10
28.1357144989
 20
-2.6008835382
 10
28.1490261042
 20
-2.0491196816
 10
28.1448128651
 20
-1.5104381199
  0
LWPOLYLINE
  5
50
330
1F
100
AcDbEntity
  8
0
  6
Continuous
 62
     7
370
    15
100
AcDbPolyline
 90
       31
 70
   128
 43
0.0
 10
8.5248108545
 20
9.9789462481
 10
8.4048974321
 20
10.0116119278
 10
8.1105846242
 20
10.0665348658
 10
7.8076212542
 20
10.0882395238
 10
7.4968759135
 20
10.0766636751
 10
7.1792395046
 20
10.0318405072
 10
6.8556226863
 20
9.9538985277
 10
6.5269532631
 20
9.8430611949
 10
6.1941735256
 20
9.699646278
 10
5.8582375482
 20
9.5240649453
 10
5.5201084544
 20
9.3168205859
 10
5.1807556554
 20
9.0785073663
 10
4.8411520706
 20
8.8098085271
 10
4.5022713384
 20
8.5114944237
 10
4.1650850249
 20
8.1844203184
 10
3.8305598382
 20
7.8295239277
 10
3.4996548572
 20
7.4478227344
 10
3.1733187814
 20
7.04041107
 10
2.8524872117
 20
6.6084569779
 10
2.5380799673
 20
6.153198864
 10
2.2309984491
 20
5.6759419465
 10
1.9321230554
 20
5.178054514
 10
1.6423106575
 20
4.6609640025
 10
1.3623921432
 20
4.1261529027
 10
1.0931700348
 20
3.5751545101
 10
0.835416188
 20
3.009548529
 10
0.5898695793
 20
2.4309565433
 10
0.3572341873
 20
1.8410373678
 10
0.1381769741
 20
1.2414822919
 10
-0.0666740265
 20
0.6340102313
 10
-0.2567315097
 20
0.0203627992
  0
LWPOLYLINE
  5
53
330
1F
100
AcDbEntity
  8
0
  6
Continuous
 62
     7
370
    15
100
AcDbPolyline
 90
       24
 70
   128
 43
0.0
 10
-5.3500134631
 20
1.5403125589
 10
-5.5223062897
 20
0.9312521035
 10
-5.6792233526
 20
0.3195987618
 10
-5.8203277474
 20
-0.2929444391
 10
-5.9452265971
 20
-0.9046719945
 10
-6.0535721455
 20
-1.5138806706
 10
-6.1450627261
 20
-2.118874247
 10
-6.2194436016
 20
-2.7179682395
 10
-6.2765076731
 20
-3.3094945898
 10
-6.3160960572
 20
-3.8918063106
 10
-6.3380985278
 20
-4.4632820707
 10
-6.3424538235
 20
-5.0223307094
 10
-6.3291498177
 20
-5.567395667
 10
-6.2982235529
 20
-6.0969593184
 10
-6.249761137
 20
-6.6095471991
 10
-6.1838975041
 20
-7.10373211
 10
-6.1008160383
 20
-7.5781380914
 10
-6.0007480634
 20
-8.0314442543
 10
-5.8839721989
 20
-8.4623884578
 10
-5.7508135838
 20
-8.8697708235
 10
-5.601642972
 20
-9.2524570761
 10
-5.4368756992
 20
-9.609381702
 10
-5.2569705272
 20
-9.9395509154
 10
-5.0624283661
 20
-10.2420454259
  0
SPLINE
  5
54
330
1F
100
AcDbEntity
  8
0
  6
Continuous
 62
     7
370
    15
100
AcDbSpline
210
0.0
220
0.0
230
1.0
 70
     8
 71
     3
 72
    56
 73
    52
 74
     0
 42
0.00000001
 43
0.00000001
 12
1.0
 22
0.0
 32
0.0
 13
1.0
 23
0.0
 33
0.0
 40
-0.0624999999999997
 40
-0.0624999999999997
 40
0.0
 40
0.0
 40
0.0625000000000002
 40
0.0625000000000002
 40
0.0937500000000003
 40
0.0937500000000003
 40
0.1250000000000004
 40
0.1250000000000004
 40
0.1562500000000004
 40
0.1562500000000004
 40
0.1875000000000005
 40
0.1875000000000005
 40
0.2187500000000005
 40
0.2187500000000005
 40
0.2500000000000006
 40
0.2500000000000006
 40
0.3125000000000007
 40
0.3125000000000007
 40
0.3437500000000008
 40
0.3437500000000008
 40
0.3750000000000008
 40
0.3750000000000008
 40
0.4062500000000009
 40
0.4062500000000009
 40
0.4375000000000009
 40
0.4375000000000009
 40
0.500000000000001
 40
0.500000000000001
 40
0.5625000000000012
 40
0.5625000000000012
 40
0.6250000000000013
 40
0.6250000000000013
 40
0.6562500000000012
 40
0.6562500000000012
 40
0.6875000000000011
 40
0.6875000000000011
 40
0.718750000000001
 40
0.718750000000001
 40
0.7500000000000009
 40
0.7500000000000009
 40
0.7812500000000008
 40
0.7812500000000008
 40
0.8125000000000007
 40
0.8125000000000007
 40
0.8437500000000006
 40
0.8437500000000006
 40
0.8750000000000004
 40
0.8750000000000004
 40
0.9375000000000003
 40
0.9375000000000003
 40
1.0
 40
1.0
 40
1.0625
 40
1.0625
 10
13.28699136171106
 20
6.433201464600514
 30
0.0
 10
13.03336716051423
 20
6.221246374372813
 30
0.0
 10
12.86957297860464
 20
6.122336674890885
 30
0.0
 10
12.58132843898856
 20
5.993583586255545
 30
0.0
 10
12.47798856154252
 20
5.95402793982233
 30
0.0
 10
12.26420599447943
 20
5.885017965985964
 30
0.0
 10
12.15247751336025
 20
5.855036232095396
 30
0.0
 10
11.92076653372126
 20
5.805936211924544
 30
0.0
 10
11.80394926553835
 20
5.787462682910612
 30
0.0
 10
11.56834422067364
 20
5.763236972942208
 30
0.0
 10
11.44818104523304
 20
5.757543669541088
 30
0.0
 10
11.21377415489704
 20
5.76061460346667
 30
0.0
 10
11.09953404142766
 20
5.769172874376494
 30
0.0
 10
10.87697393989215
 20
5.800943325442279
 30
0.0
 10
10.76841097621834
 20
5.824454322717966
 30
0.0
 10
10.46680453196396
 20
5.91453913881832
 30
0.0
 10
10.2895855724742
 20
6.00348231474912
 30
0.0
 10
10.0853918701198
 20
6.16435576316764
 30
0.0
 10
10.02628769914889
 20
6.223353594199555
 30
0.0
 10
9.930435305989475
 20
6.347207774359314
 30
0.0
 10
9.893786826479127
 20
6.411515084686773
 30
0.0
 10
9.842494564627353
 20
6.543931803649771
 30
0.0
 10
9.828034106246603
 20
6.612562132808089
 30
0.0
 10
9.822647055280024
 20
6.747234417624481
 30
0.0
 10
9.831322548985767
 20
6.813890949974564
 30
0.0
 10
9.891943722252204
 20
7.010743031943458
 30
0.0
 10
9.97947587429333
 20
7.135122511342543
 30
0.0
 10
10.23022935295045
 20
7.34433808890852
 30
0.0
 10
10.39621893255995
 20
7.43164458062091
 30
0.0
 10
10.77889920068502
 20
7.558260485013125
 30
0.0
 10
10.9993866300103
 20
7.598969254160289
 30
0.0
 10
11.34428249116284
 20
7.624725003619826
 30
0.0
 10
11.46386144091638
 20
7.627629014919294
 30
0.0
 10
11.70080716921229
 20
7.622520924676673
 30
0.0
 10
11.81885770032671
 20
7.614675318296672
 30
0.0
 10
12.05413652422115
 20
7.588958611450418
 30
0.0
 10
12.17083835877082
 20
7.571008564918984
 30
0.0
 10
12.39277921827278
 20
7.527032211583776
 30
0.0
 10
12.49950051005142
 20
7.500847551594905
 30
0.0
 10
12.70335417101906
 20
7.440052805013617
 30
0.0
 10
12.79709085937689
 20
7.406467088734001
 30
0.0
 10
12.96890396096966
 20
7.333009377749224
 30
0.0
 10
13.04771663254687
 20
7.292619551975365
 30
0.0
 10
13.18402479303419
 20
7.207559989772911
 30
0.0
 10
13.24179173392592
 20
7.162976004110704
 30
0.0
 10
13.33688019709244
 20
7.068961221790236
 30
0.0
 10
13.37396577065261
 20
7.019371235527172
 30
0.0
 10
13.44959965957863
 20
6.868316842257267
 30
0.0
 10
13.4543529569737
 20
6.760393536705465
 30
0.0
 10
13.37321898986782
 20
6.543978651957808
 30
0.0
 10
13.28699136171106
 20
6.433201464600514
 30
0.0
 10
13.03336716051423
 20
6.221246374372813
 30
0.0
  0
LWPOLYLINE
  5
55
330
1F
100
AcDbEntity
  8
0
  6
Continuous
 62
     7
370
    15
100
AcDbPolyline
 90
      114
 70
   128
 43
0.0
 10
27.7486873607
 20
-1.8414823051
 10
27.7273600163
 20
-1.3345410137
 10
27.6885488425
 20
-0.8438330689
 10
27.6323738024
 20
-0.3708752206
 10
27.5590085298
 20
0.0828706454
 10
27.4686797926
 20
0.5160020267
 10
27.3616667918
 20
0.927180139
 10
27.2383002983
 20
1.3151340544
 10
27.098961631
 20
1.6786646295
 10
26.9440814777
 20
2.0166482122
 10
26.7741385641
 20
2.3280401145
 10
26.5896581739
 20
2.611877842
 10
26.3912105255
 20
2.8672840685
 10
26.1794090092
 20
3.0934693479
 10
25.9549082914
 20
3.2897345546
 10
25.7184022909
 20
3.4554730441
 10
25.4706220341
 20
3.5901725281
 10
25.2123333958
 20
3.6934166583
 10
24.9443347311
 20
3.764886313
 10
24.6674544088
 20
3.8043605835
 10
24.3825482499
 20
3.8117174573
 10
24.0904968831
 20
3.7869341945
 10
23.7922030224
 20
3.7300873989
 10
23.488588677
 20
3.6413527807
 10
23.1805923016
 20
3.5210046134
 10
22.8691658952
 20
3.3694148863
 10
22.5552720589
 20
3.1870521546
 10
22.2398810208
 20
2.9744800911
 10
21.9239676363
 20
2.7323557438
 10
21.6085083758
 20
2.4614275052
 10
21.2944783055
 20
2.162532799
 10
20.9828480746
 20
1.8365954915
 10
20.6745809142
 20
1.4846230364
 10
20.3706296603
 20
1.1077033602
 10
20.0719338091
 20
0.7070015002
 10
19.7794166121
 20
0.2837560027
 10
19.4939822232
 20
-0.1607249045
 10
19.2165129039
 20
-0.6250673566
 10
18.9478662959
 20
-1.1078360976
 10
18.6888727704
 20
-1.6075389169
 10
18.4403328616
 20
-2.1226312619
 10
18.2030147922
 20
-2.6515210115
 10
17.9776520986
 20
-3.192573398
 10
17.764941364
 20
-3.7441160593
 10
17.5655400651
 20
-4.3044442087
 10
17.38006454
 20
-4.871825904
 10
17.2090880828
 20
-5.4445074009
 10
17.053139172
 20
-6.0207185738
 10
16.9126998366
 20
-6.5986783868
 10
16.7882041667
 20
-7.1766003994
 10
16.6800369713
 20
-7.7526982877
 10
16.5885325888
 20
-8.3251913661
 10
16.5139738542
 20
-8.8923100914
 10
16.4565912242
 20
-9.4523015321
 10
16.4165620653
 20
-10.0034347867
 10
16.3940101052
 20
-10.544006334
 10
16.3890050508
 20
-11.0723452982
 10
16.4015623723
 20
-11.5868186139
 10
16.431643256
 20
-12.0858360735
 10
16.4791547234
 20
-12.5678552428
 10
16.5439499194
 20
-13.031386228
 10
16.6258285657
 20
-13.4749962814
 10
16.72453758
 20
-13.8973142299
 10
16.8397718586
 20
-14.2970347127
 10
16.9711752188
 20
-14.6729222169
 10
17.1183415004
 20
-15.0238148956
 10
17.2808158209
 20
-15.3486281598
 10
17.4580959814
 20
-15.6463580302
 10
17.6496340191
 20
-15.9160842408
 10
17.8548379009
 20
-16.1569730835
 10
18.0730733534
 20
-16.3682799845
 10
18.3036658234
 20
-16.5493518064
 10
18.5459025626
 20
-16.6996288666
 10
18.7990348312
 20
-16.8186466672
 10
19.0622802119
 20
-16.9060373311
 10
19.3348250283
 20
-16.9615307388
 10
19.61582686
 20
-16.9849553632
 10
19.9044171464
 20
-16.9762388003
 10
20.1997038715
 20
-16.9354079923
 10
20.5007743209
 20
-16.8625891451
 10
20.8066979032
 20
-16.7580073374
 10
21.116529026
 20
-16.6219858257
 10
21.4293100192
 20
-16.4549450447
 10
21.7440740946
 20
-16.2574013078
 10
22.0598483345
 20
-16.0299652114
 10
22.3756566988
 20
-15.7733397475
 10
22.690523042
 20
-15.4883181306
 10
23.0034741301
 20
-15.1757813463
 10
23.3135426495
 20
-14.8366954278
 10
23.6197701959
 20
-14.4721084702
 10
23.9212102377
 20
-14.083147391
 10
24.216931041
 20
-13.6710144466
 10
24.5060185496
 20
-13.2369835163
 10
24.7875792107
 20
-12.7823961647
 10
25.0607427363
 20
-12.3086574954
 10
25.3246647938
 20
-11.8172318075
 10
25.5785296151
 20
-11.3096380696
 10
25.8215525186
 20
-10.7874452247
 10
26.0529823344
 20
-10.2522673412
 10
26.2721037263
 20
-9.7057586231
 10
26.4782394026
 20
-9.1496082976
 10
26.6707522097
 20
-8.5855353935
 10
26.8490471016
 20
-8.0152834278
 10
27.012572979
 20
-7.4406150166
 10
27.1608243928
 20
-6.8633064271
 10
27.2933431062
 20
-6.2851420871
 10
27.4097195117
 20
-5.7079090693
 10
27.5095938964
 20
-5.1333915679
 10
27.5926575542
 20
-4.5633653837
 10
27.6586537402
 20
-3.9995924348
 10
27.707378464
 20
-3.4438153113
 10
27.7386811202
 20
-2.8977518882
 10
27.7524649541
 20
-2.3630900164
 10
27.7486873607
 20
-1.8414823051
  0
SPLINE
  5
56
330
1F
100
AcDbEntity
  8
0
  6
Continuous
 62
     7
370
    15
100
AcDbSpline
210
0.0
220
0.0
230
1.0
 70
     8
 71
     3
 72
    19
 73
    15
 74
     0
 42
0.00000001
 43
0.00000001
 12
1.0
 22
0.0
 32
0.0
 13
1.0
 23
0.0
 33
0.0
 40
0.0
 40
0.0
 40
0.0
 40
0.0
 40
0.0294290984321299
 40
0.1197049233360002
 40
0.209550535614587
 40
0.2994005356114929
 40
0.3898967097369809
 40
0.4803940840103729
 40
0.5716339003229352
 40
0.6628695545077135
 40
0.7537839311744919
 40
0.8446952156049811
 40
0.9347041137625237
 40
1.0
 40
1.0
 40
1.0
 40
1.0
 10
10.30206919957512
 20
6.108490111485717
 30
0.0
 10
10.31622140534066
 20
6.121889367343449
 30
0.0
 10
10.37378649555594
 20
6.176391780963365
 30
0.0
 10
10.51275610936832
 20
6.254288191254318
 30
0.0
 10
10.71425832564756
 20
6.337791392696766
 30
0.0
 10
10.94424083606202
 20
6.398588346612508
 30
0.0
 10
11.19429856455491
 20
6.436604295855091
 30
0.0
 10
11.45860117070202
 20
6.452629524363349
 30
0.0
 10
11.7295124386784
 20
6.446620187553933
 30
0.0
 10
11.99899853329171
 20
6.420650325389887
 30
0.0
 10
12.25877263022533
 20
6.376129864753555
 30
0.0
 10
12.49964557167908
 20
6.315382012877367
 30
0.0
 10
12.69970150861369
 20
6.248640141069788
 30
0.0
 10
12.80341688585729
 20
6.197944205535089
 30
0.0
 10
12.84702267366322
 20
6.176629755679147
 30
0.0
  0
LWPOLYLINE
  5
5B
330
1F
100
AcDbEntity
  8
0
  6
Continuous
 62
     7
370
    15
100
AcDbPolyline
 90
        9
 70
   128
 43
0.0
 10
9.7852039101
 20
16.0158810394
 10
9.7709563145
 20
16.1753361337
 10
9.7369590713
 20
16.3117010016
 10
9.6845186755
 20
16.4197352178
 10
9.6156503823
 20
16.4952870878
 10
9.5330007613
 20
16.5354531958
 10
9.4397459913
 20
16.5386899807
 10
9.3394698007
 20
16.5048730546
 10
9.2360257474
 20
16.4353019831
  0
LWPOLYLINE
  5
5E
330
1F
100
AcDbEntity
  8
0
  6
Continuous
 62
     7
370
    15
100
AcDbPolyline
 90
       20
 70
   128
 43
0.0
 10
2.1425356099
 20
8.9700835668
 10
2.0342269518
 20
8.8645946343
 10
1.929589072
 20
8.7326322402
 10
1.8314762194
 20
8.5777959743
 10
1.7425646567
 20
8.4043093666
 10
1.6652796596
 20
8.2169046793
 10
1.6017293612
 20
8.0206938239
 10
1.5536472482
 20
7.8210289209
 10
1.5223448753
 20
7.6233563085
 10
1.5086760894
 20
7.4330679802
 10
1.5130137396
 20
7.2553545056
 10
1.5352395059
 20
7.0950634449
 10
1.5747471275
 20
6.9565671206
 10
1.6304589394
 20
6.8436433512
 10
1.7008552686
 20
6.7593724028
 10
1.7840158867
 20
6.7060529673
 10
1.877672389
 20
6.6851394598
 10
1.97927007
 20
6.6972023463
 10
2.0860376101
 20
6.7419125828
 10
2.1950626689
 20
6.8180505904
  0
LWPOLYLINE
  5
60
330
1F
100
AcDbEntity
  8
0
  6
Continuous
 62
     7
370
    15
100
AcDbPolyline
 90
       20
 70
   128
 43
0.0
 10
7.4767360605
 20
11.2319730591
 10
7.5850447187
 20
11.3374619916
 10
7.6896825984
 20
11.4694243857
 10
7.787795451
 20
11.6242606516
 10
7.8767070137
 20
11.7977472593
 10
7.9539920109
 20
11.9851519466
 10
8.0175423092
 20
12.181362802
 10
8.0656244222
 20
12.381027705
 10
8.0969267952
 20
12.5787003174
 10
8.110595581
 20
12.7689886457
 10
8.1062579309
 20
12.9467021203
 10
8.0840321645
 20
13.106993181
 10
8.0445245429
 20
13.2454895053
 10
7.988812731
 20
13.3584132747
 10
7.9184164018
 20
13.4426842231
 10
7.8352557837
 20
13.4960036586
 10
7.7415992815
 20
13.5169171661
 10
7.6400016004
 20
13.5048542796
 10
7.5332340604
 20
13.4601440431
 10
7.4242090016
 20
13.3840060355
  0
LWPOLYLINE
  5
66
330
1F
100
AcDbEntity
  8
0
  6
Continuous
 62
     7
370
    15
100
AcDbPolyline
 90
       44
 70
   128
 43
0.0
 10
-4.1022979727
 20
6.6426901882
 10
-4.0927187651
 20
6.838907492
 10
-4.0543958651
 20
7.0223040739
 10
-3.9881460589
 20
7.1889711542
 10
-3.8953813459
 20
7.3353565134
 10
-3.778078845
 20
7.4583402017
 10
-3.6387386553
 20
7.5553010353
 10
-3.4803305712
 20
7.6241724624
 10
-3.3062307858
 20
7.663486608
 10
-3.1201499338
 20
7.6724055595
 10
-2.9260540055
 20
7.6507392249
 10
-2.7280798187
 20
7.5989493844
 10
-2.5304468494
 20
7.5181398487
 10
-2.3373673013
 20
7.4100329326
 10
-2.1529563297
 20
7.2769327474
 10
-1.9811443343
 20
7.1216760924
 10
-1.8255931895
 20
6.9475719937
 10
-1.6896181978
 20
6.758331178
 10
-1.5761174303
 20
6.5579869846
 10
-1.4875099585
 20
6.3508094021
 10
-1.4256842971
 20
6.1412140612
 10
-1.3919581526
 20
5.9336681225
 10
-1.3870503392
 20
5.7325950674
 10
-1.4110654585
 20
5.542280419
 10
-1.4634916699
 20
5.3667804037
 10
-1.5432115997
 20
5.2098354995
 10
-1.648526156
 20
5.0747907145
 10
-1.7771907419
 20
4.9645242941
 10
-1.9264630951
 20
4.8813863753
 10
-2.0931617346
 20
4.8271488988
 10
-2.2737337682
 20
4.802967842
 10
-2.4643306167
 20
4.8093585822
 10
-2.660890039
 20
4.846184912
 10
-2.8592227123
 20
4.9126619419
 10
-3.0551015201
 20
5.0073728297
 10
-3.2443516456
 20
5.128298977
 10
-3.422939551
 20
5.272863053
 10
-3.5870589451
 20
5.4379839255
 10
-3.733211908
 20
5.6201423296
 10
-3.858283443
 20
5.8154558753
 10
-3.9596078675
 20
6.0197617935
 10
-4.0350256272
 20
6.2287056582
 10
-4.0829293237
 20
6.4378341936
 10
-4.1022979727
 20
6.6426901882
  0
SPLINE
  5
69
330
1F
100
AcDbEntity
  8
0
  6
Continuous
 62
     7
370
    15
100
AcDbSpline
210
0.0
220
0.0
230
1.0
 70
     8
 71
     3
 72
    16
 73
    12
 74
     0
 42
0.00000001
 43
0.00000001
 12
1.0
 22
0.0
 32
0.0
 13
1.0
 23
0.0
 33
0.0
 40
0.0
 40
0.0
 40
0.0
 40
0.0
 40
0.014332821811368
 40
0.1277144688596644
 40
0.2444271623154057
 40
0.4737268767102288
 40
0.6002199001733955
 40
0.7304931252699629
 40
0.8536922353159486
 40
0.981753190745141
 40
1.0
 40
1.0
 40
1.0
 40
1.0
 10
6.129842607123046
 20
11.63391632468288
 30
0.0
 10
6.134083783485565
 20
11.63747893967266
 30
0.0
 10
6.171875335882433
 20
11.66922408289427
 30
0.0
 10
6.249611902737926
 20
11.73902334141894
 30
0.0
 10
6.40577242918021
 20
11.894085753556
 30
0.0
 10
6.571694558786499
 20
12.08790216619653
 30
0.0
 10
6.718468980449577
 20
12.31409003887353
 30
0.0
 10
6.813247958509174
 20
12.50537707123799
 30
0.0
 10
6.875489856089068
 20
12.70749111872904
 30
0.0
 10
6.902186737631014
 20
12.85514319946231
 30
0.0
 10
6.897140157264158
 20
12.93326308488572
 30
0.0
 10
6.896510771738774
 20
12.94300582582234
 30
0.0
  0
LWPOLYLINE
  5
6E
330
1F
100
AcDbEntity
  8
0
  6
Continuous
 62
     7
370
    15
100
AcDbPolyline
 90
        9
 70
   128
 43
0.0
 10
0.4013599967
 20
-19.0557805589
 10
0.4156075923
 20
-19.2152356532
 10
0.4496048355
 20
-19.3516005211
 10
0.5020452313
 20
-19.4596347373
 10
0.5709135245
 20
-19.5351866074
 10
0.6535631455
 20
-19.5753527153
 10
0.7468179155
 20
-19.5785895002
 10
0.8470941061
 20
-19.5447725741
 10
0.9505381594
 20
-19.4752015026
  0
LWPOLYLINE
  5
72
330
1F
100
AcDbEntity
  8
0
  6
Continuous
 62
     7
370
    15
100
AcDbPolyline
 90
       20
 70
   128
 43
0.0
 10
2.7098278463
 20
-14.2718725786
 10
2.6015191881
 20
-14.3773615111
 10
2.4968813084
 20
-14.5093239053
 10
2.3987684558
 20
-14.6641601711
 10
2.3098568931
 20
-14.8376467789
 10
2.2325718959
 20
-15.0250514661
 10
2.1690215976
 20
-15.2212623216
 10
2.1209394846
 20
-15.4209272245
 10
2.0896371116
 20
-15.6185998369
 10
2.0759683258
 20
-15.8088881652
 10
2.0803059759
 20
-15.9866016399
 10
2.1025317423
 20
-16.1468927005
 10
2.1420393639
 20
-16.2853890249
 10
2.1977511758
 20
-16.3983127942
 10
2.268147505
 20
-16.4825837426
 10
2.3513081231
 20
-16.5359031781
 10
2.4449646253
 20
-16.5568166856
 10
2.5465623064
 20
-16.5447537991
 10
2.6533298464
 20
-16.5000435627
 10
2.7623549052
 20
-16.4239055551
  0
LWPOLYLINE
  5
77
330
1F
100
AcDbEntity
  8
0
  6
Continuous
 62
     7
370
    15
100
AcDbPolyline
 90
       44
 70
   128
 43
0.0
 10
-3.5560165599
 20
-15.7384527667
 10
-3.5464373523
 20
-15.5422354628
 10
-3.5081144523
 20
-15.3588388809
 10
-3.4418646461
 20
-15.1921718006
 10
-3.3490999331
 20
-15.0457864415
 10
-3.2317974322
 20
-14.9228027532
 10
-3.0924572425
 20
-14.8258419196
 10
-2.9340491584
 20
-14.7569704925
 10
-2.7599493729
 20
-14.7176563468
 10
-2.573868521
 20
-14.7087373953
 10
-2.3797725927
 20
-14.7304037299
 10
-2.1817984059
 20
-14.7821935704
 10
-1.9841654366
 20
-14.8630031062
 10
-1.7910858885
 20
-14.9711100223
 10
-1.6066749169
 20
-15.1042102075
 10
-1.4348629215
 20
-15.2594668624
 10
-1.2793117767
 20
-15.4335709611
 10
-1.143336785
 20
-15.6228117769
 10
-1.0298360174
 20
-15.8231559703
 10
-0.9412285457
 20
-16.0303335527
 10
-0.8794028843
 20
-16.2399288937
 10
-0.8456767398
 20
-16.4474748324
 10
-0.8407689264
 20
-16.6485478875
 10
-0.8647840457
 20
-16.8388625358
 10
-0.9172102571
 20
-17.0143625512
 10
-0.9969301869
 20
-17.1713074554
 10
-1.1022447432
 20
-17.3063522403
 10
-1.2309093291
 20
-17.4166186608
 10
-1.3801816823
 20
-17.4997565795
 10
-1.5468803217
 20
-17.5539940561
 10
-1.7274523554
 20
-17.5781751129
 10
-1.9180492039
 20
-17.5717843726
 10
-2.1146086262
 20
-17.5349580429
 10
-2.3129412995
 20
-17.4684810129
 10
-2.5088201073
 20
-17.3737701252
 10
-2.6980702328
 20
-17.2528439779
 10
-2.8766581382
 20
-17.1082799018
 10
-3.0407775323
 20
-16.9431590294
 10
-3.1869304952
 20
-16.7610006252
 10
-3.3120020302
 20
-16.5656870795
 10
-3.4133264546
 20
-16.3613811613
 10
-3.4887442144
 20
-16.1524372967
 10
-3.5366479109
 20
-15.9433087612
 10
-3.5560165599
 20
-15.7384527667
  0
LWPOLYLINE
  5
7B
330
1F
100
AcDbEntity
  8
0
  6
Continuous
 62
     8
370
    15
100
AcDbPolyline
 90
       61
 70
   128
 43
0.0
 10
18.2038779526
 20
-17.9553606113
 10
18.0281491033
 20
-17.8950906199
 10
17.7582434834
 20
-17.7736984445
 10
17.4991749876
 20
-17.6207723672
 10
17.2516656864
 20
-17.4367386205
 10
17.0164054326
 20
-17.2221101394
 10
16.7940499387
 20
-16.9774851319
 10
16.5852189494
 20
-16.7035454118
 10
16.390494514
 20
-16.4010544984
 10
16.2104193645
 20
-16.0708554879
 10
16.0454954027
 20
-15.7138687043
 10
15.8961823012
 20
-15.3310891337
 10
15.7628962223
 20
-14.9235836515
 10
15.6460086584
 20
-14.4924880485
 10
15.5458453959
 20
-14.0390038656
 10
15.462685608
 20
-13.5643950444
 10
15.3967610758
 20
-13.0699844048
 10
15.3482555428
 20
-12.5571499581
 10
15.3173042026
 20
-12.0273210658
 10
15.3039933222
 20
-11.4819744559
 10
15.3083600015
 20
-10.9226301075
 10
15.3303920696
 20
-10.3508470133
 10
15.3700281192
 20
-9.7682188356
 10
15.4271576776
 20
-9.1763694636
 10
15.5016215145
 20
-8.5769484875
 10
15.5932120857
 20
-7.9716266011
 10
15.7016741119
 20
-7.3620909452
 10
15.8267052901
 20
-6.7500404049
 10
15.9679571358
 20
-6.1371808748
 10
16.1250359549
 20
-5.5252205045
 10
16.2975039405
 20
-4.9158649371
 10
16.4848803934
 20
-4.310812556
 10
16.6866430619
 20
-3.7117497506
 10
16.9022295971
 20
-3.1203462165
 10
17.1310391208
 20
-2.5382503013
 10
17.3724338997
 20
-1.9670844108
 10
17.6257411233
 20
-1.4084404868
 10
17.890254779
 20
-0.86387557
 10
18.1652376197
 20
-0.3349074606
 10
18.449923219
 20
0.1769895124
 10
18.743518107
 20
0.6703886004
 10
19.0452039821
 20
1.1439146115
 10
19.3541399917
 20
1.596247744
 10
19.6694650757
 20
2.0261272642
 10
19.9903003665
 20
2.4323550208
 10
20.3157516387
 20
2.8137987841
 10
20.6449118011
 20
3.1693954021
 10
20.9768634254
 20
3.498153763
 10
21.3106813029
 20
3.7991575585
 10
21.6454350231
 20
4.071567837
 10
21.9801915676
 20
4.3146253421
 10
22.3140179098
 20
4.527652629
 10
22.6459836157
 20
4.7100559524
 10
22.9751634374
 20
4.8613269216
 10
23.3006398917
 20
4.9810439172
 10
23.6215058174
 20
5.0688732665
 10
23.9368669035
 20
5.1245701733
 10
24.2458441822
 20
5.1479794005
 10
24.5475764783
 20
5.1390357022
 10
24.8412228099
 20
5.0977640061
 10
25.0779772031
 20
5.0391095289
  0
SPLINE
  5
7C
330
1F
100
AcDbEntity
  8
0
  6
Continuous
 62
     8
370
    15
100
AcDbSpline
210
0.0
220
0.0
230
1.0
 70
     8
 71
     3
 72
    28
 73
    24
 74
     0
 42
0.00000001
 43
0.00000001
 12
1.0
 22
0.0
 32
0.0
 13
1.0
 23
0.0
 33
0.0
 40
0.0
 40
0.0
 40
0.0
 40
0.0
 40
0.0013143210954059
 40
0.001648587314958
 40
0.0552900095273318
 40
0.1089321389032414
 40
0.1620265173855643
 40
0.2151177101674095
 40
0.2682208945170983
 40
0.3213218708804735
 40
0.3749819963700489
 40
0.4286445208117596
 40
0.482536485046124
 40
0.5364317397481928
 40
0.5898794973267301
 40
0.6433263573376755
 40
0.6964502205636794
 40
0.7495706209343187
 40
0.8026874835033536
 40
0.8558035853171186
 40
0.9314509766799055
 40
0.9853410109823307
 40
1.0
 40
1.0
 40
1.0
 40
1.0
 10
13.23627134267408
 20
6.612772625639555
 30
0.0
 10
13.23650851641221
 20
6.613763442544256
 30
0.0
 10
13.23680600963325
 20
6.61500625009429
 30
0.0
 10
13.23497809660445
 20
6.655704754120025
 30
0.0
 10
13.21849048735981
 20
6.733880425552861
 30
0.0
 10
13.14826756394992
 20
6.844532698940486
 30
0.0
 10
13.03578078939951
 20
6.947822235249425
 30
0.0
 10
12.88533234075421
 20
7.042681137729756
 30
0.0
 10
12.69920691517096
 20
7.127865583694225
 30
0.0
 10
12.48308027774027
 20
7.202223970288959
 30
0.0
 10
12.24167435492553
 20
7.263441887355018
 30
0.0
 10
11.98233893366915
 20
7.309704961075683
 30
0.0
 10
11.71282841198
 20
7.338078282584931
 30
0.0
 10
11.44183563702522
 20
7.346999817586386
 30
0.0
 10
11.17738227469538
 20
7.334072606515193
 30
0.0
 10
10.92674717224621
 20
7.299121661397622
 30
0.0
 10
10.69667487819719
 20
7.240605828874248
 30
0.0
 10
10.49246139436323
 20
7.159959489588527
 30
0.0
 10
10.32094459756091
 20
7.057208857924975
 30
0.0
 10
10.16552034204589
 20
6.918797109423156
 30
0.0
 10
10.07081128323702
 20
6.757360429833088
 30
0.0
 10
10.03332904886958
 20
6.620760697146944
 30
0.0
 10
10.04071530636421
 20
6.554658156538631
 30
0.0
 10
10.04229483386513
 20
6.540522340010763
 30
0.0
  0
LINE
  5
7F
330
1F
100
AcDbEntity
  8
0
  6
Continuous
 62
     7
370
    15
100
AcDbLine
 10
1.6617530523
 20
-13.0188457677
 30
0.0
 11
18.2149194008
 21
-17.9586824869
 31
0.0
  0
LINE
  5
80
330
1F
100
AcDbEntity
  8
0
  6
Continuous
 62
     7
370
    15
100
AcDbLine
 10
25.0779772031
 20
5.0391095289
 30
0.0
 11
8.5248108545
 21
9.9789462481
 31
0.0
  0
LINE
  5
81
330
1F
100
AcDbEntity
  8
0
  6
Continuous
 62
     7
370
    15
100
AcDbLine
 10
9.5429973127
 20
16.5327301265
 30
0.0
 11
4.4497153593
 21
18.0526798863
 31
0.0
  0
LINE
  5
82
330
1F
100
AcDbEntity
  8
0
  6
Continuous
 62
     7
370
    15
100
AcDbLine
 10
-4.4497153593
 20
-18.0526798863
 30
0.0
 11
0.6435665941
 21
-19.572629646
 31
0.0
  0
LINE
  5
83
330
1F
100
AcDbEntity
  8
0
  6
Continuous
 62
     7
370
    15
100
AcDbLine
 10
18.2149194008
 20
-17.9586824869
 30
0.0
 11
18.2038779526
 21
-17.9553606113
 31
0.0
  0
LINE
  5
84
330
1F
100
AcDbEntity
  8
0
  6
Continuous
 62
     7
370
    15
100
AcDbLine
 10
25.0779772031
 20
5.0391095289
 30
0.0
 11
25.097948329
 21
5.0330617296
 31
0.0
  0
LINE
  5
85
330
1F
100
AcDbEntity
  8
0
  6
Continuous
 62
     7
370
    15
100
AcDbLine
 10
-0.2567315097
 20
0.0203627992
 30
0.0
 11
-5.3500134631
 21
1.5403125589
 31
0.0
  0
LINE
  5
86
330
1F
100
AcDbEntity
  8
0
  6
Continuous
 62
     7
370
    15
100
AcDbLine
 10
-5.0624283661
 20
-10.2420454259
 30
0.0
 11
0.0308535873
 21
-11.7619951856
 31
0.0
  0
LINE
  5
87
330
1F
100
AcDbEntity
  8
0
  6
Continuous
 62
     7
370
    15
100
AcDbLine
 10
-0.249975534
 20
7.6294283488
 30
0.0
 11
-0.0920657419
 21
1.1598660527
 31
0.0
  0
LINE
  5
88
330
1F
100
AcDbEntity
  8
0
  6
Continuous
 62
     7
370
    15
100
AcDbLine
 10
9.2360257474
 20
16.4353019831
 30
0.0
 11
0.2571809816
 21
8.9316337862
 31
0.0
  0
LINE
  5
89
330
1F
100
AcDbEntity
  8
0
  6
Continuous
 62
     7
370
    15
100
AcDbLine
 10
9.94288322
 20
9.5557615961
 30
0.0
 11
9.7852039101
 21
16.0158810394
 31
0.0
  0
LINE
  5
8A
330
1F
100
AcDbEntity
  8
0
  6
Continuous
 62
     7
370
    15
100
AcDbLine
 10
7.4242090016
 20
13.3840060355
 30
0.0
 11
2.1425356099
 21
8.9700835668
 31
0.0
  0
LINE
  5
8B
330
1F
100
AcDbEntity
  8
0
  6
Continuous
 62
     7
370
    15
100
AcDbLine
 10
2.1950626689
 20
6.8180505904
 30
0.0
 11
7.4767360605
 21
11.2319730591
 31
0.0
  0
LINE
  5
8C
330
1F
100
AcDbEntity
  8
0
  6
Continuous
 62
     7
370
    15
100
AcDbLine
 10
-0.249975534
 20
7.6294283488
 30
0.0
 11
-5.3432574874
 21
9.1493781086
 31
0.0
  0
LINE
  5
8D
330
1F
100
AcDbEntity
  8
0
  6
Continuous
 62
     7
370
    15
100
AcDbLine
 10
-4.8361009718
 20
10.451583546
 30
0.0
 11
0.2571809816
 21
8.9316337862
 31
0.0
  0
LINE
  5
8E
330
1F
100
AcDbEntity
  8
0
  6
Continuous
 62
     7
370
    15
100
AcDbLine
 10
-5.1853476953
 20
2.6798158125
 30
0.0
 11
-0.0920657419
 21
1.1598660527
 31
0.0
  0
LINE
  5
8F
330
1F
100
AcDbEntity
  8
0
  6
Continuous
 62
     7
370
    15
100
AcDbLine
 10
-5.3432574874
 20
9.1493781086
 30
0.0
 11
-5.1853476953
 21
2.6798158125
 31
0.0
  0
LINE
  5
90
330
1F
100
AcDbEntity
  8
0
  6
Continuous
 62
     7
370
    15
100
AcDbLine
 10
4.142743794
 20
17.9552517428
 30
0.0
 11
-4.8361009718
 21
10.451583546
 31
0.0
  0
LINE
  5
91
330
1F
100
AcDbEntity
  8
0
  6
Continuous
 62
     7
370
    15
100
AcDbLine
 10
9.2360257474
 20
16.4353019831
 30
0.0
 11
4.142743794
 21
17.9552517428
 31
0.0
  0
LINE
  5
92
330
1F
100
AcDbEntity
  8
0
  6
Continuous
 62
     7
370
    15
100
AcDbLine
 10
1.550944555
 20
7.8073069348
 30
0.0
 11
6.1298426071
 21
11.6339163247
 31
0.0
  0
LINE
  5
93
330
1F
100
AcDbEntity
  8
0
  6
Continuous
 62
     7
370
    15
100
AcDbLine
 10
6.1298426071
 20
11.6339163247
 30
0.0
 11
7.4767360605
 21
11.2319730591
 31
0.0
  0
LINE
  5
94
330
1F
100
AcDbEntity
  8
0
  6
Continuous
 62
     7
370
    15
100
AcDbLine
 10
0.9505381594
 20
-19.4752015026
 30
0.0
 11
6.8304737477
 21
-14.5613081428
 31
0.0
  0
LINE
  5
95
330
1F
100
AcDbEntity
  8
0
  6
Continuous
 62
     7
370
    15
100
AcDbLine
 10
0.2434502046
 20
-12.5862182628
 30
0.0
 11
0.4013599967
 21
-19.0557805589
 31
0.0
  0
LINE
  5
96
330
1F
100
AcDbEntity
  8
0
  6
Continuous
 62
     7
370
    15
100
AcDbLine
 10
3.5388858866
 20
-13.5790243768
 30
0.0
 11
2.7098278463
 21
-14.2718725786
 31
0.0
  0
LINE
  5
97
330
1F
100
AcDbEntity
  8
0
  6
Continuous
 62
     7
370
    15
100
AcDbLine
 10
2.7623549052
 20
-16.4239055551
 30
0.0
 11
5.4751140402
 21
-14.1568383568
 31
0.0
  0
LINE
  5
98
330
1F
100
AcDbEntity
  8
0
  6
Continuous
 62
     7
370
    15
100
AcDbLine
 10
0.2434502046
 20
-12.5862182628
 30
0.0
 11
-4.8498317488
 21
-11.0662685031
 31
0.0
  0
LINE
  5
99
330
1F
100
AcDbEntity
  8
0
  6
Continuous
 62
     7
370
    15
100
AcDbLine
 10
-4.6919219567
 20
-17.5358307992
 30
0.0
 11
0.4013599967
 21
-19.0557805589
 31
0.0
  0
LINE
  5
9A
330
1F
100
AcDbEntity
  8
0
  6
Continuous
 62
     7
370
    15
100
AcDbLine
 10
-4.8498317488
 20
-11.0662685031
 30
0.0
 11
-4.6919219567
 21
-17.5358307992
 31
0.0
  0
LINE
  5
9B
330
1F
100
AcDbEntity
  8
0
  6
Continuous
 62
     8
370
    15
100
AcDbLine
 10
1.5571321431
 20
7.0084233909
 30
0.0
 11
2.1950626689
 21
6.8180505904
 31
0.0
  0
LINE
  5
9C
330
1F
100
AcDbEntity
  8
0
  6
Continuous
 62
     8
370
    15
100
AcDbLine
 10
2.1244243795
 20
-16.2335327545
 30
0.0
 11
2.7623549052
 21
-16.4239055551
 31
0.0
  0
ARC
  5
9D
330
1F
100
AcDbEntity
  8
0
  6
Continuous
 62
     7
370
    15
100
AcDbCircle
 10
2.5959320313
 20
-10.1200881314
 30
0.0
 40
3.045568288284736
100
AcDbArc
 50
212.6233129922
 51
252.1374912448
  0
ARC
  5
9E
330
1F
100
AcDbEntity
  8
0
  6
Continuous
 62
     7
370
    15
100
AcDbCircle
 10
-3.8639482945
 20
1.1232787914
 30
0.0
 40
3.772059996704066
100
AcDbArc
 50
342.9988503343
 51
0.5557516405
  0
ARC
  5
9F
330
1F
100
AcDbEntity
  8
0
  6
Continuous
 62
     7
370
    15
100
AcDbCircle
 10
1.551319299
 20
7.6777578623
 30
0.0
 40
1.801943067104447
100
AcDbArc
 50
135.9052827136
 51
181.5369016363
  0
ARC
  5
A0
330
1F
100
AcDbEntity
  8
0
  6
Continuous
 62
     7
370
    15
100
AcDbCircle
 10
-3.5419626544
 20
9.1977076221
 30
0.0
 40
1.801943067104441
100
AcDbArc
 50
135.9052827136
 51
181.5369016363
  0
ARC
  5
A1
330
1F
100
AcDbEntity
  8
0
  6
Continuous
 62
     7
370
    15
100
AcDbCircle
 10
-8.9572302479
 20
2.6432285511
 30
0.0
 40
3.772059996703829
100
AcDbArc
 50
342.9988503343
 51
0.5557516405
  0
ARC
  5
A2
330
1F
100
AcDbEntity
  8
0
  6
Continuous
 62
     7
370
    15
100
AcDbCircle
 10
-1.2903777782
 20
-12.5423176955
 30
0.0
 40
1.534456105792412
100
AcDbArc
 50
358.3605523258
 51
30.5662038211
  0
ARC
  5
A3
330
1F
100
AcDbEntity
  8
0
  6
Continuous
 62
     7
370
    15
100
AcDbCircle
 10
-6.3836597316
 20
-11.0223679358
 30
0.0
 40
1.534456105792443
100
AcDbArc
 50
358.3605523258
 51
30.5662038211
  0
ARC
  5
A4
330
1F
100
AcDbEntity
  8
0
  6
Continuous
 62
     7
370
    15
100
AcDbCircle
 10
4.3814087593
 20
17.7355876426
 30
0.0
 40
0.3243659701897326
100
AcDbArc
 50
77.8433644792
 51
137.3739413687
  0
ARC
  5
A5
330
1F
100
AcDbEntity
  8
0
  6
Continuous
 62
     7
370
    15
100
AcDbCircle
 10
-4.1754414099
 20
-17.6089730614
 30
0.0
 40
0.5216339192996068
100
AcDbArc
 50
171.9395613212
 51
238.2780359958
  0
SPLINE
  5
2FC
330
2F8
100
AcDbEntity
 67
     1
  8
0
  6
Continuous
 62
     7
370
    15
100
AcDbSpline
210
0.0
220
0.0
230
1.0
 70
     8
 71
     3
 72
    67
 73
    63
 74
     0
 42
0.00000001
 43
0.00000001
 12
1.0
 22
0.0
 32
0.0
 13
1.0
 23
0.0
 33
0.0
 40
0.0
 40
0.0
 40
0.0
 40
0.0
 40
0.0012872647928608
 40
0.0183529236941777
 40
0.0354208724193575
 40
0.0524922743739185
 40
0.0695681778899832
 40
0.0866494890620242
 40
0.1037369523067174
 40
0.1208311391825568
 40
0.1379324453948619
 40
0.1550410953653413
 40
0.1721571533084741
 40
0.1892805394585547
 40
0.2064110499405396
 40
0.2235483787663913
 40
0.240692140544321
 40
0.2578418926802375
 40
0.2749971560948516
 40
0.292157433744133
 40
0.3093222264879407
 40
0.3264910460820099
 40
0.3436634252596186
 40
0.3608389250160428
 40
0.3780171393115752
 40
0.3951976974716805
 40
0.4123802645924659
 40
0.429564540263537
 40
0.4467502559060302
 40
0.4639371709979829
 40
0.4811250684280072
 40
0.4983137491859289
 40
0.515503026569429
 40
0.5326926965213613
 40
0.5498825415543751
 40
0.5670723715409276
 40
0.5842619814741628
 40
0.601451145428349
 40
0.6186396109169782
 40
0.6358270938204837
 40
0.6530132740945357
 40
0.6701977925049463
 40
0.6873802486706424
 40
0.7045602007276247
 40
0.7217371669484814
 40
0.7389106296571925
 40
0.7560800417596114
 40
0.7732448361580095
 40
0.7904044382256915
 40
0.80755828137933
 40
0.8247058256001482
 40
0.8418465785238316
 40
0.8589801184537341
 40
0.8761061183711106
 40
0.893224369746731
 40
0.9103348047336204
 40
0.9274375151770154
 40
0.9445327668496819
 40
0.9616210074347441
 40
0.9787028670469283
 40
0.9957791505008552
 40
1.0
 40
1.0
 40
1.0
 40
1.0
 10
-17.81733512654373
 20
0.1791388339976007
 30
0.0
 10
-17.8263782900815
 20
0.1693121555408229
 30
0.0
 10
-17.95530940921348
 20
0.0292102271071733
 30
0.0
 10
-18.18377916873837
 20
-0.2601505266465742
 30
0.0
 10
-18.50001649534935
 20
-0.6892051679869837
 30
0.0
 10
-18.79034824751193
 20
-1.138507932196371
 30
0.0
 10
-19.05704059314683
 20
-1.604142763236068
 30
0.0
 10
-19.29863275493789
 20
-2.085720522812213
 30
0.0
 10
-19.51473690784326
 20
-2.581855625089914
 30
0.0
 10
-19.7047539478851
 20
-3.091381180380943
 30
0.0
 10
-19.86822015536113
 20
-3.613026242173458
 30
0.0
 10
-20.00471660867941
 20
-4.145505684862017
 30
0.0
 10
-20.11389568669146
 20
-4.687499830096507
 30
0.0
 10
-20.19547596431109
 20
-5.237663986845273
 30
0.0
 10
-20.24924529777086
 20
-5.794630287418793
 30
0.0
 10
-20.27506137546424
 20
-6.357011850426033
 30
0.0
 10
-20.27285257390989
 20
-6.923406516558761
 30
0.0
 10
-20.24261834014402
 20
-7.492400827863607
 30
0.0
 10
-20.1844293087207
 20
-8.062574005355785
 30
0.0
 10
-20.09842711067847
 20
-8.632501932066035
 30
0.0
 10
-19.98482390922029
 20
-9.20076109038083
 30
0.0
 10
-19.84390168251245
 20
-9.765932428762206
 30
0.0
 10
-19.676011280857
 20
-10.3266051364855
 30
0.0
 10
-19.48157128386512
 20
-10.88138031371317
 30
0.0
 10
-19.26106668184076
 20
-11.42887453000699
 30
0.0
 10
-19.01504740277696
 20
-11.96772326916539
 30
0.0
 10
-18.7441267032516
 20
-12.49658426154979
 30
0.0
 10
-18.44897943830832
 20
-13.01414070714059
 30
0.0
 10
-18.13034022243477
 20
-13.51910439363675
 30
0.0
 10
-17.789001491145
 20
-14.01021871424157
 30
0.0
 10
-17.42581147049498
 20
-14.48626158961346
 30
0.0
 10
-17.04167206014371
 20
-14.94604829796885
 30
0.0
 10
-16.63753681857209
 20
-15.38843401489981
 30
0.0
 10
-16.21440884171105
 20
-15.81231640645005
 30
0.0
 10
-15.77333818199304
 20
-16.21663855086073
 30
0.0
 10
-15.31541920380469
 20
-16.60039159670223
 30
0.0
 10
-14.84178792318896
 20
-16.962617211652
 30
0.0
 10
-14.35361972357923
 20
-17.30240963389467
 30
0.0
 10
-13.85212669540345
 20
-17.61891794159458
 30
0.0
 10
-13.33855489121545
 20
-17.91134824409211
 30
0.0
 10
-12.81418149186137
 20
-18.17896579270326
 30
0.0
 10
-12.28031187766582
 20
-18.42109700755652
 30
0.0
 10
-11.73827659734194
 20
-18.63713141473854
 30
0.0
 10
-11.18942822634872
 20
-18.82652348521455
 30
0.0
 10
-10.63513810599904
 20
-18.98879436352211
 30
0.0
 10
-10.07679295516475
 20
-19.12353347005028
 30
0.0
 10
-9.515791347918022
 20
-19.23039995646754
 30
0.0
 10
-8.953540054513494
 20
-19.30912398806926
 30
0.0
 10
-8.391450245153246
 20
-19.3595078266727
 30
0.0
 10
-7.830933574175705
 20
-19.38142666874359
 30
0.0
 10
-7.273398129112855
 20
-19.37482924996553
 30
0.0
 10
-6.720244395643012
 20
-19.33973801131269
 30
0.0
 10
-6.172860816720503
 20
-19.27624943504716
 30
0.0
 10
-5.632620710980015
 20
-19.18453214807401
 30
0.0
 10
-5.100874206743575
 20
-19.06483166012808
 30
0.0
 10
-4.578959127699743
 20
-18.91744862940784
 30
0.0
 10
-4.068141857853814
 20
-18.74281416750311
 30
0.0
 10
-3.569820308800697
 20
-18.54120165895673
 30
0.0
 10
-3.08475056016529
 20
-18.3137928849953
 30
0.0
 10
-2.615916432535197
 20
-18.05869177878191
 30
0.0
 10
-2.272726259623911
 20
-17.85424105386346
 30
0.0
 10
-2.091770839023112
 20
-17.72739216710423
 30
0.0
 10
-2.055907533004719
 20
-17.70225216063836
 30
0.0
  0
SPLINE
  5
2FF
330
2F8
100
AcDbEntity
 67
     1
  8
0
  6
Continuous
 62
     7
370
    15
100
AcDbSpline
210
0.0
220
0.0
230
1.0
 70
     8
 71
     3
 72
    33
 73
    29
 74
     0
 42
0.00000001
 43
0.00000001
 12
1.0
 22
0.0
 32
0.0
 13
1.0
 23
0.0
 33
0.0
 40
0.0
 40
0.0
 40
0.0
 40
0.0
 40
0.0103421693959468
 40
0.0619026933535735
 40
0.1022601886546645
 40
0.1388045489444612
 40
0.177769295048146
 40
0.2170734049890318
 40
0.2576769222435871
 40
0.2984873651461845
 40
0.3404255586801611
 40
0.3832025864767777
 40
0.4262523215034391
 40
0.4700457979282694
 40
0.5139115697154119
 40
0.5581068995604839
 40
0.5693744832517095
 40
0.5922287225975998
 40
0.6360812168530444
 40
0.6801928402926317
 40
0.7237036337921045
 40
0.7670394353729424
 40
0.8099367665567594
 40
0.851698878692843
 40
0.8928923387646308
 40
0.9317524246499819
 40
0.9691268818607696
 40
1.0
 40
1.0
 40
1.0
 40
1.0
 10
-3.350597144639997
 20
6.647314763869423
 30
0.0
 10
-3.35032913747885
 20
6.645305521652686
 30
0.0
 10
-3.348724989985424
 20
6.633279272608198
 30
0.0
 10
-3.354081802116304
 20
6.621176311522071
 30
0.0
 10
-3.377104914433101
 20
6.585369703756421
 30
0.0
 10
-3.42230553720951
 20
6.545868396629074
 30
0.0
 10
-3.495104841952277
 20
6.501993806499869
 30
0.0
 10
-3.595922603753404
 20
6.458849261359509
 30
0.0
 10
-3.722877767126554
 20
6.42026964394182
 30
0.0
 10
-3.874554914699101
 20
6.387677471259518
 30
0.0
 10
-4.046971881334035
 20
6.36235616194937
 30
0.0
 10
-4.238586552352902
 20
6.345123696954196
 30
0.0
 10
-4.444964878800098
 20
6.335736136144472
 30
0.0
 10
-4.661863876253259
 20
6.334171137256225
 30
0.0
 10
-4.885664411645955
 20
6.339990645425803
 30
0.0
 10
-5.055176760324797
 20
6.349323725234323
 30
0.0
 10
-5.187655862046745
 20
6.358921467441548
 30
0.0
 10
-5.318700030409216
 20
6.369820468399265
 30
0.0
 10
-5.501382627797605
 20
6.388794374059125
 30
0.0
 10
-5.708754348529196
 20
6.416163779140986
 30
0.0
 10
-5.901743817037713
 20
6.447803206595105
 30
0.0
 10
-6.076544481741975
 20
6.482996912193284
 30
0.0
 10
-6.229153575027677
 20
6.521020916797187
 30
0.0
 10
-6.355840365187881
 20
6.560840663418219
 30
0.0
 10
-6.453931016538056
 20
6.600829767728369
 30
0.0
 10
-6.518651318114051
 20
6.636268560112224
 30
0.0
 10
-6.551875561293106
 20
6.664408059911477
 30
0.0
 10
-6.553438412698664
 20
6.667086758408121
 30
0.0
 10
-6.554145398929755
 20
6.668298519774325
 30
0.0
  0
LWPOLYLINE
  5
302
330
2F8
100
AcDbEntity
 67
     1
  8
0
  6
Continuous
 62
     7
370
    15
100
AcDbPolyline
 90
      118
 70
   128
 43
0.0
 10
1.564876834
 20
-9.462212333
 10
1.5493688442
 20
-8.8782801741
 10
1.5028895881
 20
-8.2921239967
 10
1.4255730777
 20
-7.7054338407
 10
1.3176422363
 20
-7.1199012858
 10
1.1794082566
 20
-6.5372145738
 10
1.0112697028
 20
-5.9590537414
 10
0.8137113621
 20
-5.387085776
 10
0.5873028461
 20
-4.8229598092
 10
0.3326969493
 20
-4.2683023623
 10
0.0506277663
 20
-3.7247126563
 10
-0.2580914243
 20
-3.1937580009
 10
-0.5925705052
 20
-2.676969276
 10
-0.9518450866
 20
-2.1758365172
 10
-1.334879287
 20
-1.6918046199
 10
-1.7405687194
 20
-1.2262691735
 10
-2.1677436764
 20
-0.7805724371
 10
-2.6151725019
 20
-0.3559994699
 10
-3.0815651428
 20
0.0462255745
 10
-3.5655768683
 20
0.4249429771
 10
-4.0658121474
 20
0.7790607975
 10
-4.5808286722
 20
1.1075580225
 10
-5.1091415168
 20
1.4094875095
 10
-5.6492274185
 20
1.6839787175
 10
-6.1995291699
 20
1.9302402175
 10
-6.7584601084
 20
2.1475619738
 10
-7.3244086916
 20
2.3353173914
 10
-7.8957431431
 20
2.4929651229
 10
-8.4708161579
 20
2.6200506291
 10
-9.0479696515
 20
2.7162074895
 10
-9.625539541
 20
2.7811584591
 10
-10.201860543
 20
2.8147162674
 10
-10.7752709747
 20
2.8167841585
 10
-11.3441175455
 20
2.7873561702
 10
-11.9067601235
 20
2.726517151
 10
-12.4615764644
 20
2.6344425154
 10
-13.006966889
 20
2.5113977387
 10
-13.5413588957
 20
2.3577375905
 10
-14.0632116939
 20
2.1739051131
 10
-14.571020647
 20
1.9604303429
 10
-15.0633216102
 20
1.7179287831
 10
-15.5386951524
 20
1.4470996283
 10
-15.9957706486
 20
1.1487237491
 10
-16.4332302319
 20
0.8236614405
 10
-16.8498125931
 20
0.4728499413
 10
-17.2443166173
 20
0.0973007317
 10
-17.6156048473
 20
-0.3019033826
 10
-17.962606763
 20
-0.7236113928
 10
-18.2843218682
 20
-1.1666074055
 10
-18.5798225748
 20
-1.6296141486
 10
-18.8482568778
 20
-2.1112966538
 10
-19.0888508116
 20
-2.6102661057
 10
-19.3009106817
 20
-3.1250838462
 10
-19.4838250646
 20
-3.6542655224
 10
-19.6370665706
 20
-4.1962853667
 10
-19.760193365
 20
-4.7495805955
 10
-19.8528504412
 20
-5.3125559155
 10
-19.914770645
 20
-5.8835881229
 10
-19.9457754443
 20
-6.4610307843
 10
-19.9457754443
 20
-7.0432189828
 10
-19.914770645
 20
-7.6284741192
 10
-19.8528504412
 20
-8.2151087515
 10
-19.760193365
 20
-8.80143146
 10
-19.6370665706
 20
-9.3857517248
 10
-19.4838250646
 20
-9.9663847991
 10
-19.3009106817
 20
-10.5416565676
 10
-19.0888508116
 20
-11.1099083727
 10
-18.8482568778
 20
-11.6695017975
 10
-18.5798225748
 20
-12.2188233892
 10
-18.2843218682
 20
-12.7562893115
 10
-17.962606763
 20
-13.280349911
 10
-17.6156048473
 20
-13.7894941853
 10
-17.2443166173
 20
-14.2822541397
 10
-16.8498125931
 20
-14.7572090196
 10
-16.4332302319
 20
-15.2129894072
 10
-15.9957706486
 20
-15.6482811697
 10
-15.5386951524
 20
-16.0618292481
 10
-15.0633216102
 20
-16.4524412764
 10
-14.571020647
 20
-16.818991019
 10
-14.0632116939
 20
-17.160421618
 10
-13.5413588957
 20
-17.4757486406
 10
-13.006966889
 20
-17.7640629174
 10
-12.4615764644
 20
-18.0245331638
 10
-11.9067601235
 20
-18.2564083765
 10
-11.3441175455
 20
-18.4590199993
 10
-10.7752709747
 20
-18.6317838505
 10
-10.201860543
 20
-18.774201807
 10
-9.625539541
 20
-18.8858632412
 10
-9.0479696515
 20
-18.9664462042
 10
-8.4708161579
 20
-19.0157183543
 10
-7.8957431431
 20
-19.0335376274
 10
-7.3244086916
 20
-19.0198526457
 10
-6.7584601084
 20
-18.9747028667
 10
-6.1995291699
 20
-18.8982184688
 10
-5.6492274185
 20
-18.7906199764
 10
-5.1091415168
 20
-18.6522176237
 10
-4.5808286722
 20
-18.4834104606
 10
-4.0658121474
 20
-18.2846852019
 10
-3.5655768683
 20
-18.0566148238
 10
-3.0815651428
 20
-17.7998569123
 10
-2.6151725019
 20
-17.5151517671
 10
-2.1677436764
 20
-17.2033202666
 10
-1.7405687194
 20
-16.8652615018
 10
-1.334879287
 20
-16.5019501837
 10
-0.9518450866
 20
-16.1144338328
 10
-0.5925705052
 20
-15.7038297592
 10
-0.2580914243
 20
-15.2713218406
 10
0.0506277663
 20
-14.8181571093
 10
0.3326969493
 20
-14.3456421566
 10
0.5873028461
 20
-13.8551393654
 10
0.8137113621
 20
-13.3480629822
 10
1.0112697028
 20
-12.8258750396
 10
1.1794082566
 20
-12.2900811404
 10
1.3176422363
 20
-11.7422261173
 10
1.4255730777
 20
-11.183889578
 10
1.5028895881
 20
-10.6166813515
 10
1.5493688442
 20
-10.0422368457
 10
1.564876834
 20
-9.462212333
  0
LWPOLYLINE
  5
305
330
2F8
100
AcDbEntity
 67
     1
  8
0
  6
Continuous
 62
     7
370
    15
100
AcDbPolyline
 90
      114
 70
   128
 43
0.0
 10
0.863316074
 20
-9.3738239854
 10
0.8477752712
 20
-8.8086048526
 10
0.8012008987
 20
-8.2412168656
 10
0.7237369151
 20
-7.6734137881
 10
0.6156227573
 20
-7.1069506668
 10
0.4771925997
 20
-6.5435784069
 10
0.3088743222
 20
-5.9850383596
 10
0.1111881869
 20
-5.4330569402
 10
-0.1152547697
 20
-4.8893402918
 10
-0.3697546254
 20
-4.3555690112
 10
-0.6515247358
 20
-3.833392955
 10
-0.9596941655
 20
-3.3244261394
 10
-1.2933103805
 20
-2.8302417516
 10
-1.6513421923
 20
-2.3523672873
 10
-2.0326829449
 20
-1.8922798291
 10
-2.4361539361
 20
-1.4514014808
 10
-2.86050806
 20
-1.0310949724
 10
-3.3044336624
 20
-0.6326594469
 10
-3.7665585948
 20
-0.257326446
 10
-4.2454544554
 20
0.0937438978
 10
-4.7396410045
 20
0.419466446
 10
-5.2475907399
 20
0.7188344089
 10
-5.767733618
 20
0.9909224573
 10
-6.298461907
 20
1.2348895827
 10
-6.8381351562
 20
1.4499816965
 10
-7.3850852666
 20
1.6355339616
 10
-7.9376216465
 20
1.7909728463
 10
-8.4940364379
 20
1.9158178981
 10
-9.0526097943
 20
2.009683228
 10
-9.6116151977
 20
2.0722787037
 10
-10.1693247943
 20
2.1034108461
 10
-10.7240147357
 20
2.1029834276
 10
-11.2739705071
 20
2.0709977693
 10
-11.8174922268
 20
2.0075527371
 10
-12.3528999002
 20
1.9128444359
 10
-12.8785386129
 20
1.7871656036
 10
-13.3927836458
 20
1.6309047063
 10
-13.894045497
 20
1.4445447375
 10
-14.3807747947
 20
1.2286617252
 10
-14.8514670867
 20
0.9839229513
 10
-15.3046674899
 20
0.7110848894
 10
-15.7389751881
 20
0.4109908664
 10
-16.1530477609
 20
0.0845684556
 10
-16.5456053337
 20
-0.2671733899
 10
-16.9154345336
 20
-0.6431474564
 10
-17.2613922398
 20
-1.0421916294
 10
-17.5824091167
 20
-1.4630724864
 10
-17.8774929197
 20
-1.9044891088
 10
-18.1457315615
 20
-2.3650771029
 10
-18.386295932
 20
-2.8434128178
 10
-18.5984424604
 20
-3.3380177452
 10
-18.781515414
 20
-3.8473630896
 10
-18.9349489247
 20
-4.3698744936
 10
-19.0582687384
 20
-4.9039369046
 10
-19.1510936807
 20
-5.4478995661
 10
-19.2131368348
 20
-6.0000811209
 10
-19.2442064291
 20
-6.5587748073
 10
-19.2442064291
 20
-7.1222537351
 10
-19.2131368348
 20
-7.6887762234
 10
-19.1510936807
 20
-8.2565911835
 10
-19.0582687384
 20
-8.8239435319
 10
-18.9349489247
 20
-9.3890796152
 10
-18.781515414
 20
-9.9502526299
 10
-18.5984424604
 20
-10.5057280225
 10
-18.386295932
 20
-11.0537888504
 10
-18.1457315615
 20
-11.5927410889
 10
-17.8774929197
 20
-12.1209188677
 10
-17.5824091167
 20
-12.6366896193
 10
-17.2613922398
 20
-13.1384591261
 10
-16.9154345336
 20
-13.6246764472
 10
-16.5456053337
 20
-14.0938387127
 10
-16.1530477609
 20
-14.544495769
 10
-15.7389751881
 20
-14.9752546609
 10
-15.3046674899
 20
-15.3847839373
 10
-14.8514670867
 20
-15.7718177669
 10
-14.3807747947
 20
-16.1351598501
 10
-13.894045497
 20
-16.4736871173
 10
-13.3927836458
 20
-16.7863532004
 10
-12.8785386129
 20
-17.0721916662
 10
-12.3528999002
 20
-17.3303190044
 10
-11.8174922268
 20
-17.5599373583
 10
-11.2739705071
 20
-17.7603369907
 10
-10.7240147357
 20
-17.9308984778
 10
-10.1693247943
 20
-18.0710946238
 10
-9.6116151977
 20
-18.1804920905
 10
-9.0526097943
 20
-18.2587527365
 10
-8.4940364379
 20
-18.3056346628
 10
-7.9376216465
 20
-18.3209929598
 10
-7.3850852666
 20
-18.3047801561
 10
-6.8381351562
 20
-18.2570463645
 10
-6.298461907
 20
-18.1779391274
 10
-5.767733618
 20
-18.0677029607
 10
-5.2475907399
 20
-17.9266785981
 10
-4.7396410045
 20
-17.7553019378
 10
-4.2454544554
 20
-17.5541026953
 10
-3.7665585948
 20
-17.3237027659
 10
-3.3044336624
 20
-17.0648143025
 10
-2.86050806
 20
-16.7782375146
 10
-2.4361539361
 20
-16.4648581946
 10
-2.0326829449
 20
-16.1256449801
 10
-1.6513421923
 20
-15.7616463595
 10
-1.2933103805
 20
-15.3739874319
 10
-0.9596941655
 20
-14.9638664286
 10
-0.6515247358
 20
-14.5325510104
 10
-0.3697546254
 20
-14.0813743483
 10
-0.1152547697
 20
-13.6117310036
 10
0.1111881869
 20
-13.125072617
 10
0.3088743222
 20
-12.6229034216
 10
0.4771925997
 20
-12.1067755936
 10
0.6156227573
 20
-11.5782844547
 10
0.7237369151
 20
-11.0390635406
 10
0.8012008987
 20
-10.4907795522
 10
0.8477752712
 20
-9.9351272039
 10
0.863316074
 20
-9.3738239854
  0
LWPOLYLINE
  5
306
330
2F8
100
AcDbEntity
 67
     1
  8
0
  6
Continuous
 62
     7
370
    15
100
AcDbPolyline
 90
       34
 70
   128
 43
0.0
 10
7.0991925032
 20
3.4198329047
 10
6.743322106
 20
3.9528488061
 10
6.36203691
 20
4.4691683103
 10
5.9564300544
 20
4.967311137
 10
5.527664408
 20
5.4458491179
 10
5.0769692356
 20
5.9034102919
 10
4.6056366734
 20
6.3386828378
 10
4.1150180251
 20
6.7504188357
 10
3.606519887
 20
7.1374378445
 10
3.0816001157
 20
7.4986302865
 10
2.5417636485
 20
7.8329606284
 10
1.9885581886
 20
8.1394703498
 10
1.4235697677
 20
8.4172806921
 10
0.8484181993
 20
8.6655951771
 10
0.2647524345
 20
8.8837018908
 10
-0.3257541656
 20
9.0709755245
 10
-0.9214086274
 20
9.2268791675
 10
-1.5205032184
 20
9.3509658463
 10
-2.1213203431
 20
9.4428798063
 10
-2.7221374678
 20
9.5023575315
 10
-3.3212320587
 20
9.5292285002
 10
-3.9168865205
 20
9.5234156736
 10
-4.5073931206
 20
9.4849357171
 10
-5.0910588855
 20
9.4138989521
 10
-5.6662104538
 20
9.31050904
 10
-6.2311988747
 20
9.1750623982
 10
-6.7844043347
 20
9.0079473501
 10
-7.3242408019
 20
8.8096430121
 10
-7.8491605732
 20
8.5807179198
 10
-8.3576587113
 20
8.3218283982
 10
-8.8482773596
 20
8.0337166795
 10
-9.3196099217
 20
7.7172087758
 10
-9.7703050942
 20
7.3732121106
 10
-10.0585742764
 20
7.1291713069
  0
SPLINE
  5
30B
330
2F8
100
AcDbEntity
 67
     1
  8
0
  6
Continuous
 62
     7
370
    15
100
AcDbSpline
210
0.0
220
0.0
230
1.0
 70
     8
 71
     3
 72
    56
 73
    52
 74
     0
 42
0.00000001
 43
0.00000001
 12
1.0
 22
0.0
 32
0.0
 13
1.0
 23
0.0
 33
0.0
 40
-0.0624999999999997
 40
-0.0624999999999997
 40
0.0
 40
0.0
 40
0.0625000000000002
 40
0.0625000000000002
 40
0.0937500000000003
 40
0.0937500000000003
 40
0.1250000000000004
 40
0.1250000000000004
 40
0.1562500000000004
 40
0.1562500000000004
 40
0.1875000000000005
 40
0.1875000000000005
 40
0.2187500000000005
 40
0.2187500000000005
 40
0.2500000000000006
 40
0.2500000000000006
 40
0.3125000000000007
 40
0.3125000000000007
 40
0.3437500000000008
 40
0.3437500000000008
 40
0.3750000000000008
 40
0.3750000000000008
 40
0.4062500000000009
 40
0.4062500000000009
 40
0.4375000000000009
 40
0.4375000000000009
 40
0.500000000000001
 40
0.500000000000001
 40
0.5625000000000012
 40
0.5625000000000012
 40
0.6250000000000013
 40
0.6250000000000013
 40
0.6562500000000012
 40
0.6562500000000012
 40
0.6875000000000011
 40
0.6875000000000011
 40
0.718750000000001
 40
0.718750000000001
 40
0.7500000000000009
 40
0.7500000000000009
 40
0.7812500000000008
 40
0.7812500000000008
 40
0.8125000000000007
 40
0.8125000000000007
 40
0.8437500000000006
 40
0.8437500000000006
 40
0.8750000000000004
 40
0.8750000000000004
 40
0.9375000000000003
 40
0.9375000000000003
 40
1.0
 40
1.0
 40
1.0625
 40
1.0625
 10
-5.361552139607642
 20
6.358897080538605
 30
0.0
 10
-5.81073500057681
 20
6.41548880162063
 30
0.0
 10
-6.015289659013285
 20
6.450735208501849
 30
0.0
 10
-6.277582229335422
 20
6.513389276074411
 30
0.0
 10
-6.357475292511622
 20
6.535990918880854
 30
0.0
 10
-6.496840299798929
 20
6.583786704371641
 30
0.0
 10
-6.557379471207377
 20
6.609260175617557
 30
0.0
 10
-6.658315455790373
 20
6.664056543911633
 30
0.0
 10
-6.697398590356634
 20
6.692635118119311
 30
0.0
 10
-6.753396619870323
 20
6.753083833993075
 30
0.0
 10
-6.77029163765112
 20
6.785352058565948
 30
0.0
 10
-6.779795416771539
 20
6.852042066415337
 30
0.0
 10
-6.772755543935419
 20
6.886413866809029
 30
0.0
 10
-6.734964624793183
 20
6.957811561818596
 30
0.0
 10
-6.703755535793306
 20
6.994995209083125
 30
0.0
 10
-6.57801409744317
 20
7.105802911463289
 30
0.0
 10
-6.447630307149766
 20
7.181953062583817
 30
0.0
 10
-6.202495938345127
 20
7.285957613566927
 30
0.0
 10
-6.111253279803393
 20
7.319484201014469
 30
0.0
 10
-5.916034428558292
 20
7.380977929839819
 30
0.0
 10
-5.812952930118891
 20
7.408768382640069
 30
0.0
 10
-5.596044326102973
 20
7.457629400060553
 30
0.0
 10
-5.481280589150173
 20
7.478754340881874
 30
0.0
 10
-5.250166080149025
 20
7.511509729153133
 30
0.0
 10
-5.132849368946519
 20
7.523427259193117
 30
0.0
 10
-4.775468117202403
 20
7.544426405614899
 30
0.0
 10
-4.533974971834104
 20
7.537563764500275
 30
0.0
 10
-4.090453341061816
 20
7.481529600683475
 30
0.0
 10
-3.883267546946611
 20
7.431784362504332
 30
0.0
 10
-3.535912453113084
 20
7.300766706329097
 30
0.0
 10
-3.392254630637295
 20
7.218329232568107
 30
0.0
 10
-3.242237899881134
 20
7.085330140518493
 30
0.0
 10
-3.20215829679454
 20
7.038606544681039
 30
0.0
 10
-3.146017336667126
 20
6.945802396285747
 30
0.0
 10
-3.129418716523171
 20
6.899464270108515
 30
0.0
 10
-3.119642863760339
 20
6.807755888507693
 30
0.0
 10
-3.126817766066623
 20
6.762606901029114
 30
0.0
 10
-3.164452774937974
 20
6.677992187024812
 30
0.0
 10
-3.194839136026639
 20
6.637946619992698
 30
0.0
 10
-3.279644446919823
 20
6.563062715369361
 30
0.0
 10
-3.332621927482377
 20
6.529470100252648
 30
0.0
 10
-3.458810570544955
 20
6.469445153300417
 30
0.0
 10
-3.533053056273418
 20
6.442779129081339
 30
0.0
 10
-3.697325155416049
 20
6.397989163628123
 30
0.0
 10
-3.787066657252868
 20
6.379747053259472
 30
0.0
 10
-3.981597975570718
 20
6.350601032917487
 30
0.0
 10
-4.086779649793881
 20
6.339778173835075
 30
0.0
 10
-4.411529607598995
 20
6.318318766478828
 30
0.0
 10
-4.649029116681097
 20
6.318040081914796
 30
0.0
 10
-5.121655867235921
 20
6.338342083977594
 30
0.0
 10
-5.361552139607642
 20
6.358897080538605
 30
0.0
 10
-5.81073500057681
 20
6.41548880162063
 30
0.0
  0
SPLINE
  5
30D
330
2F8
100
AcDbEntity
 67
     1
  8
0
  6
Continuous
 62
     7
370
    15
100
AcDbSpline
210
0.0
220
0.0
230
1.0
 70
     8
 71
     3
 72
    54
 73
    50
 74
     0
 42
0.00000001
 43
0.00000001
 12
1.0
 22
0.0
 32
0.0
 13
1.0
 23
0.0
 33
0.0
 40
-0.0625
 40
-0.0625
 40
0.0
 40
0.0
 40
0.0312500000000003
 40
0.0312500000000003
 40
0.0625000000000006
 40
0.0625000000000006
 40
0.0937500000000009
 40
0.0937500000000009
 40
0.1250000000000012
 40
0.1250000000000012
 40
0.1875000000000013
 40
0.1875000000000013
 40
0.2500000000000015
 40
0.2500000000000015
 40
0.2812500000000013
 40
0.2812500000000013
 40
0.3125000000000011
 40
0.3125000000000011
 40
0.3750000000000012
 40
0.3750000000000012
 40
0.4062500000000011
 40
0.4062500000000011
 40
0.4375000000000009
 40
0.4375000000000009
 40
0.4687500000000008
 40
0.4687500000000008
 40
0.5000000000000007
 40
0.5000000000000007
 40
0.5625000000000003
 40
0.5625000000000003
 40
0.6250000000000001
 40
0.6250000000000001
 40
0.6562499999999999
 40
0.6562499999999999
 40
0.6874999999999998
 40
0.6874999999999998
 40
0.7499999999999994
 40
0.7499999999999994
 40
0.7812499999999996
 40
0.7812499999999996
 40
0.8124999999999997
 40
0.8124999999999997
 40
0.8437499999999998
 40
0.8437499999999998
 40
0.8749999999999998
 40
0.8749999999999998
 40
0.9375
 40
0.9375
 40
1.0
 40
1.0
 40
1.03125
 40
1.03125
 10
-5.713480797746112
 20
-14.97440010835271
 30
0.0
 10
-5.416408939111633
 20
-15.01182764449887
 30
0.0
 10
-5.315389210440981
 20
-15.01937520652448
 30
0.0
 10
-5.109522846866351
 20
-15.02518944474952
 30
0.0
 10
-5.003495113841804
 20
-15.02335790021654
 30
0.0
 10
-4.793901925658555
 20
-15.01069495598014
 30
0.0
 10
-4.690613262820845
 20
-15.00000896470155
 30
0.0
 10
-4.486977878562032
 20
-14.97069634541897
 30
0.0
 10
-4.386246960768887
 20
-14.95188620003593
 30
0.0
 10
-4.101321789193141
 20
-14.88694192505649
 30
0.0
 10
-3.926832937029909
 20
-14.83062042207675
 30
0.0
 10
-3.641374282882995
 20
-14.70852770034739
 30
0.0
 10
-3.527412361897378
 20
-14.64159321975915
 30
0.0
 10
-3.416401408514153
 20
-14.54383293938983
 30
0.0
 10
-3.388610571705741
 20
-14.51099222067391
 30
0.0
 10
-3.354259435804925
 20
-14.44784390251043
 30
0.0
 10
-3.347262935032543
 20
-14.41732334214232
 30
0.0
 10
-3.357026226026064
 20
-14.32821045360785
 30
0.0
 10
-3.404526419705558
 20
-14.27406952739843
 30
0.0
 10
-3.534570960484701
 20
-14.20027243307103
 30
0.0
 10
-3.5866340951723
 20
-14.17746843482742
 30
0.0
 10
-3.707592226378877
 20
-14.13449545468722
 30
0.0
 10
-3.777403794231072
 20
-14.11412547476164
 30
0.0
 10
-3.93010269523878
 20
-14.07669494778033
 30
0.0
 10
-4.012665047370136
 20
-14.05961823892542
 30
0.0
 10
-4.190192891481823
 20
-14.02826847588772
 30
0.0
 10
-4.285761995265284
 20
-14.0139698297477
 30
0.0
 10
-4.578938369890134
 20
-13.97700707965811
 30
0.0
 10
-4.790969255771034
 20
-13.95915901475828
 30
0.0
 10
-5.207693350138369
 20
-13.94276160407157
 30
0.0
 10
-5.416495947144843
 20
-13.9441476505145
 30
0.0
 10
-5.701777520394401
 20
-13.96489348101339
 30
0.0
 10
-5.794043361526032
 20
-13.97507886710844
 30
0.0
 10
-5.96400058795998
 20
-14.00185263445801
 30
0.0
 10
-6.042506490122207
 20
-14.01843482326279
 30
0.0
 10
-6.258353515062924
 20
-14.07901043021538
 30
0.0
 10
-6.370976948430338
 20
-14.13268333017662
 30
0.0
 10
-6.483404514022769
 20
-14.23154235279512
 30
0.0
 10
-6.510558685816278
 20
-14.26667050850206
 30
0.0
 10
-6.545023607007391
 20
-14.34094356176812
 30
0.0
 10
-6.552228206303981
 20
-14.38055673159819
 30
0.0
 10
-6.545725941885046
 20
-14.46086617567362
 30
0.0
 10
-6.532321323122211
 20
-14.50151643739475
 30
0.0
 10
-6.485311377600079
 20
-14.58310942757871
 30
0.0
 10
-6.451344692053052
 20
-14.6241371754644
 30
0.0
 10
-6.322983355474146
 20
-14.74116723765728
 30
0.0
 10
-6.198495411122877
 20
-14.81410549693903
 30
0.0
 10
-5.895137658200041
 20
-14.93012604134234
 30
0.0
 10
-5.713480797746112
 20
-14.97440010835271
 30
0.0
 10
-5.416408939111633
 20
-15.01182764449887
 30
0.0
  0
LWPOLYLINE
  5
316
330
2F8
100
AcDbEntity
 67
     1
  8
0
  6
Continuous
 62
     7
370
    15
100
AcDbPolyline
 90
       20
 70
   128
 43
0.0
 10
-6.7983920767
 20
12.6248603215
 10
-6.9908472531
 20
12.6330340365
 10
-7.178052754
 20
12.6088380777
 10
-7.3549021014
 20
12.5529324478
 10
-7.5165713059
 20
12.4668421066
 10
-7.6586504533
 20
12.3529153742
 10
-7.7772639946
 20
12.2142598749
 10
-7.8691764618
 20
12.0546577692
 10
-7.9318807223
 20
11.8784625866
 10
-7.9636663673
 20
11.6904804724
 10
-7.9636663673
 20
11.4958390885
 10
-7.9318807223
 20
11.2998477445
 10
-7.8691764618
 20
11.1078525734
 10
-7.7772639946
 20
10.925090703
 10
-7.6586504533
 20
10.7565474006
 10
-7.5165713059
 20
10.6068200882
 10
-7.3549021014
 20
10.4799929365
 10
-7.178052754
 20
10.3795254597
 10
-6.9908472531
 20
10.3081581486
 10
-6.7983920767
 20
10.2678377174
  0
LWPOLYLINE
  5
318
330
2F8
100
AcDbEntity
 67
     1
  8
0
  6
Continuous
 62
     7
370
    15
100
AcDbPolyline
 90
       20
 70
   128
 43
0.0
 10
2.5557513905
 20
9.089326416
 10
2.748206567
 20
9.081152701
 10
2.9354120679
 20
9.1053486598
 10
3.1122614152
 20
9.1612542897
 10
3.2739306198
 20
9.2473446309
 10
3.4160097671
 20
9.3612713633
 10
3.5346233085
 20
9.4999268626
 10
3.6265357757
 20
9.6595289682
 10
3.6892400361
 20
9.8357241508
 10
3.7210256811
 20
10.0237062651
 10
3.7210256811
 20
10.218347649
 10
3.6892400361
 20
10.414338993
 10
3.6265357757
 20
10.6063341641
 10
3.5346233085
 20
10.7890960345
 10
3.4160097671
 20
10.9576393369
 10
3.2739306198
 20
11.1073666493
 10
3.1122614152
 20
11.2341938009
 10
2.9354120679
 20
11.3346612777
 10
2.748206567
 20
11.4060285888
 10
2.5557513905
 20
11.44634902
  0
LWPOLYLINE
  5
31E
330
2F8
100
AcDbEntity
 67
     1
  8
0
  6
Continuous
 62
     7
370
    15
100
AcDbPolyline
 90
       44
 70
   128
 43
0.0
 10
7.2600906975
 20
9.7026298066
 10
7.2661189989
 20
9.9275848245
 10
7.2840754202
 20
10.158378241
 10
7.3135772515
 20
10.3900910949
 10
7.3539957124
 20
10.6177848292
 10
7.4044693538
 20
10.8366065471
 10
7.4639224174
 20
11.0418924437
 10
7.5310877645
 20
11.2292672066
 10
7.6045338824
 20
11.3947372678
 10
7.6826953945
 20
11.5347759205
 10
7.7639064239
 20
11.6463984837
 10
7.8464360985
 20
11.7272259164
 10
7.9285254416
 20
11.7755355222
 10
8.0084248613
 20
11.7902976657
 10
8.0844314402
 20
11.7711977174
 10
8.1549252302
 20
11.7186427596
 10
8.2184037783
 20
11.6337529099
 10
8.2735141496
 20
11.5183374482
 10
8.3190817623
 20
11.3748562545
 10
8.3541354216
 20
11.2063673815
 10
8.3779280198
 20
11.016461877
 10
8.3899524589
 20
10.8091872471
 10
8.3899524589
 20
10.5889611906
 10
8.3779280198
 20
10.3604774436
 10
8.3541354216
 20
10.1286057404
 10
8.3190817623
 20
9.898288024
 10
8.2735141496
 20
9.6744331165
 10
8.2184037783
 20
9.4618120966
 10
8.1549252302
 20
9.2649566123
 10
8.0844314402
 20
9.0880622964
 10
8.0084248613
 20
8.9348993442
 10
7.9285254416
 20
8.808732158
 10
7.8464360985
 20
8.7122497724
 10
7.7639064239
 20
8.6475085419
 10
7.6826953945
 20
8.6158883134
 10
7.6045338824
 20
8.6180630173
 10
7.5310877645
 20
8.6539863035
 10
7.4639224174
 20
8.7228925295
 10
7.4044693538
 20
8.8233130788
 10
7.3539957124
 20
8.9531076616
 10
7.3135772515
 20
9.1095099318
 10
7.2840754202
 20
9.2891864465
 10
7.2661189989
 20
9.4883077128
 10
7.2600906975
 20
9.7026298066
  0
SPLINE
  5
322
330
2F8
100
AcDbEntity
 67
     1
  8
0
  6
Continuous
 62
     7
370
    15
100
AcDbSpline
210
0.0
220
0.0
230
1.0
 70
     8
 71
     3
 72
    11
 73
     7
 74
     0
 42
0.00000001
 43
0.00000001
 12
1.0
 22
0.0
 32
0.0
 13
1.0
 23
0.0
 33
0.0
 40
0.0
 40
0.0
 40
0.0
 40
0.0
 40
0.042738235447021
 40
0.3808245935065161
 40
0.7288436115488086
 40
1.0
 40
1.0
 40
1.0
 40
1.0
 10
3.116724159916167
 20
9.584057896028595
 30
0.0
 10
3.124191135079328
 20
9.583151120569223
 30
0.0
 10
3.19072658633254
 20
9.575071180157435
 30
0.0
 10
3.314768534174767
 20
9.570861568850237
 30
0.0
 10
3.472374332506912
 20
9.57846873389727
 30
0.0
 10
3.556948102033873
 20
9.613715138977485
 30
0.0
 10
3.593985616221504
 20
9.629150648539413
 30
0.0
  0
SPLINE
  5
323
330
2F8
100
AcDbEntity
 67
     1
  8
0
  6
Continuous
 62
     7
370
    15
100
AcDbSpline
210
0.0
220
0.0
230
1.0
 70
     8
 71
     3
 72
    15
 73
    11
 74
     0
 42
0.00000001
 43
0.00000001
 12
1.0
 22
0.0
 32
0.0
 13
1.0
 23
0.0
 33
0.0
 40
0.0
 40
0.0
 40
0.0
 40
0.0
 40
0.001027859829547
 40
0.1304692577945586
 40
0.2637941032032944
 40
0.5228881699583888
 40
0.6659215038983584
 40
0.8131388643225517
 40
0.9916153958370413
 40
0.9999999999999999
 40
0.9999999999999999
 40
0.9999999999999999
 40
0.9999999999999999
 10
-5.238044502989168
 20
11.64393493041581
 30
0.0
 10
-5.238516529532515
 20
11.64399462905394
 30
0.0
 10
-5.298432240799355
 20
11.65157235199232
 30
0.0
 10
-5.417908580474093
 20
11.67812290448399
 30
0.0
 10
-5.639894139066223
 20
11.77221352283035
 30
0.0
 10
-5.840832715573077
 20
11.92648681173138
 30
0.0
 10
-6.01425298179546
 20
12.12713671353888
 30
0.0
 10
-6.137519749517339
 20
12.31899995053605
 30
0.0
 10
-6.220055815333984
 20
12.46881198477456
 30
0.0
 10
-6.246073691688752
 20
12.55170246926256
 30
0.0
 10
-6.247241133990784
 20
12.55542182962494
 30
0.0
  0
SPLINE
  5
324
330
2F8
100
AcDbEntity
 67
     1
  8
0
  6
Continuous
 62
     7
370
    15
100
AcDbSpline
210
0.0
220
0.0
230
1.0
 70
     8
 71
     3
 72
    19
 73
    15
 74
     0
 42
0.00000001
 43
0.00000001
 12
1.0
 22
0.0
 32
0.0
 13
1.0
 23
0.0
 33
0.0
 40
0.0
 40
0.0
 40
0.0
 40
0.0
 40
0.0248658234676573
 40
0.1114441918306982
 40
0.1820030100798886
 40
0.254501192284486
 40
0.3251272435147715
 40
0.3981313229244089
 40
0.5312805380238156
 40
0.674583386702396
 40
0.7557227775572755
 40
0.8390326579633596
 40
0.9182412575661307
 40
1.0
 40
1.0
 40
1.0
 40
1.0
 10
-7.263024757142431
 20
12.57294638092001
 30
0.0
 10
-7.274131522745824
 20
12.55548290736926
 30
0.0
 10
-7.32391006790975
 20
12.47721472940394
 30
0.0
 10
-7.382820742323323
 20
12.33382072101121
 30
0.0
 10
-7.435407008228891
 20
12.14663213131339
 30
0.0
 10
-7.455714416222275
 20
11.96610434216404
 30
0.0
 10
-7.445604016131888
 20
11.78361853700138
 30
0.0
 10
-7.39170418141027
 20
11.55721745799307
 30
0.0
 10
-7.252275411418073
 20
11.29679736878223
 30
0.0
 10
-7.035013674029567
 20
11.0859088026438
 30
0.0
 10
-6.815540133891229
 20
10.94569802892454
 30
0.0
 10
-6.627828843673215
 20
10.85893129430634
 30
0.0
 10
-6.431584207857878
 20
10.79446148065481
 30
0.0
 10
-6.302820923006455
 20
10.77331164803882
 30
0.0
 10
-6.237419307325242
 20
10.76256919745541
 30
0.0
  0
LWPOLYLINE
  5
333
330
2F8
100
AcDbEntity
 67
     1
  8
0
  6
Continuous
 62
     7
370
    15
100
AcDbPolyline
 90
       20
 70
   128
 43
0.0
 10
2.5557513905
 20
-16.3665177075
 10
2.748206567
 20
-16.3746914225
 10
2.9354120679
 20
-16.3504954637
 10
3.1122614152
 20
-16.2945898338
 10
3.2739306198
 20
-16.2084994926
 10
3.4160097671
 20
-16.0945727602
 10
3.5346233085
 20
-15.9559172609
 10
3.6265357757
 20
-15.7963151552
 10
3.6892400361
 20
-15.6201199727
 10
3.7210256811
 20
-15.4321378584
 10
3.7210256811
 20
-15.2374964745
 10
3.6892400361
 20
-15.0415051305
 10
3.6265357757
 20
-14.8495099594
 10
3.5346233085
 20
-14.666748089
 10
3.4160097671
 20
-14.4982047866
 10
3.2739306198
 20
-14.3484774742
 10
3.1122614152
 20
-14.2216503225
 10
2.9354120679
 20
-14.1211828457
 10
2.748206567
 20
-14.0498155346
 10
2.5557513905
 20
-14.0094951034
  0
LWPOLYLINE
  5
337
330
2F8
100
AcDbEntity
 67
     1
  8
0
  6
Continuous
 62
     7
370
    15
100
AcDbPolyline
 90
       44
 70
   128
 43
0.0
 10
7.2600906975
 20
-14.8104052753
 10
7.2661189989
 20
-14.5854502573
 10
7.2840754202
 20
-14.3546568409
 10
7.3135772515
 20
-14.122943987
 10
7.3539957124
 20
-13.8952502527
 10
7.4044693538
 20
-13.6764285347
 10
7.4639224174
 20
-13.4711426381
 10
7.5310877645
 20
-13.2837678753
 10
7.6045338824
 20
-13.118297814
 10
7.6826953945
 20
-12.9782591614
 10
7.7639064239
 20
-12.8666365982
 10
7.8464360985
 20
-12.7858091654
 10
7.9285254416
 20
-12.7374995597
 10
8.0084248613
 20
-12.7227374162
 10
8.0844314402
 20
-12.7418373645
 10
8.1549252302
 20
-12.7943923223
 10
8.2184037783
 20
-12.879282172
 10
8.2735141496
 20
-12.9946976337
 10
8.3190817623
 20
-13.1381788273
 10
8.3541354216
 20
-13.3066677003
 10
8.3779280198
 20
-13.4965732048
 10
8.3899524589
 20
-13.7038478348
 10
8.3899524589
 20
-13.9240738913
 10
8.3779280198
 20
-14.1525576383
 10
8.3541354216
 20
-14.3844293414
 10
8.3190817623
 20
-14.6147470579
 10
8.2735141496
 20
-14.8386019654
 10
8.2184037783
 20
-15.0512229852
 10
8.1549252302
 20
-15.2480784695
 10
8.0844314402
 20
-15.4249727854
 10
8.0084248613
 20
-15.5781357377
 10
7.9285254416
 20
-15.7043029239
 10
7.8464360985
 20
-15.8007853095
 10
7.7639064239
 20
-15.86552654
 10
7.6826953945
 20
-15.8971467684
 10
7.6045338824
 20
-15.8949720645
 10
7.5310877645
 20
-15.8590487783
 10
7.4639224174
 20
-15.7901425523
 10
7.4044693538
 20
-15.6897220031
 10
7.3539957124
 20
-15.5599274203
 10
7.3135772515
 20
-15.4035251501
 10
7.2840754202
 20
-15.2238486353
 10
7.2661189989
 20
-15.024727369
 10
7.2600906975
 20
-14.8104052753
  0
LWPOLYLINE
  5
33C
330
2F8
100
AcDbEntity
 67
     1
  8
0
  6
Continuous
 62
     8
370
    15
100
AcDbPolyline
 90
       44
 70
   128
 43
0.0
 10
-15.9897558803
 20
1.7926964249
 10
-15.7801684745
 20
1.9297664171
 10
-15.2979946139
 20
2.2162601862
 10
-14.7983106247
 20
2.4744159164
 10
-14.2825092158
 20
2.7035140814
 10
-13.7520280181
 20
2.9029161436
 10
-13.208345578
 20
3.0720663336
 10
-12.6529772359
 20
3.2104931994
 10
-12.087470903
 20
3.3178109207
 10
-11.5134027469
 20
3.3937203836
 10
-10.9323727984
 20
3.4380100149
 10
-10.3460004923
 20
3.4505563714
 10
-9.7559201534
 20
3.4313244842
 10
-9.1637764413
 20
3.380367956
 10
-8.5712197669
 20
3.2978288117
 10
-7.9799016918
 20
3.1839371029
 10
-7.3914703256
 20
3.039010266
 10
-6.807565732
 20
2.8634522383
 10
-6.2298153579
 20
2.6577523313
 10
-5.6598294971
 20
2.4224838677
 10
-5.0991968026
 20
2.1583025828
 10
-4.5494798582
 20
1.8659447973
 10
-4.0122108235
 20
1.5462253647
 10
-3.4888871638
 20
1.2000354005
 10
-2.980967476
 20
0.8283397981
 10
-2.4898674233
 20
0.43217454
 10
-2.0169557897
 20
0.0126438096
 10
-1.5635506647
 20
-0.4290830856
 10
-1.1309157697
 20
-0.8917749734
 10
-0.7202569358
 20
-1.3741422487
 10
-0.3327187427
 20
-1.8748404674
 10
0.030618671
 20
-2.3924740936
 10
0.3687426189
 20
-2.9256003896
 10
0.6807106888
 20
-3.4727334369
 10
0.9656533698
 20
-4.0323482774
 10
1.2227764754
 20
-4.6028851643
 10
1.4513633576
 20
-5.182753909
 10
1.6507769037
 20
-5.7703383131
 10
1.8204613123
 20
-6.3640006736
 10
1.9599436425
 20
-6.9620863471
 10
2.0688351322
 20
-7.5629283615
 10
2.1468322811
 20
-8.1648520623
 10
2.1937176973
 20
-8.7661797802
 10
2.2093607026
 20
-9.365235507
  0
SPLINE
  5
33D
330
2F8
100
AcDbEntity
 67
     1
  8
0
  6
Continuous
 62
     8
370
    15
100
AcDbSpline
210
0.0
220
0.0
230
1.0
 70
     8
 71
     3
 72
    26
 73
    22
 74
     0
 42
0.00000001
 43
0.00000001
 12
1.0
 22
0.0
 32
0.0
 13
1.0
 23
0.0
 33
0.0
 40
0.0
 40
0.0
 40
0.0
 40
0.0
 40
0.0471088957699359
 40
0.1010628786518881
 40
0.154568876784975
 40
0.2080739763724151
 40
0.261255727214182
 40
0.3144340114272057
 40
0.3676087539835798
 40
0.4207827349557097
 40
0.4965125572047077
 40
0.5504613139984901
 40
0.6044132745003004
 40
0.657904762781191
 40
0.7113952970959249
 40
0.7644606582683746
 40
0.8175224983737758
 40
0.8708547820206267
 40
0.924186391214515
 40
0.9780672994896237
 40
1.0
 40
1.0
 40
1.0
 40
1.0
 10
-3.352303543545964
 20
6.647002725735629
 30
0.0
 10
-3.35482100848571
 20
6.677883735937181
 30
0.0
 10
-3.360221734814732
 20
6.744132874993398
 30
0.0
 10
-3.423194884604739
 20
6.848423667485548
 30
0.0
 10
-3.528238989988441
 20
6.953214658798582
 30
0.0
 10
-3.672975095627471
 20
7.049900939595742
 30
0.0
 10
-3.85356226653946
 20
7.133788355443329
 30
0.0
 10
-4.063951941483921
 20
7.201921371138033
 30
0.0
 10
-4.299773246297856
 20
7.250562872478271
 30
0.0
 10
-4.589108086091938
 20
7.282758233349869
 30
0.0
 10
-4.895926267350794
 20
7.284676828187823
 30
0.0
 10
-5.203263406416518
 20
7.257574266704942
 30
0.0
 10
-5.466199496888327
 20
7.215273264608415
 30
0.0
 10
-5.713313801943753
 20
7.157009626454634
 30
0.0
 10
-5.938239545105009
 20
7.087094353306925
 30
0.0
 10
-6.13479098563531
 20
7.008765287768066
 30
0.0
 10
-6.298997602466029
 20
6.925695783001292
 30
0.0
 10
-6.425928483690995
 20
6.840982782098063
 30
0.0
 10
-6.510076801440795
 20
6.7574508012776
 30
0.0
 10
-6.549815561575081
 20
6.692377427349823
 30
0.0
 10
-6.545402221444681
 20
6.657467341399371
 30
0.0
 10
-6.544125452420212
 20
6.647367934812499
 30
0.0
  0
SPLINE
  5
33E
330
2F8
100
AcDbEntity
 67
     1
  8
0
  6
Continuous
 62
     8
370
    15
100
AcDbSpline
210
0.0
220
0.0
230
1.0
 70
     8
 71
     3
 72
    13
 73
     9
 74
     0
 42
0.00000001
 43
0.00000001
 12
1.0
 22
0.0
 32
0.0
 13
1.0
 23
0.0
 33
0.0
 40
0.0
 40
0.0
 40
0.0
 40
0.0
 40
0.0036054853629426
 40
0.2112556252100056
 40
0.4248112371404177
 40
0.6311783869337245
 40
0.8434555323509235
 40
0.9999999999999999
 40
0.9999999999999999
 40
0.9999999999999999
 40
0.9999999999999999
 10
-5.762289220572668
 20
-14.95217183758402
 30
0.0
 10
-5.761041645509145
 20
-14.95199196108649
 30
0.0
 10
-5.687942680041147
 20
-14.94145248633578
 30
0.0
 10
-5.518834960799881
 20
-14.93383839408511
 30
0.0
 10
-5.264129240279851
 20
-14.92877011243978
 30
0.0
 10
-4.99588486456232
 20
-14.93718687335328
 30
0.0
 10
-4.749750331998819
 20
-14.95247181523543
 30
0.0
 10
-4.597448029601423
 20
-14.96831436304699
 30
0.0
 10
-4.53280408790746
 20
-14.97503865231179
 30
0.0
  0
LINE
  5
340
330
2F8
100
AcDbEntity
 67
     1
  8
0
  6
Continuous
 62
     7
370
    15
100
AcDbLine
 10
-10.0585742764
 20
7.1291713069
 30
0.0
 11
-16.9528653914
 21
1.0489780546
 31
0.0
  0
LINE
  5
341
330
2F8
100
AcDbEntity
 67
     1
  8
0
  6
Continuous
 62
     7
370
    15
100
AcDbLine
 10
-1.0783575248
 20
-16.9510219452
 30
0.0
 11
5.8159335902
 21
-10.8708286929
 31
0.0
  0
LINE
  5
342
330
2F8
100
AcDbEntity
 67
     1
  8
0
  6
Continuous
 62
     7
370
    15
100
AcDbLine
 10
-8.6124597749
 20
16.3652747512
 30
0.0
 11
-10.733780118
 21
14.4944460582
 31
0.0
  0
LINE
  5
343
330
2F8
100
AcDbEntity
 67
     1
  8
0
  6
Continuous
 62
     7
370
    15
100
AcDbLine
 10
6.4911394319
 20
-18.2361034442
 30
0.0
 11
8.6124597749
 21
-16.3652747512
 31
0.0
  0
LINE
  5
344
330
2F8
100
AcDbEntity
 67
     1
  8
0
  6
Continuous
 62
     7
370
    15
100
AcDbLine
 10
9.2205128463
 20
5.2906615977
 30
0.0
 11
7.0991925032
 21
3.4198329047
 31
0.0
  0
LINE
  5
345
330
2F8
100
AcDbEntity
 67
     1
  8
0
  6
Continuous
 62
     7
370
    15
100
AcDbLine
 10
7.0991925032
 20
-9.4848411421
 30
0.0
 11
9.2205128463
 21
-7.6140124491
 31
0.0
  0
LINE
  5
346
330
2F8
100
AcDbEntity
 67
     1
  8
0
  6
Continuous
 62
     7
370
    15
100
AcDbLine
 10
-11.007756637
 20
13.8622971883
 30
0.0
 11
-11.007756637
 21
6.7764835707
 31
0.0
  0
LINE
  5
347
330
2F8
100
AcDbEntity
 67
     1
  8
0
  6
Continuous
 62
     7
370
    15
100
AcDbLine
 10
5.8297016041
 20
12.6837858874
 30
0.0
 11
-10.0723422902
 21
14.6872550998
 31
0.0
  0
LINE
  5
348
330
2F8
100
AcDbEntity
 67
     1
  8
0
  6
Continuous
 62
     7
370
    15
100
AcDbLine
 10
6.7651159508
 20
4.537312098
 30
0.0
 11
6.7651159508
 21
11.6231257156
 31
0.0
  0
LINE
  5
349
330
2F8
100
AcDbEntity
 67
     1
  8
0
  6
Continuous
 62
     7
370
    15
100
AcDbLine
 10
2.5557513905
 20
11.44634902
 30
0.0
 11
-6.7983920767
 21
12.6248603215
 31
0.0
  0
LINE
  5
34A
330
2F8
100
AcDbEntity
 67
     1
  8
0
  6
Continuous
 62
     7
370
    15
100
AcDbLine
 10
-6.7983920767
 20
10.2678377174
 30
0.0
 11
2.5557513905
 21
9.089326416
 31
0.0
  0
LINE
  5
34B
330
2F8
100
AcDbEntity
 67
     1
  8
0
  6
Continuous
 62
     7
370
    15
100
AcDbLine
 10
5.8297016041
 20
12.6837858874
 30
0.0
 11
7.9510219472
 21
14.5546145804
 31
0.0
  0
LINE
  5
34C
330
2F8
100
AcDbEntity
 67
     1
  8
0
  6
Continuous
 62
     7
370
    15
100
AcDbLine
 10
8.8864362939
 20
13.4939544086
 30
0.0
 11
6.7651159508
 21
11.6231257156
 31
0.0
  0
LINE
  5
34D
330
2F8
100
AcDbEntity
 67
     1
  8
0
  6
Continuous
 62
     7
370
    15
100
AcDbLine
 10
8.8864362939
 20
6.408140791
 30
0.0
 11
8.8864362939
 21
13.4939544086
 31
0.0
  0
LINE
  5
34E
330
2F8
100
AcDbEntity
 67
     1
  8
0
  6
Continuous
 62
     7
370
    15
100
AcDbLine
 10
6.7651159508
 20
4.537312098
 30
0.0
 11
8.8864362939
 21
6.408140791
 31
0.0
  0
LINE
  5
34F
330
2F8
100
AcDbEntity
 67
     1
  8
0
  6
Continuous
 62
     7
370
    15
100
AcDbLine
 10
-7.9510219472
 20
16.5580837928
 30
0.0
 11
-10.0723422902
 21
14.6872550998
 31
0.0
  0
LINE
  5
350
330
2F8
100
AcDbEntity
 67
     1
  8
0
  6
Continuous
 62
     7
370
    15
100
AcDbLine
 10
7.9510219472
 20
14.5546145804
 30
0.0
 11
-7.9510219472
 21
16.5580837928
 31
0.0
  0
LINE
  5
351
330
2F8
100
AcDbEntity
 67
     1
  8
0
  6
Continuous
 62
     7
370
    15
100
AcDbLine
 10
3.1167241599
 20
9.584057896
 30
0.0
 11
2.5557513905
 21
9.089326416
 31
0.0
  0
LINE
  5
352
330
2F8
100
AcDbEntity
 67
     1
  8
0
  6
Continuous
 62
     7
370
    15
100
AcDbLine
 10
3.6576788905
 20
10.5231791295
 30
0.0
 11
-5.238044503
 21
11.6439349304
 31
0.0
  0
LINE
  5
353
330
2F8
100
AcDbEntity
 67
     1
  8
0
  6
Continuous
 62
     7
370
    15
100
AcDbLine
 10
-6.2374193073
 20
10.7625691975
 30
0.0
 11
3.1167241599
 21
9.584057896
 31
0.0
  0
LINE
  5
354
330
2F8
100
AcDbEntity
 67
     1
  8
0
  6
Continuous
 62
     7
370
    15
100
AcDbLine
 10
-6.2374193073
 20
10.7625691975
 30
0.0
 11
-6.7983920767
 21
10.2678377174
 31
0.0
  0
LINE
  5
355
330
2F8
100
AcDbEntity
 67
     1
  8
0
  6
Continuous
 62
     7
370
    15
100
AcDbLine
 10
-4.6770717336
 20
12.1386664104
 30
0.0
 11
-5.238044503
 21
11.6439349304
 31
0.0
  0
LINE
  5
356
330
2F8
100
AcDbEntity
 67
     1
  8
0
  6
Continuous
 62
     7
370
    15
100
AcDbLine
 10
-4.6770717336
 20
12.1386664104
 30
0.0
 11
3.2345619013
 21
11.1418942651
 31
0.0
  0
LINE
  5
357
330
2F8
100
AcDbEntity
 67
     1
  8
0
  6
Continuous
 62
     7
370
    15
100
AcDbLine
 10
6.7651159508
 20
-17.6039545743
 30
0.0
 11
6.7651159508
 21
-10.5181409567
 31
0.0
  0
LINE
  5
358
330
2F8
100
AcDbEntity
 67
     1
  8
0
  6
Continuous
 62
     7
370
    15
100
AcDbLine
 10
-1.7308588163
 20
-17.4763714079
 30
0.0
 11
5.8297016041
 21
-18.4289124858
 31
0.0
  0
LINE
  5
359
330
2F8
100
AcDbEntity
 67
     1
  8
0
  6
Continuous
 62
     7
370
    15
100
AcDbLine
 10
2.5557513905
 20
-14.0094951034
 30
0.0
 11
2.2943617763
 21
-13.9765631075
 31
0.0
  0
LINE
  5
35A
330
2F8
100
AcDbEntity
 67
     1
  8
0
  6
Continuous
 62
     7
370
    15
100
AcDbLine
 10
-0.0441740906
 20
-16.0389578862
 30
0.0
 11
2.5557513905
 21
-16.3665177075
 31
0.0
  0
LINE
  5
35B
330
2F8
100
AcDbEntity
 67
     1
  8
0
  6
Continuous
 62
     7
370
    15
100
AcDbLine
 10
8.8864362939
 20
-8.6473122637
 30
0.0
 11
6.7651159508
 21
-10.5181409567
 31
0.0
  0
LINE
  5
35C
330
2F8
100
AcDbEntity
 67
     1
  8
0
  6
Continuous
 62
     7
370
    15
100
AcDbLine
 10
6.7651159508
 20
-17.6039545743
 30
0.0
 11
8.8864362939
 21
-15.7331258813
 31
0.0
  0
LINE
  5
35D
330
2F8
100
AcDbEntity
 67
     1
  8
0
  6
Continuous
 62
     7
370
    15
100
AcDbLine
 10
8.8864362939
 20
-15.7331258813
 30
0.0
 11
8.8864362939
 21
-8.6473122637
 31
0.0
  0
LINE
  5
35E
330
2F8
100
AcDbEntity
 67
     1
  8
0
  6
Continuous
 62
     7
370
    15
100
AcDbLine
 10
2.0771462525
 20
-14.1681291932
 30
0.0
 11
3.2345619013
 21
-14.3139498584
 31
0.0
  0
LINE
  5
35F
330
2F8
100
AcDbEntity
 67
     1
  8
0
  6
Continuous
 62
     8
370
    15
100
AcDbLine
 10
3.725019324
 20
-15.3353203182
 30
0.0
 11
2.5557513905
 21
-16.3665177075
 31
0.0
  0
ARC
  5
360
330
2F8
100
AcDbEntity
 67
     1
  8
0
  6
Continuous
 62
     7
370
    15
100
AcDbCircle
 10
-7.2608481492
 20
-9.9407410381
 30
0.0
 40
9.347001967714068
100
AcDbArc
 50
303.9345445967
 51
318.792895532
  0
ARC
  5
361
330
2F8
100
AcDbEntity
 67
     1
  8
0
  6
Continuous
 62
     7
370
    15
100
AcDbCircle
 10
-10.7716239896
 20
-5.9598887073
 30
0.0
 40
9.345131174050207
100
AcDbArc
 50
123.9438196862
 51
138.8464691312
  0
ARC
  5
362
330
2F8
100
AcDbEntity
 67
     1
  8
0
  6
Continuous
 62
     7
370
    15
100
AcDbCircle
 10
-0.1827175181
 20
-1.1616754257
 30
0.0
 40
11.40409550776321
100
AcDbArc
 50
325.5427474364
 51
34.4572525636
  0
ARC
  5
363
330
2F8
100
AcDbEntity
 67
     1
  8
0
  6
Continuous
 62
     7
370
    15
100
AcDbCircle
 10
-0.3811409979
 20
-3.8460118694
 30
0.0
 40
9.367592265572647
100
AcDbArc
 50
311.4177346404
 51
322.9902614153
  0
ARC
  5
364
330
2F8
100
AcDbEntity
 67
     1
  8
0
  6
Continuous
 62
     7
370
    15
100
AcDbCircle
 10
1.6062718009
 20
1.4165985744
 30
0.0
 40
11.64770077016032
100
AcDbArc
 50
176.6451448608
 51
266.1740993592
  0
ARC
  5
365
330
2F8
100
AcDbEntity
 67
     1
  8
0
  6
Continuous
 62
     7
370
    15
100
AcDbCircle
 10
-12.7913615089
 20
6.7694463205
 30
0.0
 40
1.783618754704685
100
AcDbArc
 50
341.8489853276
 51
0.2260605179
  0
ARC
  5
366
330
2F8
100
AcDbEntity
 67
     1
  8
0
  6
Continuous
 62
     7
370
    15
100
AcDbCircle
 10
-10.1940732935
 20
13.8824760417
 30
0.0
 40
0.8139335166446362
100
AcDbArc
 50
81.3986348259
 51
181.4206093965
  0
ARC
  5
367
330
2F8
100
AcDbEntity
 67
     1
  8
0
  6
Continuous
 62
     7
370
    15
100
AcDbCircle
 10
5.6731903142
 20
11.6029468622
 30
0.0
 40
1.092112073957697
100
AcDbArc
 50
1.0587090425
 51
81.7605351794
  0
ARC
  5
368
330
2F8
100
AcDbEntity
 67
     1
  8
0
  6
Continuous
 62
     7
370
    15
100
AcDbCircle
 10
8.8640601315
 20
4.5561263995
 30
0.0
 40
2.099028501869754
100
AcDbArc
 50
180.5135683033
 51
212.7750806082
  0
ARC
  5
369
330
2F8
100
AcDbEntity
 67
     1
  8
0
  6
Continuous
 62
     7
370
    15
100
AcDbCircle
 10
7.7945106572
 20
13.4737755552
 30
0.0
 40
1.092112073957687
100
AcDbArc
 50
1.0587090425
 51
81.7605351794
  0
ARC
  5
36A
330
2F8
100
AcDbEntity
 67
     1
  8
0
  6
Continuous
 62
     7
370
    15
100
AcDbCircle
 10
10.9853804746
 20
6.4269550925
 30
0.0
 40
2.09902850186979
100
AcDbArc
 50
180.5135683033
 51
212.7750806082
  0
ARC
  5
36B
330
2F8
100
AcDbEntity
 67
     1
  8
0
  6
Continuous
 62
     7
370
    15
100
AcDbCircle
 10
-4.499738692
 20
13.4430104215
 30
0.0
 40
1.316343536797206
100
AcDbArc
 50
229.4285931331
 51
262.257779913
  0
ARC
  5
36C
330
2F8
100
AcDbEntity
 67
     1
  8
0
  6
Continuous
 62
     7
370
    15
100
AcDbCircle
 10
-8.0693149589
 20
15.7329451518
 30
0.0
 40
0.8335748397239897
100
AcDbArc
 50
81.8415869733
 51
130.6612067915
  0
ARC
  5
36D
330
2F8
100
AcDbEntity
 67
     1
  8
0
  6
Continuous
 62
     7
370
    15
100
AcDbCircle
 10
8.4719613024
 20
-10.4993266552
 30
0.0
 40
1.706949042093924
100
AcDbArc
 50
143.5353459766
 51
180.6315372475
  0
ARC
  5
36E
330
2F8
100
AcDbEntity
 67
     1
  8
0
  6
Continuous
 62
     7
370
    15
100
AcDbCircle
 10
5.9514326074
 20
-17.6241334277
 30
0.0
 40
0.8139335166446374
100
AcDbArc
 50
261.3986348259
 51
1.4206093965
  0
ARC
  5
36F
330
2F8
100
AcDbEntity
 67
     1
  8
0
  6
Continuous
 62
     7
370
    15
100
AcDbCircle
 10
10.5932816455
 20
-8.6284979622
 30
0.0
 40
1.706949042093933
100
AcDbArc
 50
143.5353459766
 51
180.6315372475
  0
ARC
  5
370
330
2F8
100
AcDbEntity
 67
     1
  8
0
  6
Continuous
 62
     7
370
    15
100
AcDbCircle
 10
8.052982802
 20
-15.7473487603
 30
0.0
 40
0.8335748397325908
100
AcDbArc
 50
312.158037431
 51
0.9776572489
  0
ARC
  5
371
330
2F8
100
AcDbEntity
 67
     1
  8
0
  6
Continuous
 62
     8
370
    15
100
AcDbCircle
 10
-7.9230787714
 20
-9.5041808347
 30
0.0
 40
10.13339210226112
100
AcDbArc
 50
319.4025797756
 51
0.7856431744
  0
VIEWPORT
  5
37B
330
2F8
100
AcDbEntity
 67
     1
  8
0
100
AcDbViewport
 10
0.0
 20
0.0
 30
0.0
 40
243.84
 41
204.216
 68
     1
 69
     1
 12
10.9413581274
 22
-0.7593179437
 13
0.0
 23
0.0
 14
10.0
 24
10.0
 15
10.0
 25
10.0
 16
0.0
 26
0.0
 36
1.0
 17
0.0
 27
0.0
 37
0.0
 42
50.0
 43
0.0
 44
0.0
 45
38.3913139752
 50
0.0
 51
0.0
 72
   100
 90
   557152
  1

281
     0
 71
     1
 74
     0
110
0.0
120
0.0
130
0.0
111
1.0
121
0.0
131
0.0
112
0.0
122
1.0
132
0.0
 79
     0
146
0.0
  0
ENDSEC
  0
SECTION
  2
OBJECTS
  0
DICTIONARY
  5
C
330
0
100
AcDbDictionary
281
     1
  3
ACAD_GROUP
350
D
  3
ACAD_LAYOUT
350
1A
  3
ACAD_MLINESTYLE
350
17
  3
ACAD_PLOTSETTINGS
350
19
  3
ACAD_PLOTSTYLENAME
350
E
  0
DICTIONARY
  5
D
102
{ACAD_REACTORS
330
C
102
}
330
C
100
AcDbDictionary
281
     1
  0
DICTIONARY
  5
1A
102
{ACAD_REACTORS
330
C
102
}
330
C
100
AcDbDictionary
281
     1
  3
_Arrière
350
177
  3
_Dessous
350
1EE
  3
_Dessus
350
26
  3
_Dimétrique
350
2F9
  3
_Droite
350
100
  3
_Face
350
1E
  3
_Gauche
350
1AC
  3
_Isométrique
350
21C
  3
_Normal à
350
144
  3
_Trimétrique
350
28A
  3
Model
350
22
  0
DICTIONARY
  5
17
102
{ACAD_REACTORS
330
C
102
}
330
C
100
AcDbDictionary
281
     1
  3
Standard
350
18
  0
DICTIONARY
  5
19
102
{ACAD_REACTORS
330
C
102
}
330
C
100
AcDbDictionary
281
     1
  0
ACDBDICTIONARYWDFLT
  5
E
102
{ACAD_REACTORS
330
C
102
}
330
C
100
AcDbDictionary
281
     1
  3
Normal
350
F
100
AcDbDictionaryWithDefault
340
F
  0
LAYOUT
  5
177
102
{ACAD_REACTORS
330
1A
102
}
330
1A
100
AcDbPlotSettings
  1

  2
none_device
  4

  6

 40
0.0
 41
0.0
 42
0.0
 43
0.0
 44
0.0
 45
0.0
 46
0.0
 47
0.0
 48
0.0
 49
0.0
140
0.0
141
0.0
142
1.0
143
1.0
 70
   688
 72
     0
 73
     0
 74
     5
  7

 75
    16
147
1.0
148
0.0
149
0.0
100
AcDbLayout
  1
_Arrière
 70
     1
 71
     5
 10
0.0
 20
0.0
 11
0.0
 21
0.0
 12
0.0
 22
0.0
 32
0.0
 14
0.0
 24
0.0
 34
0.0
 15
0.0
 25
0.0
 35
0.0
146
0.0
 13
0.0
 23
0.0
 33
0.0
 16
1.0
 26
0.0
 36
0.0
 17
0.0
 27
1.0
 37
0.0
 76
     0
330
176
331
376
  0
LAYOUT
  5
1EE
102
{ACAD_REACTORS
330
1A
102
}
330
1A
100
AcDbPlotSettings
  1

  2
none_device
  4

  6

 40
0.0
 41
0.0
 42
0.0
 43
0.0
 44
0.0
 45
0.0
 46
0.0
 47
0.0
 48
0.0
 49
0.0
140
0.0
141
0.0
142
1.0
143
1.0
 70
   688
 72
     0
 73
     0
 74
     5
  7

 75
    16
147
1.0
148
0.0
149
0.0
100
AcDbLayout
  1
_Dessous
 70
     1
 71
     7
 10
0.0
 20
0.0
 11
0.0
 21
0.0
 12
0.0
 22
0.0
 32
0.0
 14
0.0
 24
0.0
 34
0.0
 15
0.0
 25
0.0
 35
0.0
146
0.0
 13
0.0
 23
0.0
 33
0.0
 16
1.0
 26
0.0
 36
0.0
 17
0.0
 27
1.0
 37
0.0
 76
     0
330
1ED
331
378
  0
LAYOUT
  5
26
102
{ACAD_REACTORS
330
1A
102
}
330
1A
100
AcDbPlotSettings
  1

  2
none_device
  4

  6

 40
0.0
 41
0.0
 42
0.0
 43
0.0
 44
0.0
 45
0.0
 46
0.0
 47
0.0
 48
0.0
 49
0.0
140
0.0
141
0.0
142
1.0
143
1.0
 70
   688
 72
     0
 73
     0
 74
     5
  7

 75
    16
147
1.0
148
0.0
149
0.0
100
AcDbLayout
  1
_Dessus
 70
     1
 71
     2
 10
0.0
 20
0.0
 11
0.0
 21
0.0
 12
0.0
 22
0.0
 32
0.0
 14
0.0
 24
0.0
 34
0.0
 15
0.0
 25
0.0
 35
0.0
146
0.0
 13
0.0
 23
0.0
 33
0.0
 16
1.0
 26
0.0
 36
0.0
 17
0.0
 27
1.0
 37
0.0
 76
     0
330
23
331
373
  0
LAYOUT
  5
2F9
102
{ACAD_REACTORS
330
1A
102
}
330
1A
100
AcDbPlotSettings
  1

  2
none_device
  4
ANSI_A_(11.00_x_8.50_Inches)
  6

 40
6.35
 41
19.05
 42
6.35000508
 43
19.05000254
 44
279.4
 45
215.9
 46
71.2164334566
 47
93.2119981642
 48
0.0
 49
0.0
140
0.0
141
0.0
142
0.2235740096
143
1.0
 70
  1696
 72
     0
 73
     0
 74
     5
  7

 75
    16
147
1.0
148
0.0
149
0.0
100
AcDbLayout
  1
_Dimétrique
 70
     1
 71
    10
 10
0.0
 20
0.0
 11
0.0
 21
0.0
 12
0.0
 22
0.0
 32
0.0
 14
-6.3424538235
 24
-19.5785895002
 34
0.0
 15
28.2251700782
 25
18.0599536128
 35
0.0
146
0.0
 13
0.0
 23
0.0
 33
0.0
 16
1.0
 26
0.0
 36
0.0
 17
0.0
 27
1.0
 37
0.0
 76
     0
330
2F8
331
37B
  0
LAYOUT
  5
100
102
{ACAD_REACTORS
330
1A
102
}
330
1A
100
AcDbPlotSettings
  1

  2
none_device
  4

  6

 40
0.0
 41
0.0
 42
0.0
 43
0.0
 44
0.0
 45
0.0
 46
0.0
 47
0.0
 48
0.0
 49
0.0
140
0.0
141
0.0
142
1.0
143
1.0
 70
   688
 72
     0
 73
     0
 74
     5
  7

 75
    16
147
1.0
148
0.0
149
0.0
100
AcDbLayout
  1
_Droite
 70
     1
 71
     3
 10
0.0
 20
0.0
 11
0.0
 21
0.0
 12
0.0
 22
0.0
 32
0.0
 14
0.0
 24
0.0
 34
0.0
 15
0.0
 25
0.0
 35
0.0
146
0.0
 13
0.0
 23
0.0
 33
0.0
 16
1.0
 26
0.0
 36
0.0
 17
0.0
 27
1.0
 37
0.0
 76
     0
330
FF
331
374
  0
LAYOUT
  5
1E
102
{ACAD_REACTORS
330
1A
102
}
330
1A
100
AcDbPlotSettings
  1

  2
none_device
  4

  6

 40
0.0
 41
0.0
 42
0.0
 43
0.0
 44
0.0
 45
0.0
 46
0.0
 47
0.0
 48
0.0
 49
0.0
140
0.0
141
0.0
142
1.0
143
1.0
 70
   688
 72
     0
 73
     0
 74
     5
  7

 75
    16
147
1.0
148
0.0
149
0.0
100
AcDbLayout
  1
_Face
 70
     1
 71
     1
 10
0.0
 20
0.0
 11
420.0
 21
297.0
 12
0.0
 22
0.0
 32
0.0
 14
1.0000000000E+20
 24
1.0000000000E+20
 34
1.0000000000E+20
 15
-1.0000000000E+20
 25
-1.0000000000E+20
 35
-1.0000000000E+20
146
0.0
 13
0.0
 23
0.0
 33
0.0
 16
1.0
 26
0.0
 36
0.0
 17
0.0
 27
1.0
 37
0.0
 76
     0
330
1B
331
372
  0
LAYOUT
  5
1AC
102
{ACAD_REACTORS
330
1A
102
}
330
1A
100
AcDbPlotSettings
  1

  2
none_device
  4

  6

 40
0.0
 41
0.0
 42
0.0
 43
0.0
 44
0.0
 45
0.0
 46
0.0
 47
0.0
 48
0.0
 49
0.0
140
0.0
141
0.0
142
1.0
143
1.0
 70
   688
 72
     0
 73
     0
 74
     5
  7

 75
    16
147
1.0
148
0.0
149
0.0
100
AcDbLayout
  1
_Gauche
 70
     1
 71
     6
 10
0.0
 20
0.0
 11
0.0
 21
0.0
 12
0.0
 22
0.0
 32
0.0
 14
0.0
 24
0.0
 34
0.0
 15
0.0
 25
0.0
 35
0.0
146
0.0
 13
0.0
 23
0.0
 33
0.0
 16
1.0
 26
0.0
 36
0.0
 17
0.0
 27
1.0
 37
0.0
 76
     0
330
1AB
331
377
  0
LAYOUT
  5
21C
102
{ACAD_REACTORS
330
1A
102
}
330
1A
100
AcDbPlotSettings
  1

  2
none_device
  4

  6

 40
0.0
 41
0.0
 42
0.0
 43
0.0
 44
0.0
 45
0.0
 46
0.0
 47
0.0
 48
0.0
 49
0.0
140
0.0
141
0.0
142
1.0
143
1.0
 70
   688
 72
     0
 73
     0
 74
     5
  7

 75
    16
147
1.0
148
0.0
149
0.0
100
AcDbLayout
  1
_Isométrique
 70
     1
 71
     8
 10
0.0
 20
0.0
 11
0.0
 21
0.0
 12
0.0
 22
0.0
 32
0.0
 14
0.0
 24
0.0
 34
0.0
 15
0.0
 25
0.0
 35
0.0
146
0.0
 13
0.0
 23
0.0
 33
0.0
 16
1.0
 26
0.0
 36
0.0
 17
0.0
 27
1.0
 37
0.0
 76
     0
330
21B
331
379
  0
LAYOUT
  5
144
102
{ACAD_REACTORS
330
1A
102
}
330
1A
100
AcDbPlotSettings
  1

  2
none_device
  4

  6

 40
0.0
 41
0.0
 42
0.0
 43
0.0
 44
0.0
 45
0.0
 46
0.0
 47
0.0
 48
0.0
 49
0.0
140
0.0
141
0.0
142
1.0
143
1.0
 70
   688
 72
     0
 73
     0
 74
     5
  7

 75
    16
147
1.0
148
0.0
149
0.0
100
AcDbLayout
  1
_Normal à
 70
     1
 71
     4
 10
0.0
 20
0.0
 11
0.0
 21
0.0
 12
0.0
 22
0.0
 32
0.0
 14
0.0
 24
0.0
 34
0.0
 15
0.0
 25
0.0
 35
0.0
146
0.0
 13
0.0
 23
0.0
 33
0.0
 16
1.0
 26
0.0
 36
0.0
 17
0.0
 27
1.0
 37
0.0
 76
     0
330
143
331
375
  0
LAYOUT
  5
28A
102
{ACAD_REACTORS
330
1A
102
}
330
1A
100
AcDbPlotSettings
  1

  2
none_device
  4

  6

 40
0.0
 41
0.0
 42
0.0
 43
0.0
 44
0.0
 45
0.0
 46
0.0
 47
0.0
 48
0.0
 49
0.0
140
0.0
141
0.0
142
1.0
143
1.0
 70
   688
 72
     0
 73
     0
 74
     5
  7

 75
    16
147
1.0
148
0.0
149
0.0
100
AcDbLayout
  1
_Trimétrique
 70
     1
 71
     9
 10
0.0
 20
0.0
 11
0.0
 21
0.0
 12
0.0
 22
0.0
 32
0.0
 14
0.0
 24
0.0
 34
0.0
 15
0.0
 25
0.0
 35
0.0
146
0.0
 13
0.0
 23
0.0
 33
0.0
 16
1.0
 26
0.0
 36
0.0
 17
0.0
 27
1.0
 37
0.0
 76
     0
330
289
331
37A
  0
LAYOUT
  5
22
102
{ACAD_REACTORS
330
1A
102
}
330
1A
100
AcDbPlotSettings
  1

  2
none_device
  4

  6

 40
0.0
 41
0.0
 42
0.0
 43
0.0
 44
0.0
 45
0.0
 46
0.0
 47
0.0
 48
0.0
 49
0.0
140
0.0
141
0.0
142
1.0
143
1.0
 70
  1712
 72
     0
 73
     0
 74
     0
  7

 75
     0
147
1.0
148
0.0
149
0.0
100
AcDbLayout
  1
Model
 70
     1
 71
     0
 10
0.0
 20
0.0
 11
420.0
 21
297.0
 12
0.0
 22
0.0
 32
0.0
 14
-6.3424538235
 24
-19.5785895002
 34
0.0
 15
28.2251700782
 25
18.0599536128
 35
0.0
146
0.0
 13
0.0
 23
0.0
 33
0.0
 16
1.0
 26
0.0
 36
0.0
 17
0.0
 27
1.0
 37
0.0
 76
     0
330
1F
331
29
  0
MLINESTYLE
  5
18
102
{ACAD_REACTORS
330
17
102
}
330
17
100
AcDbMlineStyle
  2
Standard
 70
     0
  3

 62
   256
 51
90.0
 52
90.0
 71
     2
 49
0.5
 62
   256
  6
BYLAYER
 49
-0.5
 62
   256
  6
BYLAYER
  0
ACDBPLACEHOLDER
  5
F
102
{ACAD_REACTORS
330
E
102
}
330
E
  0
ENDSEC
  0
EOF
