ISO-10303-21;
HEADER;
FILE_DESCRIPTION(('CATIA V5 STEP Exchange'),'2;1');

FILE_NAME('C:\\Users\\Mechanical Harmony\\Desktop\\Anneau.stp','2016-01-27T20:01:37+00:00',('none'),('none'),'CATIA Version 5 Release 20 GA (IN-10)','CATIA V5 STEP AP203','none');

FILE_SCHEMA(('CONFIG_CONTROL_DESIGN'));

ENDSEC;
/* file written by CATIA V5R20 */
DATA;
#5=PRODUCT('Anneau','','',(#2)) ;
#1=APPLICATION_CONTEXT('configuration controlled 3D design of mechanical parts and assemblies') ;
#14=PRODUCT_DEFINITION('',' ',#6,#3) ;
#16=SECURITY_CLASSIFICATION(' ',' ',#15) ;
#15=SECURITY_CLASSIFICATION_LEVEL('unclassified') ;
#47=CARTESIAN_POINT(' ',(0.,0.,0.)) ;
#52=CARTESIAN_POINT('Axis2P3D Location',(-1.,-4.45193572428,104.90557787)) ;
#57=CARTESIAN_POINT('Line Origine',(-1.,-14.4519357243,104.90557787)) ;
#61=CARTESIAN_POINT('Vertex',(0.,-14.4519357243,104.90557787)) ;
#63=CARTESIAN_POINT('Vertex',(-2.,-14.4519357243,104.90557787)) ;
#66=CARTESIAN_POINT('Axis2P3D Location',(0.,-4.45193572428,104.90557787)) ;
#70=CARTESIAN_POINT('Vertex',(0.,5.54806427572,104.90557787)) ;
#73=CARTESIAN_POINT('Line Origine',(-1.,5.54806427572,104.90557787)) ;
#77=CARTESIAN_POINT('Vertex',(-2.,5.54806427572,104.90557787)) ;
#80=CARTESIAN_POINT('Axis2P3D Location',(-2.,-4.45193572428,104.90557787)) ;
#92=CARTESIAN_POINT('Axis2P3D Location',(0.,-4.45193572428,104.90557787)) ;
#97=CARTESIAN_POINT('Axis2P3D Location',(-2.,-4.45193572428,104.90557787)) ;
#109=CARTESIAN_POINT('Axis2P3D Location',(0.,0.,0.)) ;
#118=CARTESIAN_POINT('Axis2P3D Location',(0.,-4.45193572428,104.90557787)) ;
#122=CARTESIAN_POINT('Vertex',(0.,-10.4519357243,104.90557787)) ;
#124=CARTESIAN_POINT('Vertex',(0.,1.54806427572,104.90557787)) ;
#127=CARTESIAN_POINT('Axis2P3D Location',(0.,-4.45193572428,104.90557787)) ;
#137=CARTESIAN_POINT('Axis2P3D Location',(4.,-4.45193572428,104.90557787)) ;
#142=CARTESIAN_POINT('Line Origine',(5.5,1.54806427572,104.90557787)) ;
#146=CARTESIAN_POINT('Vertex',(9.,1.54806427572,104.90557787)) ;
#148=CARTESIAN_POINT('Vertex',(11.,1.54806427572,104.90557787)) ;
#151=CARTESIAN_POINT('Axis2P3D Location',(9.,-4.45193572428,104.90557787)) ;
#155=CARTESIAN_POINT('Vertex',(9.,-10.4519357243,104.90557787)) ;
#158=CARTESIAN_POINT('Line Origine',(5.5,-10.4519357243,104.90557787)) ;
#162=CARTESIAN_POINT('Vertex',(11.,-10.4519357243,104.90557787)) ;
#165=CARTESIAN_POINT('Axis2P3D Location',(11.,-4.45193572428,104.90557787)) ;
#177=CARTESIAN_POINT('Axis2P3D Location',(9.,-4.45193572428,104.90557787)) ;
#182=CARTESIAN_POINT('Axis2P3D Location',(11.,-4.45193572428,104.90557787)) ;
#194=CARTESIAN_POINT('Axis2P3D Location',(9.,0.,0.)) ;
#203=CARTESIAN_POINT('Axis2P3D Location',(9.,-4.45193572428,104.90557787)) ;
#207=CARTESIAN_POINT('Vertex',(9.,-9.45193572428,104.90557787)) ;
#209=CARTESIAN_POINT('Vertex',(9.,0.548064275721,104.90557787)) ;
#212=CARTESIAN_POINT('Axis2P3D Location',(9.,-4.45193572428,104.90557787)) ;
#222=CARTESIAN_POINT('Axis2P3D Location',(8.5,-4.45193572428,104.90557787)) ;
#227=CARTESIAN_POINT('Line Origine',(8.5,0.548064275721,104.90557787)) ;
#231=CARTESIAN_POINT('Vertex',(8.,0.548064275721,104.90557787)) ;
#234=CARTESIAN_POINT('Axis2P3D Location',(8.,-4.45193572428,104.90557787)) ;
#238=CARTESIAN_POINT('Vertex',(8.,-9.45193572428,104.90557787)) ;
#241=CARTESIAN_POINT('Line Origine',(8.5,-9.45193572428,104.90557787)) ;
#253=CARTESIAN_POINT('Axis2P3D Location',(8.,-4.45193572428,104.90557787)) ;
#265=CARTESIAN_POINT('Axis2P3D Location',(8.,0.,0.)) ;
#270=CARTESIAN_POINT('Axis2P3D Location',(8.,-4.45193572428,104.90557787)) ;
#274=CARTESIAN_POINT('Vertex',(8.,-10.4519357243,104.90557787)) ;
#276=CARTESIAN_POINT('Vertex',(8.,1.54806427572,104.90557787)) ;
#279=CARTESIAN_POINT('Axis2P3D Location',(8.,-4.45193572428,104.90557787)) ;
#293=CARTESIAN_POINT('Line Origine',(5.5,-10.4519357243,104.90557787)) ;
#298=CARTESIAN_POINT('Line Origine',(5.5,1.54806427572,104.90557787)) ;
#317=CARTESIAN_POINT('Axis2P3D Location',(11.,0.,0.)) ;
#326=CARTESIAN_POINT('Axis2P3D Location',(11.,-4.45193572428,104.90557787)) ;
#330=CARTESIAN_POINT('Vertex',(11.,-7.45193572428,104.90557787)) ;
#332=CARTESIAN_POINT('Vertex',(11.,-1.45193572428,104.90557787)) ;
#335=CARTESIAN_POINT('Axis2P3D Location',(11.,-4.45193572428,104.90557787)) ;
#345=CARTESIAN_POINT('Axis2P3D Location',(-1.,-4.45193572428,104.90557787)) ;
#350=CARTESIAN_POINT('Axis2P3D Location',(-2.,-4.45193572428,104.90557787)) ;
#354=CARTESIAN_POINT('Vertex',(-2.,-1.45193572428,104.90557787)) ;
#356=CARTESIAN_POINT('Vertex',(-2.,-7.45193572428,104.90557787)) ;
#359=CARTESIAN_POINT('Line Origine',(-1.,-7.45193572428,104.90557787)) ;
#363=CARTESIAN_POINT('Vertex',(0.,-7.45193572428,104.90557787)) ;
#366=CARTESIAN_POINT('Line Origine',(-1.,-7.45193572428,104.90557787)) ;
#370=CARTESIAN_POINT('Vertex',(8.,-7.45193572428,104.90557787)) ;
#373=CARTESIAN_POINT('Line Origine',(-1.,-7.45193572428,104.90557787)) ;
#378=CARTESIAN_POINT('Line Origine',(-1.,-1.45193572428,104.90557787)) ;
#392=CARTESIAN_POINT('Axis2P3D Location',(-2.,-4.45193572428,104.90557787)) ;
#406=CARTESIAN_POINT('Axis2P3D Location',(-2.,0.,0.)) ;
#53=DIRECTION('Axis2P3D Direction',(-1.,-0.,0.)) ;
#54=DIRECTION('Axis2P3D XDirection',(0.,-1.,0.)) ;
#58=DIRECTION('Vector Direction',(-1.,0.,0.)) ;
#67=DIRECTION('Axis2P3D Direction',(-1.,-0.,0.)) ;
#74=DIRECTION('Vector Direction',(-1.,0.,0.)) ;
#81=DIRECTION('Axis2P3D Direction',(-1.,-0.,0.)) ;
#93=DIRECTION('Axis2P3D Direction',(-1.,-0.,0.)) ;
#98=DIRECTION('Axis2P3D Direction',(-1.,-0.,0.)) ;
#110=DIRECTION('Axis2P3D Direction',(1.,0.,0.)) ;
#111=DIRECTION('Axis2P3D XDirection',(0.,1.,0.)) ;
#119=DIRECTION('Axis2P3D Direction',(1.,0.,0.)) ;
#128=DIRECTION('Axis2P3D Direction',(1.,0.,0.)) ;
#138=DIRECTION('Axis2P3D Direction',(1.,0.,0.)) ;
#139=DIRECTION('Axis2P3D XDirection',(0.,1.,0.)) ;
#143=DIRECTION('Vector Direction',(1.,0.,0.)) ;
#152=DIRECTION('Axis2P3D Direction',(1.,0.,0.)) ;
#159=DIRECTION('Vector Direction',(1.,0.,0.)) ;
#166=DIRECTION('Axis2P3D Direction',(1.,0.,0.)) ;
#178=DIRECTION('Axis2P3D Direction',(1.,0.,0.)) ;
#183=DIRECTION('Axis2P3D Direction',(1.,0.,0.)) ;
#195=DIRECTION('Axis2P3D Direction',(1.,0.,0.)) ;
#196=DIRECTION('Axis2P3D XDirection',(0.,1.,0.)) ;
#204=DIRECTION('Axis2P3D Direction',(1.,0.,0.)) ;
#213=DIRECTION('Axis2P3D Direction',(1.,0.,0.)) ;
#223=DIRECTION('Axis2P3D Direction',(1.,0.,0.)) ;
#224=DIRECTION('Axis2P3D XDirection',(0.,1.,0.)) ;
#228=DIRECTION('Vector Direction',(1.,0.,0.)) ;
#235=DIRECTION('Axis2P3D Direction',(1.,0.,0.)) ;
#242=DIRECTION('Vector Direction',(1.,0.,0.)) ;
#254=DIRECTION('Axis2P3D Direction',(1.,0.,0.)) ;
#266=DIRECTION('Axis2P3D Direction',(1.,0.,0.)) ;
#267=DIRECTION('Axis2P3D XDirection',(0.,1.,0.)) ;
#271=DIRECTION('Axis2P3D Direction',(1.,0.,0.)) ;
#280=DIRECTION('Axis2P3D Direction',(1.,0.,0.)) ;
#294=DIRECTION('Vector Direction',(1.,0.,0.)) ;
#299=DIRECTION('Vector Direction',(1.,0.,0.)) ;
#318=DIRECTION('Axis2P3D Direction',(1.,0.,0.)) ;
#319=DIRECTION('Axis2P3D XDirection',(0.,1.,0.)) ;
#327=DIRECTION('Axis2P3D Direction',(1.,0.,0.)) ;
#336=DIRECTION('Axis2P3D Direction',(1.,0.,0.)) ;
#346=DIRECTION('Axis2P3D Direction',(-1.,-0.,0.)) ;
#347=DIRECTION('Axis2P3D XDirection',(0.,1.,9.44833404223E-015)) ;
#351=DIRECTION('Axis2P3D Direction',(-1.,-0.,0.)) ;
#360=DIRECTION('Vector Direction',(-1.,0.,0.)) ;
#367=DIRECTION('Vector Direction',(-1.,0.,0.)) ;
#374=DIRECTION('Vector Direction',(-1.,0.,0.)) ;
#379=DIRECTION('Vector Direction',(-1.,0.,0.)) ;
#393=DIRECTION('Axis2P3D Direction',(-1.,-0.,0.)) ;
#407=DIRECTION('Axis2P3D Direction',(-1.,0.,0.)) ;
#408=DIRECTION('Axis2P3D XDirection',(0.,-1.,0.)) ;
#48=AXIS2_PLACEMENT_3D(' ',#47,$,$) ;
#55=AXIS2_PLACEMENT_3D('Cylinder Axis2P3D',#52,#53,#54) ;
#68=AXIS2_PLACEMENT_3D('Circle Axis2P3D',#66,#67,$) ;
#82=AXIS2_PLACEMENT_3D('Circle Axis2P3D',#80,#81,$) ;
#94=AXIS2_PLACEMENT_3D('Circle Axis2P3D',#92,#93,$) ;
#99=AXIS2_PLACEMENT_3D('Circle Axis2P3D',#97,#98,$) ;
#112=AXIS2_PLACEMENT_3D('Plane Axis2P3D',#109,#110,#111) ;
#120=AXIS2_PLACEMENT_3D('Circle Axis2P3D',#118,#119,$) ;
#129=AXIS2_PLACEMENT_3D('Circle Axis2P3D',#127,#128,$) ;
#140=AXIS2_PLACEMENT_3D('Cylinder Axis2P3D',#137,#138,#139) ;
#153=AXIS2_PLACEMENT_3D('Circle Axis2P3D',#151,#152,$) ;
#167=AXIS2_PLACEMENT_3D('Circle Axis2P3D',#165,#166,$) ;
#179=AXIS2_PLACEMENT_3D('Circle Axis2P3D',#177,#178,$) ;
#184=AXIS2_PLACEMENT_3D('Circle Axis2P3D',#182,#183,$) ;
#197=AXIS2_PLACEMENT_3D('Plane Axis2P3D',#194,#195,#196) ;
#205=AXIS2_PLACEMENT_3D('Circle Axis2P3D',#203,#204,$) ;
#214=AXIS2_PLACEMENT_3D('Circle Axis2P3D',#212,#213,$) ;
#225=AXIS2_PLACEMENT_3D('Cylinder Axis2P3D',#222,#223,#224) ;
#236=AXIS2_PLACEMENT_3D('Circle Axis2P3D',#234,#235,$) ;
#255=AXIS2_PLACEMENT_3D('Circle Axis2P3D',#253,#254,$) ;
#268=AXIS2_PLACEMENT_3D('Plane Axis2P3D',#265,#266,#267) ;
#272=AXIS2_PLACEMENT_3D('Circle Axis2P3D',#270,#271,$) ;
#281=AXIS2_PLACEMENT_3D('Circle Axis2P3D',#279,#280,$) ;
#320=AXIS2_PLACEMENT_3D('Plane Axis2P3D',#317,#318,#319) ;
#328=AXIS2_PLACEMENT_3D('Circle Axis2P3D',#326,#327,$) ;
#337=AXIS2_PLACEMENT_3D('Circle Axis2P3D',#335,#336,$) ;
#348=AXIS2_PLACEMENT_3D('Cylinder Axis2P3D',#345,#346,#347) ;
#352=AXIS2_PLACEMENT_3D('Circle Axis2P3D',#350,#351,$) ;
#394=AXIS2_PLACEMENT_3D('Circle Axis2P3D',#392,#393,$) ;
#409=AXIS2_PLACEMENT_3D('Plane Axis2P3D',#406,#407,#408) ;
#40=PRODUCT_DEFINITION_SHAPE(' ',' ',#14) ;
#31=APPROVAL_PERSON_ORGANIZATION(#25,#21,#19) ;
#25=PERSON_AND_ORGANIZATION(#22,#23) ;
#22=PERSON(' ',' ',' ',$,$,$) ;
#23=ORGANIZATION(' ',' ',' ') ;
#21=APPROVAL(#20,' ') ;
#20=APPROVAL_STATUS('not_yet_approved') ;
#19=APPROVAL_ROLE('APPROVER') ;
#13=DATE_AND_TIME(#11,#12) ;
#12=LOCAL_TIME(21,1,37.,#10) ;
#10=COORDINATED_UNIVERSAL_TIME_OFFSET(0,0,.AHEAD.) ;
#86=ORIENTED_EDGE('',*,*,#65,.F.) ;
#87=ORIENTED_EDGE('',*,*,#72,.T.) ;
#88=ORIENTED_EDGE('',*,*,#79,.T.) ;
#89=ORIENTED_EDGE('',*,*,#84,.F.) ;
#103=ORIENTED_EDGE('',*,*,#79,.F.) ;
#104=ORIENTED_EDGE('',*,*,#96,.T.) ;
#105=ORIENTED_EDGE('',*,*,#65,.T.) ;
#106=ORIENTED_EDGE('',*,*,#101,.F.) ;
#115=ORIENTED_EDGE('',*,*,#96,.F.) ;
#116=ORIENTED_EDGE('',*,*,#72,.F.) ;
#133=ORIENTED_EDGE('',*,*,#126,.F.) ;
#134=ORIENTED_EDGE('',*,*,#131,.F.) ;
#171=ORIENTED_EDGE('',*,*,#150,.F.) ;
#172=ORIENTED_EDGE('',*,*,#157,.T.) ;
#173=ORIENTED_EDGE('',*,*,#164,.T.) ;
#174=ORIENTED_EDGE('',*,*,#169,.F.) ;
#188=ORIENTED_EDGE('',*,*,#164,.F.) ;
#189=ORIENTED_EDGE('',*,*,#181,.T.) ;
#190=ORIENTED_EDGE('',*,*,#150,.T.) ;
#191=ORIENTED_EDGE('',*,*,#186,.F.) ;
#200=ORIENTED_EDGE('',*,*,#181,.F.) ;
#201=ORIENTED_EDGE('',*,*,#157,.F.) ;
#218=ORIENTED_EDGE('',*,*,#211,.T.) ;
#219=ORIENTED_EDGE('',*,*,#216,.T.) ;
#247=ORIENTED_EDGE('',*,*,#233,.F.) ;
#248=ORIENTED_EDGE('',*,*,#240,.T.) ;
#249=ORIENTED_EDGE('',*,*,#245,.T.) ;
#250=ORIENTED_EDGE('',*,*,#216,.F.) ;
#259=ORIENTED_EDGE('',*,*,#245,.F.) ;
#260=ORIENTED_EDGE('',*,*,#257,.T.) ;
#261=ORIENTED_EDGE('',*,*,#233,.T.) ;
#262=ORIENTED_EDGE('',*,*,#211,.F.) ;
#285=ORIENTED_EDGE('',*,*,#278,.T.) ;
#286=ORIENTED_EDGE('',*,*,#283,.T.) ;
#289=ORIENTED_EDGE('',*,*,#240,.F.) ;
#290=ORIENTED_EDGE('',*,*,#257,.F.) ;
#304=ORIENTED_EDGE('',*,*,#297,.F.) ;
#305=ORIENTED_EDGE('',*,*,#126,.T.) ;
#306=ORIENTED_EDGE('',*,*,#302,.T.) ;
#307=ORIENTED_EDGE('',*,*,#278,.F.) ;
#311=ORIENTED_EDGE('',*,*,#302,.F.) ;
#312=ORIENTED_EDGE('',*,*,#131,.T.) ;
#313=ORIENTED_EDGE('',*,*,#297,.T.) ;
#314=ORIENTED_EDGE('',*,*,#283,.F.) ;
#323=ORIENTED_EDGE('',*,*,#169,.T.) ;
#324=ORIENTED_EDGE('',*,*,#186,.T.) ;
#341=ORIENTED_EDGE('',*,*,#334,.F.) ;
#342=ORIENTED_EDGE('',*,*,#339,.F.) ;
#384=ORIENTED_EDGE('',*,*,#358,.T.) ;
#385=ORIENTED_EDGE('',*,*,#365,.F.) ;
#386=ORIENTED_EDGE('',*,*,#372,.T.) ;
#387=ORIENTED_EDGE('',*,*,#377,.T.) ;
#388=ORIENTED_EDGE('',*,*,#334,.T.) ;
#389=ORIENTED_EDGE('',*,*,#382,.F.) ;
#398=ORIENTED_EDGE('',*,*,#396,.T.) ;
#399=ORIENTED_EDGE('',*,*,#382,.T.) ;
#400=ORIENTED_EDGE('',*,*,#339,.T.) ;
#401=ORIENTED_EDGE('',*,*,#377,.F.) ;
#402=ORIENTED_EDGE('',*,*,#372,.F.) ;
#403=ORIENTED_EDGE('',*,*,#365,.T.) ;
#412=ORIENTED_EDGE('',*,*,#84,.T.) ;
#413=ORIENTED_EDGE('',*,*,#101,.T.) ;
#416=ORIENTED_EDGE('',*,*,#396,.F.) ;
#417=ORIENTED_EDGE('',*,*,#358,.F.) ;
#135=FACE_BOUND('',#132,.T.) ;
#220=FACE_BOUND('',#217,.T.) ;
#291=FACE_BOUND('',#288,.T.) ;
#343=FACE_BOUND('',#340,.T.) ;
#418=FACE_BOUND('',#415,.T.) ;
#51=CLOSED_SHELL('Closed Shell',(#91,#108,#136,#176,#193,#221,#252,#264,#292,#309,#316,#344,#391,#405,#419)) ;
#59=VECTOR('Line Direction',#58,1.) ;
#75=VECTOR('Line Direction',#74,1.) ;
#144=VECTOR('Line Direction',#143,1.) ;
#160=VECTOR('Line Direction',#159,1.) ;
#229=VECTOR('Line Direction',#228,1.) ;
#243=VECTOR('Line Direction',#242,1.) ;
#295=VECTOR('Line Direction',#294,1.) ;
#300=VECTOR('Line Direction',#299,1.) ;
#361=VECTOR('Line Direction',#360,1.) ;
#368=VECTOR('Line Direction',#367,1.) ;
#375=VECTOR('Line Direction',#374,1.) ;
#380=VECTOR('Line Direction',#379,1.) ;
#421=ADVANCED_BREP_SHAPE_REPRESENTATION('NONE',(#420),#46) ;
#49=SHAPE_REPRESENTATION(' ',(#48),#46) ;
#91=ADVANCED_FACE('Corps de pi\X2\00E8\X0\ce.2',(#90),#56,.T.) ;
#108=ADVANCED_FACE('Corps de pi\X2\00E8\X0\ce.2',(#107),#56,.T.) ;
#136=ADVANCED_FACE('Corps de pi\X2\00E8\X0\ce.2',(#117,#135),#113,.T.) ;
#176=ADVANCED_FACE('Corps de pi\X2\00E8\X0\ce.2',(#175),#141,.T.) ;
#193=ADVANCED_FACE('Corps de pi\X2\00E8\X0\ce.2',(#192),#141,.T.) ;
#221=ADVANCED_FACE('Corps de pi\X2\00E8\X0\ce.2',(#202,#220),#198,.F.) ;
#252=ADVANCED_FACE('Corps de pi\X2\00E8\X0\ce.2',(#251),#226,.T.) ;
#264=ADVANCED_FACE('Corps de pi\X2\00E8\X0\ce.2',(#263),#226,.T.) ;
#292=ADVANCED_FACE('Corps de pi\X2\00E8\X0\ce.2',(#287,#291),#269,.T.) ;
#309=ADVANCED_FACE('Corps de pi\X2\00E8\X0\ce.2',(#308),#141,.T.) ;
#316=ADVANCED_FACE('Corps de pi\X2\00E8\X0\ce.2',(#315),#141,.T.) ;
#344=ADVANCED_FACE('Corps de pi\X2\00E8\X0\ce.2',(#325,#343),#321,.T.) ;
#391=ADVANCED_FACE('Corps de pi\X2\00E8\X0\ce.2',(#390),#349,.F.) ;
#405=ADVANCED_FACE('Corps de pi\X2\00E8\X0\ce.2',(#404),#349,.F.) ;
#419=ADVANCED_FACE('Corps de pi\X2\00E8\X0\ce.2',(#414,#418),#410,.T.) ;
#4=APPLICATION_PROTOCOL_DEFINITION('international standard','config_control_design',1994,#1) ;
#32=APPROVAL_DATE_TIME(#13,#21) ;
#420=MANIFOLD_SOLID_BREP('Corps de pi\X2\00E8\X0\ce.2',#51) ;
#11=CALENDAR_DATE(2016,27,1) ;
#30=CC_DESIGN_APPROVAL(#21,(#16,#6,#14)) ;
#18=CC_DESIGN_DATE_AND_TIME_ASSIGNMENT(#13,#17,(#16)) ;
#29=CC_DESIGN_DATE_AND_TIME_ASSIGNMENT(#13,#28,(#14)) ;
#17=DATE_TIME_ROLE('classification_date') ;
#28=DATE_TIME_ROLE('creation_date') ;
#27=CC_DESIGN_PERSON_AND_ORGANIZATION_ASSIGNMENT(#25,#26,(#16)) ;
#33=CC_DESIGN_PERSON_AND_ORGANIZATION_ASSIGNMENT(#25,#34,(#6)) ;
#35=CC_DESIGN_PERSON_AND_ORGANIZATION_ASSIGNMENT(#25,#36,(#6,#14)) ;
#37=CC_DESIGN_PERSON_AND_ORGANIZATION_ASSIGNMENT(#25,#38,(#5)) ;
#26=PERSON_AND_ORGANIZATION_ROLE('classification_officer') ;
#34=PERSON_AND_ORGANIZATION_ROLE('design_supplier') ;
#36=PERSON_AND_ORGANIZATION_ROLE('creator') ;
#38=PERSON_AND_ORGANIZATION_ROLE('design_owner') ;
#39=CC_DESIGN_SECURITY_CLASSIFICATION(#16,(#6)) ;
#69=CIRCLE('generated circle',#68,10.) ;
#83=CIRCLE('generated circle',#82,10.) ;
#95=CIRCLE('generated circle',#94,10.) ;
#100=CIRCLE('generated circle',#99,10.) ;
#121=CIRCLE('generated circle',#120,6.) ;
#130=CIRCLE('generated circle',#129,6.) ;
#154=CIRCLE('generated circle',#153,6.) ;
#168=CIRCLE('generated circle',#167,6.) ;
#180=CIRCLE('generated circle',#179,6.) ;
#185=CIRCLE('generated circle',#184,6.) ;
#206=CIRCLE('generated circle',#205,5.) ;
#215=CIRCLE('generated circle',#214,5.) ;
#237=CIRCLE('generated circle',#236,5.) ;
#256=CIRCLE('generated circle',#255,5.) ;
#273=CIRCLE('generated circle',#272,6.) ;
#282=CIRCLE('generated circle',#281,6.) ;
#329=CIRCLE('generated circle',#328,3.) ;
#338=CIRCLE('generated circle',#337,3.) ;
#353=CIRCLE('generated circle',#352,3.) ;
#395=CIRCLE('generated circle',#394,3.) ;
#422=SHAPE_REPRESENTATION_RELATIONSHIP(' ',' ',#49,#421) ;
#56=CYLINDRICAL_SURFACE('generated cylinder',#55,10.) ;
#141=CYLINDRICAL_SURFACE('generated cylinder',#140,6.) ;
#226=CYLINDRICAL_SURFACE('generated cylinder',#225,5.) ;
#349=CYLINDRICAL_SURFACE('generated cylinder',#348,3.) ;
#3=DESIGN_CONTEXT(' ',#1,'design') ;
#65=EDGE_CURVE('',#62,#64,#60,.T.) ;
#72=EDGE_CURVE('',#62,#71,#69,.T.) ;
#79=EDGE_CURVE('',#71,#78,#76,.T.) ;
#84=EDGE_CURVE('',#64,#78,#83,.T.) ;
#96=EDGE_CURVE('',#71,#62,#95,.T.) ;
#101=EDGE_CURVE('',#78,#64,#100,.T.) ;
#126=EDGE_CURVE('',#123,#125,#121,.T.) ;
#131=EDGE_CURVE('',#125,#123,#130,.T.) ;
#150=EDGE_CURVE('',#147,#149,#145,.T.) ;
#157=EDGE_CURVE('',#147,#156,#154,.T.) ;
#164=EDGE_CURVE('',#156,#163,#161,.T.) ;
#169=EDGE_CURVE('',#149,#163,#168,.T.) ;
#181=EDGE_CURVE('',#156,#147,#180,.T.) ;
#186=EDGE_CURVE('',#163,#149,#185,.T.) ;
#211=EDGE_CURVE('',#208,#210,#206,.T.) ;
#216=EDGE_CURVE('',#210,#208,#215,.T.) ;
#233=EDGE_CURVE('',#232,#210,#230,.T.) ;
#240=EDGE_CURVE('',#232,#239,#237,.T.) ;
#245=EDGE_CURVE('',#239,#208,#244,.T.) ;
#257=EDGE_CURVE('',#239,#232,#256,.T.) ;
#278=EDGE_CURVE('',#275,#277,#273,.T.) ;
#283=EDGE_CURVE('',#277,#275,#282,.T.) ;
#297=EDGE_CURVE('',#123,#275,#296,.T.) ;
#302=EDGE_CURVE('',#125,#277,#301,.T.) ;
#334=EDGE_CURVE('',#331,#333,#329,.T.) ;
#339=EDGE_CURVE('',#333,#331,#338,.T.) ;
#358=EDGE_CURVE('',#355,#357,#353,.T.) ;
#365=EDGE_CURVE('',#364,#357,#362,.T.) ;
#372=EDGE_CURVE('',#364,#371,#369,.F.) ;
#377=EDGE_CURVE('',#371,#331,#376,.F.) ;
#382=EDGE_CURVE('',#355,#333,#381,.F.) ;
#396=EDGE_CURVE('',#357,#355,#395,.T.) ;
#85=EDGE_LOOP('',(#86,#87,#88,#89)) ;
#102=EDGE_LOOP('',(#103,#104,#105,#106)) ;
#114=EDGE_LOOP('',(#115,#116)) ;
#132=EDGE_LOOP('',(#133,#134)) ;
#170=EDGE_LOOP('',(#171,#172,#173,#174)) ;
#187=EDGE_LOOP('',(#188,#189,#190,#191)) ;
#199=EDGE_LOOP('',(#200,#201)) ;
#217=EDGE_LOOP('',(#218,#219)) ;
#246=EDGE_LOOP('',(#247,#248,#249,#250)) ;
#258=EDGE_LOOP('',(#259,#260,#261,#262)) ;
#284=EDGE_LOOP('',(#285,#286)) ;
#288=EDGE_LOOP('',(#289,#290)) ;
#303=EDGE_LOOP('',(#304,#305,#306,#307)) ;
#310=EDGE_LOOP('',(#311,#312,#313,#314)) ;
#322=EDGE_LOOP('',(#323,#324)) ;
#340=EDGE_LOOP('',(#341,#342)) ;
#383=EDGE_LOOP('',(#384,#385,#386,#387,#388,#389)) ;
#397=EDGE_LOOP('',(#398,#399,#400,#401,#402,#403)) ;
#411=EDGE_LOOP('',(#412,#413)) ;
#415=EDGE_LOOP('',(#416,#417)) ;
#90=FACE_OUTER_BOUND('',#85,.T.) ;
#107=FACE_OUTER_BOUND('',#102,.T.) ;
#117=FACE_OUTER_BOUND('',#114,.T.) ;
#175=FACE_OUTER_BOUND('',#170,.T.) ;
#192=FACE_OUTER_BOUND('',#187,.T.) ;
#202=FACE_OUTER_BOUND('',#199,.T.) ;
#251=FACE_OUTER_BOUND('',#246,.T.) ;
#263=FACE_OUTER_BOUND('',#258,.T.) ;
#287=FACE_OUTER_BOUND('',#284,.T.) ;
#308=FACE_OUTER_BOUND('',#303,.T.) ;
#315=FACE_OUTER_BOUND('',#310,.T.) ;
#325=FACE_OUTER_BOUND('',#322,.T.) ;
#390=FACE_OUTER_BOUND('',#383,.T.) ;
#404=FACE_OUTER_BOUND('',#397,.T.) ;
#414=FACE_OUTER_BOUND('',#411,.T.) ;
#45=UNCERTAINTY_MEASURE_WITH_UNIT(LENGTH_MEASURE(0.005),#41,'distance_accuracy_value','CONFUSED CURVE UNCERTAINTY') ;
#60=LINE('Line',#57,#59) ;
#76=LINE('Line',#73,#75) ;
#145=LINE('Line',#142,#144) ;
#161=LINE('Line',#158,#160) ;
#230=LINE('Line',#227,#229) ;
#244=LINE('Line',#241,#243) ;
#296=LINE('Line',#293,#295) ;
#301=LINE('Line',#298,#300) ;
#362=LINE('Line',#359,#361) ;
#369=LINE('Line',#366,#368) ;
#376=LINE('Line',#373,#375) ;
#381=LINE('Line',#378,#380) ;
#2=MECHANICAL_CONTEXT(' ',#1,'mechanical') ;
#24=PERSONAL_ADDRESS(' ',' ',' ',' ',' ',' ',' ',' ',' ',' ',' ',' ',(#22),' ') ;
#113=PLANE('Plane',#112) ;
#198=PLANE('Plane',#197) ;
#269=PLANE('Plane',#268) ;
#321=PLANE('Plane',#320) ;
#410=PLANE('Plane',#409) ;
#43=PLANE_ANGLE_MEASURE_WITH_UNIT(PLANE_ANGLE_MEASURE(0.0174532925199),#42) ;
#7=PRODUCT_CATEGORY('part',$) ;
#9=PRODUCT_CATEGORY_RELATIONSHIP(' ',' ',#7,#8) ;
#6=PRODUCT_DEFINITION_FORMATION_WITH_SPECIFIED_SOURCE('',' ',#5,.NOT_KNOWN.) ;
#8=PRODUCT_RELATED_PRODUCT_CATEGORY('detail',$,(#5)) ;
#50=SHAPE_DEFINITION_REPRESENTATION(#40,#49) ;
#62=VERTEX_POINT('',#61) ;
#64=VERTEX_POINT('',#63) ;
#71=VERTEX_POINT('',#70) ;
#78=VERTEX_POINT('',#77) ;
#123=VERTEX_POINT('',#122) ;
#125=VERTEX_POINT('',#124) ;
#147=VERTEX_POINT('',#146) ;
#149=VERTEX_POINT('',#148) ;
#156=VERTEX_POINT('',#155) ;
#163=VERTEX_POINT('',#162) ;
#208=VERTEX_POINT('',#207) ;
#210=VERTEX_POINT('',#209) ;
#232=VERTEX_POINT('',#231) ;
#239=VERTEX_POINT('',#238) ;
#275=VERTEX_POINT('',#274) ;
#277=VERTEX_POINT('',#276) ;
#331=VERTEX_POINT('',#330) ;
#333=VERTEX_POINT('',#332) ;
#355=VERTEX_POINT('',#354) ;
#357=VERTEX_POINT('',#356) ;
#364=VERTEX_POINT('',#363) ;
#371=VERTEX_POINT('',#370) ;
#41=(LENGTH_UNIT()NAMED_UNIT(*)SI_UNIT(.MILLI.,.METRE.)) ;
#42=(NAMED_UNIT(*)PLANE_ANGLE_UNIT()SI_UNIT($,.RADIAN.)) ;
#44=(NAMED_UNIT(*)SI_UNIT($,.STERADIAN.)SOLID_ANGLE_UNIT()) ;
#46=(GEOMETRIC_REPRESENTATION_CONTEXT(3)GLOBAL_UNCERTAINTY_ASSIGNED_CONTEXT((#45))GLOBAL_UNIT_ASSIGNED_CONTEXT((#41,#42,#44))REPRESENTATION_CONTEXT(' ',' ')) ;
ENDSEC;
END-ISO-10303-21;
