ISO-10303-21;
HEADER;
FILE_DESCRIPTION(('Creo Elements/Direct Modeling STEP Export'),'2;1');
FILE_NAME('bague_embrayage.stp','2015-12-02T10:28:29',(''),(''),
'Creo Elements/Direct Modeling STEP processor for AP214 (Solid Model)',
'Creo Elements/Direct Modeling 18.1B  29-Sep-2012 (C) Parametric Technol
ogy GmbH','');
FILE_SCHEMA(('AUTOMOTIVE_DESIGN { 1 0 10303 214 1 1 1 1 }'));
ENDSEC;
DATA;
#10=CARTESIAN_POINT('',(0.,0.,15.));
#20=DIRECTION('',(0.,0.,1.));
#30=DIRECTION('',(1.,0.,0.));
#40=AXIS2_PLACEMENT_3D('',#10,#20,#30);
#50=PLANE('',#40);
#60=CARTESIAN_POINT('',(0.,0.,15.));
#70=DIRECTION('',(0.,0.,1.));
#80=DIRECTION('',(1.,0.,0.));
#90=AXIS2_PLACEMENT_3D('',#60,#70,#80);
#100=CIRCLE('',#90,7.5);
#110=CARTESIAN_POINT('',(7.5,0.,15.));
#120=VERTEX_POINT('',#110);
#130=CARTESIAN_POINT('',(-7.5,9.18485099360515E-16,15.));
#140=VERTEX_POINT('',#130);
#150=EDGE_CURVE('',#120,#140,#100,.T.);
#160=ORIENTED_EDGE('',*,*,#150,.T.);
#170=EDGE_CURVE('',#140,#120,#100,.T.);
#180=ORIENTED_EDGE('',*,*,#170,.T.);
#190=EDGE_LOOP('',(#180,#160));
#200=FACE_OUTER_BOUND('',#190,.T.);
#210=ADVANCED_FACE('',(#200),#50,.T.);
#220=CARTESIAN_POINT('',(0.,0.,0.));
#230=DIRECTION('',(0.,0.,1.));
#240=DIRECTION('',(1.,0.,0.));
#250=AXIS2_PLACEMENT_3D('',#220,#230,#240);
#260=CYLINDRICAL_SURFACE('',#250,7.5);
#270=CARTESIAN_POINT('',(7.5,0.,0.));
#280=DIRECTION('',(0.,0.,1.));
#290=VECTOR('',#280,1.);
#300=LINE('',#270,#290);
#310=CARTESIAN_POINT('',(7.5,0.,0.));
#320=VERTEX_POINT('',#310);
#330=EDGE_CURVE('',#320,#120,#300,.T.);
#340=ORIENTED_EDGE('',*,*,#330,.T.);
#350=CARTESIAN_POINT('',(0.,0.,0.));
#360=DIRECTION('',(0.,0.,1.));
#370=DIRECTION('',(1.,0.,0.));
#380=AXIS2_PLACEMENT_3D('',#350,#360,#370);
#390=CIRCLE('',#380,7.5);
#400=CARTESIAN_POINT('',(-7.5,9.18485099360515E-16,0.));
#410=VERTEX_POINT('',#400);
#420=EDGE_CURVE('',#410,#320,#390,.T.);
#430=ORIENTED_EDGE('',*,*,#420,.T.);
#440=CARTESIAN_POINT('',(-7.5,9.18485099360515E-16,0.));
#450=DIRECTION('',(0.,0.,1.));
#460=VECTOR('',#450,1.);
#470=LINE('',#440,#460);
#480=EDGE_CURVE('',#410,#140,#470,.T.);
#490=ORIENTED_EDGE('',*,*,#480,.F.);
#500=ORIENTED_EDGE('',*,*,#170,.F.);
#510=EDGE_LOOP('',(#500,#490,#430,#340));
#520=FACE_OUTER_BOUND('',#510,.T.);
#530=ADVANCED_FACE('',(#520),#260,.T.);
#540=CARTESIAN_POINT('',(0.,0.,0.));
#550=DIRECTION('',(0.,0.,1.));
#560=DIRECTION('',(1.,0.,0.));
#570=AXIS2_PLACEMENT_3D('',#540,#550,#560);
#580=PLANE('',#570);
#590=CARTESIAN_POINT('',(0.,0.,0.));
#600=DIRECTION('',(0.,0.,1.));
#610=DIRECTION('',(1.,0.,0.));
#620=AXIS2_PLACEMENT_3D('',#590,#600,#610);
#630=CIRCLE('',#620,12.5);
#640=CARTESIAN_POINT('',(12.5,0.,0.));
#650=VERTEX_POINT('',#640);
#660=CARTESIAN_POINT('',(-12.5,1.53080849893419E-15,0.));
#670=VERTEX_POINT('',#660);
#680=EDGE_CURVE('',#650,#670,#630,.T.);
#690=ORIENTED_EDGE('',*,*,#680,.T.);
#700=EDGE_CURVE('',#670,#650,#630,.T.);
#710=ORIENTED_EDGE('',*,*,#700,.T.);
#720=EDGE_LOOP('',(#710,#690));
#730=FACE_OUTER_BOUND('',#720,.T.);
#740=EDGE_CURVE('',#320,#410,#390,.T.);
#750=ORIENTED_EDGE('',*,*,#740,.F.);
#760=ORIENTED_EDGE('',*,*,#420,.F.);
#770=EDGE_LOOP('',(#760,#750));
#780=FACE_BOUND('',#770,.T.);
#790=ADVANCED_FACE('',(#730,#780),#580,.T.);
#800=CARTESIAN_POINT('',(0.,0.,-5.));
#810=DIRECTION('',(0.,0.,1.));
#820=DIRECTION('',(1.,0.,0.));
#830=AXIS2_PLACEMENT_3D('',#800,#810,#820);
#840=PLANE('',#830);
#850=CARTESIAN_POINT('',(0.,0.,-5.));
#860=DIRECTION('',(0.,0.,1.));
#870=DIRECTION('',(1.,0.,0.));
#880=AXIS2_PLACEMENT_3D('',#850,#860,#870);
#890=CIRCLE('',#880,12.5);
#900=CARTESIAN_POINT('',(12.5,0.,-5.));
#910=VERTEX_POINT('',#900);
#920=CARTESIAN_POINT('',(-12.5,1.53080849893419E-15,-5.));
#930=VERTEX_POINT('',#920);
#940=EDGE_CURVE('',#910,#930,#890,.T.);
#950=ORIENTED_EDGE('',*,*,#940,.F.);
#960=EDGE_CURVE('',#930,#910,#890,.T.);
#970=ORIENTED_EDGE('',*,*,#960,.F.);
#980=EDGE_LOOP('',(#970,#950));
#990=FACE_OUTER_BOUND('',#980,.T.);
#1000=CARTESIAN_POINT('',(0.,0.,-5.));
#1010=DIRECTION('',(0.,0.,1.));
#1020=DIRECTION('',(1.,0.,0.));
#1030=AXIS2_PLACEMENT_3D('',#1000,#1010,#1020);
#1040=CIRCLE('',#1030,11.);
#1050=CARTESIAN_POINT('',(11.,0.,-5.));
#1060=VERTEX_POINT('',#1050);
#1070=CARTESIAN_POINT('',(-11.,1.34711147906209E-15,-5.));
#1080=VERTEX_POINT('',#1070);
#1090=EDGE_CURVE('',#1060,#1080,#1040,.T.);
#1100=ORIENTED_EDGE('',*,*,#1090,.T.);
#1110=EDGE_CURVE('',#1080,#1060,#1040,.T.);
#1120=ORIENTED_EDGE('',*,*,#1110,.T.);
#1130=EDGE_LOOP('',(#1120,#1100));
#1140=FACE_BOUND('',#1130,.T.);
#1150=ADVANCED_FACE('',(#990,#1140),#840,.F.);
#1160=CARTESIAN_POINT('',(0.,0.,0.));
#1170=DIRECTION('',(0.,0.,1.));
#1180=DIRECTION('',(1.,0.,0.));
#1190=AXIS2_PLACEMENT_3D('',#1160,#1170,#1180);
#1200=CYLINDRICAL_SURFACE('',#1190,12.5);
#1210=CARTESIAN_POINT('',(12.5,0.,0.));
#1220=DIRECTION('',(0.,0.,1.));
#1230=VECTOR('',#1220,1.);
#1240=LINE('',#1210,#1230);
#1250=EDGE_CURVE('',#910,#650,#1240,.T.);
#1260=ORIENTED_EDGE('',*,*,#1250,.T.);
#1270=ORIENTED_EDGE('',*,*,#960,.T.);
#1280=CARTESIAN_POINT('',(-12.5,1.53080849893419E-15,0.));
#1290=DIRECTION('',(0.,0.,1.));
#1300=VECTOR('',#1290,1.);
#1310=LINE('',#1280,#1300);
#1320=EDGE_CURVE('',#930,#670,#1310,.T.);
#1330=ORIENTED_EDGE('',*,*,#1320,.F.);
#1340=ORIENTED_EDGE('',*,*,#700,.F.);
#1350=EDGE_LOOP('',(#1340,#1330,#1270,#1260));
#1360=FACE_OUTER_BOUND('',#1350,.T.);
#1370=ADVANCED_FACE('',(#1360),#1200,.T.);
#1380=CARTESIAN_POINT('',(0.,0.,-5.));
#1390=DIRECTION('',(0.,0.,1.));
#1400=DIRECTION('',(1.,0.,0.));
#1410=AXIS2_PLACEMENT_3D('',#1380,#1390,#1400);
#1420=CYLINDRICAL_SURFACE('',#1410,11.);
#1430=CARTESIAN_POINT('',(11.,0.,-5.));
#1440=DIRECTION('',(0.,0.,1.));
#1450=VECTOR('',#1440,1.);
#1460=LINE('',#1430,#1450);
#1470=CARTESIAN_POINT('',(11.,0.,-25.5));
#1480=VERTEX_POINT('',#1470);
#1490=EDGE_CURVE('',#1480,#1060,#1460,.T.);
#1500=ORIENTED_EDGE('',*,*,#1490,.T.);
#1510=CARTESIAN_POINT('',(0.,0.,-25.5));
#1520=DIRECTION('',(0.,0.,1.));
#1530=DIRECTION('',(1.,0.,0.));
#1540=AXIS2_PLACEMENT_3D('',#1510,#1520,#1530);
#1550=CIRCLE('',#1540,11.);
#1560=CARTESIAN_POINT('',(-11.,1.34711147906209E-15,-25.5));
#1570=VERTEX_POINT('',#1560);
#1580=EDGE_CURVE('',#1570,#1480,#1550,.T.);
#1590=ORIENTED_EDGE('',*,*,#1580,.T.);
#1600=CARTESIAN_POINT('',(-11.,1.34711147906209E-15,-5.));
#1610=DIRECTION('',(0.,0.,1.));
#1620=VECTOR('',#1610,1.);
#1630=LINE('',#1600,#1620);
#1640=EDGE_CURVE('',#1570,#1080,#1630,.T.);
#1650=ORIENTED_EDGE('',*,*,#1640,.F.);
#1660=ORIENTED_EDGE('',*,*,#1110,.F.);
#1670=EDGE_LOOP('',(#1660,#1650,#1590,#1500));
#1680=FACE_OUTER_BOUND('',#1670,.T.);
#1690=ADVANCED_FACE('',(#1680),#1420,.T.);
#1700=CARTESIAN_POINT('',(0.,0.,-25.5));
#1710=DIRECTION('',(0.,0.,1.));
#1720=DIRECTION('',(1.,0.,0.));
#1730=AXIS2_PLACEMENT_3D('',#1700,#1710,#1720);
#1740=PLANE('',#1730);
#1750=EDGE_CURVE('',#1480,#1570,#1550,.T.);
#1760=ORIENTED_EDGE('',*,*,#1750,.F.);
#1770=ORIENTED_EDGE('',*,*,#1580,.F.);
#1780=EDGE_LOOP('',(#1770,#1760));
#1790=FACE_BOUND('',#1780,.T.);
#1800=CARTESIAN_POINT('',(0.,0.,-25.5));
#1810=DIRECTION('',(0.,0.,1.));
#1820=DIRECTION('',(1.,0.,0.));
#1830=AXIS2_PLACEMENT_3D('',#1800,#1810,#1820);
#1840=CIRCLE('',#1830,12.5);
#1850=CARTESIAN_POINT('',(12.5,0.,-25.5));
#1860=VERTEX_POINT('',#1850);
#1870=CARTESIAN_POINT('',(-12.5,1.53080849893419E-15,-25.5));
#1880=VERTEX_POINT('',#1870);
#1890=EDGE_CURVE('',#1860,#1880,#1840,.T.);
#1900=ORIENTED_EDGE('',*,*,#1890,.T.);
#1910=EDGE_CURVE('',#1880,#1860,#1840,.T.);
#1920=ORIENTED_EDGE('',*,*,#1910,.T.);
#1930=EDGE_LOOP('',(#1920,#1900));
#1940=FACE_OUTER_BOUND('',#1930,.T.);
#1950=ADVANCED_FACE('',(#1790,#1940),#1740,.T.);
#1960=CARTESIAN_POINT('',(0.,0.,-30.5));
#1970=DIRECTION('',(0.,0.,1.));
#1980=DIRECTION('',(1.,0.,0.));
#1990=AXIS2_PLACEMENT_3D('',#1960,#1970,#1980);
#2000=PLANE('',#1990);
#2010=CARTESIAN_POINT('',(0.,0.,-30.5));
#2020=DIRECTION('',(0.,0.,1.));
#2030=DIRECTION('',(1.,0.,0.));
#2040=AXIS2_PLACEMENT_3D('',#2010,#2020,#2030);
#2050=CIRCLE('',#2040,7.5);
#2060=CARTESIAN_POINT('',(7.5,0.,-30.5));
#2070=VERTEX_POINT('',#2060);
#2080=CARTESIAN_POINT('',(-7.5,9.18485099360515E-16,-30.5));
#2090=VERTEX_POINT('',#2080);
#2100=EDGE_CURVE('',#2070,#2090,#2050,.T.);
#2110=ORIENTED_EDGE('',*,*,#2100,.T.);
#2120=EDGE_CURVE('',#2090,#2070,#2050,.T.);
#2130=ORIENTED_EDGE('',*,*,#2120,.T.);
#2140=EDGE_LOOP('',(#2130,#2110));
#2150=FACE_BOUND('',#2140,.T.);
#2160=CARTESIAN_POINT('',(0.,0.,-30.5));
#2170=DIRECTION('',(0.,0.,1.));
#2180=DIRECTION('',(1.,0.,0.));
#2190=AXIS2_PLACEMENT_3D('',#2160,#2170,#2180);
#2200=CIRCLE('',#2190,12.5);
#2210=CARTESIAN_POINT('',(12.5,0.,-30.5));
#2220=VERTEX_POINT('',#2210);
#2230=CARTESIAN_POINT('',(-12.5,1.53080849893419E-15,-30.5));
#2240=VERTEX_POINT('',#2230);
#2250=EDGE_CURVE('',#2220,#2240,#2200,.T.);
#2260=ORIENTED_EDGE('',*,*,#2250,.F.);
#2270=EDGE_CURVE('',#2240,#2220,#2200,.T.);
#2280=ORIENTED_EDGE('',*,*,#2270,.F.);
#2290=EDGE_LOOP('',(#2280,#2260));
#2300=FACE_OUTER_BOUND('',#2290,.T.);
#2310=ADVANCED_FACE('',(#2150,#2300),#2000,.F.);
#2320=CARTESIAN_POINT('',(0.,0.,-25.5));
#2330=DIRECTION('',(0.,0.,1.));
#2340=DIRECTION('',(1.,0.,0.));
#2350=AXIS2_PLACEMENT_3D('',#2320,#2330,#2340);
#2360=CYLINDRICAL_SURFACE('',#2350,12.5);
#2370=CARTESIAN_POINT('',(12.5,0.,-25.5));
#2380=DIRECTION('',(0.,0.,1.));
#2390=VECTOR('',#2380,1.);
#2400=LINE('',#2370,#2390);
#2410=EDGE_CURVE('',#2220,#1860,#2400,.T.);
#2420=ORIENTED_EDGE('',*,*,#2410,.T.);
#2430=ORIENTED_EDGE('',*,*,#2270,.T.);
#2440=CARTESIAN_POINT('',(-12.5,1.53080849893419E-15,-25.5));
#2450=DIRECTION('',(0.,0.,1.));
#2460=VECTOR('',#2450,1.);
#2470=LINE('',#2440,#2460);
#2480=EDGE_CURVE('',#2240,#1880,#2470,.T.);
#2490=ORIENTED_EDGE('',*,*,#2480,.F.);
#2500=ORIENTED_EDGE('',*,*,#1910,.F.);
#2510=EDGE_LOOP('',(#2500,#2490,#2430,#2420));
#2520=FACE_OUTER_BOUND('',#2510,.T.);
#2530=ADVANCED_FACE('',(#2520),#2360,.T.);
#2540=CARTESIAN_POINT('',(0.,0.,-45.5));
#2550=DIRECTION('',(0.,0.,1.));
#2560=DIRECTION('',(1.,0.,0.));
#2570=AXIS2_PLACEMENT_3D('',#2540,#2550,#2560);
#2580=PLANE('',#2570);
#2590=CARTESIAN_POINT('',(0.,0.,-45.5));
#2600=DIRECTION('',(0.,0.,1.));
#2610=DIRECTION('',(1.,0.,0.));
#2620=AXIS2_PLACEMENT_3D('',#2590,#2600,#2610);
#2630=CIRCLE('',#2620,7.5);
#2640=CARTESIAN_POINT('',(7.5,0.,-45.5));
#2650=VERTEX_POINT('',#2640);
#2660=CARTESIAN_POINT('',(-7.5,9.18485099360515E-16,-45.5));
#2670=VERTEX_POINT('',#2660);
#2680=EDGE_CURVE('',#2650,#2670,#2630,.T.);
#2690=ORIENTED_EDGE('',*,*,#2680,.F.);
#2700=EDGE_CURVE('',#2670,#2650,#2630,.T.);
#2710=ORIENTED_EDGE('',*,*,#2700,.F.);
#2720=EDGE_LOOP('',(#2710,#2690));
#2730=FACE_OUTER_BOUND('',#2720,.T.);
#2740=ADVANCED_FACE('',(#2730),#2580,.F.);
#2750=CARTESIAN_POINT('',(0.,0.,-28.5));
#2760=DIRECTION('',(0.,0.,1.));
#2770=DIRECTION('',(1.,0.,0.));
#2780=AXIS2_PLACEMENT_3D('',#2750,#2760,#2770);
#2790=CYLINDRICAL_SURFACE('',#2780,7.5);
#2800=CARTESIAN_POINT('',(7.5,0.,-28.5));
#2810=DIRECTION('',(0.,0.,1.));
#2820=VECTOR('',#2810,1.);
#2830=LINE('',#2800,#2820);
#2840=EDGE_CURVE('',#2650,#2070,#2830,.T.);
#2850=ORIENTED_EDGE('',*,*,#2840,.T.);
#2860=ORIENTED_EDGE('',*,*,#2700,.T.);
#2870=CARTESIAN_POINT('',(-7.5,9.18485099360515E-16,-28.5));
#2880=DIRECTION('',(0.,0.,1.));
#2890=VECTOR('',#2880,1.);
#2900=LINE('',#2870,#2890);
#2910=EDGE_CURVE('',#2670,#2090,#2900,.T.);
#2920=ORIENTED_EDGE('',*,*,#2910,.F.);
#2930=ORIENTED_EDGE('',*,*,#2120,.F.);
#2940=EDGE_LOOP('',(#2930,#2920,#2860,#2850));
#2950=FACE_OUTER_BOUND('',#2940,.T.);
#2960=ADVANCED_FACE('',(#2950),#2790,.T.);
#2970=CARTESIAN_POINT('',(0.,0.,-28.5));
#2980=DIRECTION('',(0.,0.,1.));
#2990=DIRECTION('',(1.,0.,0.));
#3000=AXIS2_PLACEMENT_3D('',#2970,#2980,#2990);
#3010=CYLINDRICAL_SURFACE('',#3000,7.5);
#3020=ORIENTED_EDGE('',*,*,#2100,.F.);
#3030=ORIENTED_EDGE('',*,*,#2910,.T.);
#3040=ORIENTED_EDGE('',*,*,#2680,.T.);
#3050=ORIENTED_EDGE('',*,*,#2840,.F.);
#3060=EDGE_LOOP('',(#3050,#3040,#3030,#3020));
#3070=FACE_OUTER_BOUND('',#3060,.T.);
#3080=ADVANCED_FACE('',(#3070),#3010,.T.);
#3090=CARTESIAN_POINT('',(0.,0.,-25.5));
#3100=DIRECTION('',(0.,0.,1.));
#3110=DIRECTION('',(1.,0.,0.));
#3120=AXIS2_PLACEMENT_3D('',#3090,#3100,#3110);
#3130=CYLINDRICAL_SURFACE('',#3120,12.5);
#3140=ORIENTED_EDGE('',*,*,#1890,.F.);
#3150=ORIENTED_EDGE('',*,*,#2480,.T.);
#3160=ORIENTED_EDGE('',*,*,#2250,.T.);
#3170=ORIENTED_EDGE('',*,*,#2410,.F.);
#3180=EDGE_LOOP('',(#3170,#3160,#3150,#3140));
#3190=FACE_OUTER_BOUND('',#3180,.T.);
#3200=ADVANCED_FACE('',(#3190),#3130,.T.);
#3210=CARTESIAN_POINT('',(0.,0.,-5.));
#3220=DIRECTION('',(0.,0.,1.));
#3230=DIRECTION('',(1.,0.,0.));
#3240=AXIS2_PLACEMENT_3D('',#3210,#3220,#3230);
#3250=CYLINDRICAL_SURFACE('',#3240,11.);
#3260=ORIENTED_EDGE('',*,*,#1090,.F.);
#3270=ORIENTED_EDGE('',*,*,#1640,.T.);
#3280=ORIENTED_EDGE('',*,*,#1750,.T.);
#3290=ORIENTED_EDGE('',*,*,#1490,.F.);
#3300=EDGE_LOOP('',(#3290,#3280,#3270,#3260));
#3310=FACE_OUTER_BOUND('',#3300,.T.);
#3320=ADVANCED_FACE('',(#3310),#3250,.T.);
#3330=CARTESIAN_POINT('',(0.,0.,0.));
#3340=DIRECTION('',(0.,0.,1.));
#3350=DIRECTION('',(1.,0.,0.));
#3360=AXIS2_PLACEMENT_3D('',#3330,#3340,#3350);
#3370=CYLINDRICAL_SURFACE('',#3360,12.5);
#3380=ORIENTED_EDGE('',*,*,#680,.F.);
#3390=ORIENTED_EDGE('',*,*,#1320,.T.);
#3400=ORIENTED_EDGE('',*,*,#940,.T.);
#3410=ORIENTED_EDGE('',*,*,#1250,.F.);
#3420=EDGE_LOOP('',(#3410,#3400,#3390,#3380));
#3430=FACE_OUTER_BOUND('',#3420,.T.);
#3440=ADVANCED_FACE('',(#3430),#3370,.T.);
#3450=CARTESIAN_POINT('',(0.,0.,0.));
#3460=DIRECTION('',(0.,0.,1.));
#3470=DIRECTION('',(1.,0.,0.));
#3480=AXIS2_PLACEMENT_3D('',#3450,#3460,#3470);
#3490=CYLINDRICAL_SURFACE('',#3480,7.5);
#3500=ORIENTED_EDGE('',*,*,#150,.F.);
#3510=ORIENTED_EDGE('',*,*,#480,.T.);
#3520=ORIENTED_EDGE('',*,*,#740,.T.);
#3530=ORIENTED_EDGE('',*,*,#330,.F.);
#3540=EDGE_LOOP('',(#3530,#3520,#3510,#3500));
#3550=FACE_OUTER_BOUND('',#3540,.T.);
#3560=ADVANCED_FACE('',(#3550),#3490,.T.);
#3570=CLOSED_SHELL('',(#530,#790,#1150,#1370,#1690,#1950,#2310,#2530,
#2740,#2960,#3080,#3200,#3320,#3440,#3560,#210));
#3580=MANIFOLD_SOLID_BREP('',#3570);
#3590=CARTESIAN_POINT('',(0.,0.,0.));
#3600=DIRECTION('',(0.,0.,1.));
#3610=DIRECTION('',(1.,0.,0.));
#3620=AXIS2_PLACEMENT_3D('',#3590,#3600,#3610);
#3630=APPLICATION_CONTEXT(' ');
#3640=APPLICATION_PROTOCOL_DEFINITION(' ','automotive_design',1998,#3630
);
#3650=PRODUCT_CONTEXT('',#3630,'mechanical');
#3660=PRODUCT_DEFINITION_CONTEXT('part definition',#3630,'design');
#3670=PRODUCT('bague_embrayage','bague_embrayage','',(#3650));
#3680=PRODUCT_RELATED_PRODUCT_CATEGORY('part',' ',(#3670));
#3690=PRODUCT_DEFINITION_FORMATION_WITH_SPECIFIED_SOURCE('','',#3670,
.BOUGHT.);
#3700=PRODUCT_DEFINITION('',' ',#3690,#3660);
#3710=PRODUCT_DEFINITION_SHAPE('','',#3700);
#3720=DIMENSIONAL_EXPONENTS(1.,0.,0.,0.,0.,0.,0.);
#3730=DIMENSIONAL_EXPONENTS(0.,0.,0.,0.,0.,0.,0.);
#3740=DIMENSIONAL_EXPONENTS(0.,0.,0.,0.,0.,0.,0.);
#3750=(LENGTH_UNIT() NAMED_UNIT(*) SI_UNIT(.MILLI.,.METRE.));
#3760=(NAMED_UNIT(*) PLANE_ANGLE_UNIT() SI_UNIT($,.RADIAN.));
#3770=(NAMED_UNIT(*) SI_UNIT($,.STERADIAN.) SOLID_ANGLE_UNIT());
#3780=(GEOMETRIC_REPRESENTATION_CONTEXT(3) 
GLOBAL_UNCERTAINTY_ASSIGNED_CONTEXT((#3790)) 
GLOBAL_UNIT_ASSIGNED_CONTEXT((#3750,#3760,#3770)) REPRESENTATION_CONTEXT
('',''));
#3790=UNCERTAINTY_MEASURE_WITH_UNIT(LENGTH_MEASURE(1.E-6),#3750,
'distance_accuracy_value','maximum gap value');
#3800=ADVANCED_BREP_SHAPE_REPRESENTATION('',(#3620,#3580),#3780);
#3810=SHAPE_DEFINITION_REPRESENTATION(#3710,#3800);
#3820=COLOUR_RGB('',0.600000023841858,0.600000023841858,
0.600000023841858);
#3830=FILL_AREA_STYLE_COLOUR('',#3820);
#3840=FILL_AREA_STYLE('',(#3830));
#3850=SURFACE_STYLE_FILL_AREA(#3840);
#3860=SURFACE_SIDE_STYLE('',(#3850));
#3870=SURFACE_STYLE_USAGE(.BOTH.,#3860);
#3880=PRESENTATION_STYLE_ASSIGNMENT((#3870));
#3890=STYLED_ITEM('',(#3880),#3580);
#3900=DRAUGHTING_MODEL('',(#3890),#3780);
ENDSEC;
END-ISO-10303-21;
