ISO-10303-21;
HEADER;
FILE_DESCRIPTION(('Creo Elements/Direct Modeling STEP Export'),'2;1');
FILE_NAME('tige_guidage_ressort.stp','2015-12-02T 9:35:37',(''),(''),
'Creo Elements/Direct Modeling STEP processor for AP214 (Solid Model)',
'Creo Elements/Direct Modeling 18.1B  29-Sep-2012 (C) Parametric Technol
ogy GmbH','');
FILE_SCHEMA(('AUTOMOTIVE_DESIGN { 1 0 10303 214 1 1 1 1 }'));
ENDSEC;
DATA;
#10=CARTESIAN_POINT('',(25.79999685,100.79999685,-205.));
#20=DIRECTION('',(0.,0.,-1.));
#30=DIRECTION('',(-1.,0.,0.));
#40=AXIS2_PLACEMENT_3D('',#10,#20,#30);
#50=PLANE('',#40);
#60=CARTESIAN_POINT('',(30.,105.,-205.));
#70=DIRECTION('',(7.07007254075142E-15,-5.65605803260113E-15,-1.));
#80=DIRECTION('',(1.,0.,7.07007254075142E-15));
#90=AXIS2_PLACEMENT_3D('',#60,#70,#80);
#100=CIRCLE('',#90,3.99999999999998);
#110=CARTESIAN_POINT('',(34.,105.,-205.));
#120=VERTEX_POINT('',#110);
#130=CARTESIAN_POINT('',(26.,105.,-205.));
#140=VERTEX_POINT('',#130);
#150=EDGE_CURVE('',#120,#140,#100,.T.);
#160=ORIENTED_EDGE('',*,*,#150,.T.);
#170=EDGE_CURVE('',#140,#120,#100,.T.);
#180=ORIENTED_EDGE('',*,*,#170,.T.);
#190=EDGE_LOOP('',(#180,#160));
#200=FACE_OUTER_BOUND('',#190,.T.);
#210=ADVANCED_FACE('',(#200),#50,.T.);
#220=CARTESIAN_POINT('',(30.,105.,-186.));
#230=DIRECTION('',(-6.16297582203915E-33,-1.34815096107107E-33,-1.));
#240=DIRECTION('',(2.77555756156289E-17,1.,9.86076131526265E-32));
#250=AXIS2_PLACEMENT_3D('',#220,#230,#240);
#260=CYLINDRICAL_SURFACE('',#250,4.);
#270=CARTESIAN_POINT('',(30.,101.,-186.));
#280=DIRECTION('',(-6.16297582203915E-33,-1.34815096107106E-33,-1.));
#290=VECTOR('',#280,1.);
#300=LINE('',#270,#290);
#310=CARTESIAN_POINT('',(30.,101.,-185.));
#320=VERTEX_POINT('',#310);
#330=CARTESIAN_POINT('',(30.,101.,-187.));
#340=VERTEX_POINT('',#330);
#350=EDGE_CURVE('',#320,#340,#300,.T.);
#360=ORIENTED_EDGE('',*,*,#350,.F.);
#370=CARTESIAN_POINT('',(30.,105.,-187.));
#380=DIRECTION('',(-6.16297582203915E-33,-1.34815096107106E-33,-1.));
#390=DIRECTION('',(2.77555756156289E-17,1.,-1.34815096107107E-33));
#400=AXIS2_PLACEMENT_3D('',#370,#380,#390);
#410=CIRCLE('',#400,4.);
#420=CARTESIAN_POINT('',(30.,109.,-187.));
#430=VERTEX_POINT('',#420);
#440=EDGE_CURVE('',#340,#430,#410,.T.);
#450=ORIENTED_EDGE('',*,*,#440,.F.);
#460=CARTESIAN_POINT('',(30.,109.,-186.));
#470=DIRECTION('',(-6.16297582203915E-33,-1.34815096107106E-33,-1.));
#480=VECTOR('',#470,1.);
#490=LINE('',#460,#480);
#500=CARTESIAN_POINT('',(30.,109.,-185.));
#510=VERTEX_POINT('',#500);
#520=EDGE_CURVE('',#510,#430,#490,.T.);
#530=ORIENTED_EDGE('',*,*,#520,.T.);
#540=CARTESIAN_POINT('',(30.,105.,-185.));
#550=DIRECTION('',(-6.16297582203915E-33,-1.34815096107106E-33,-1.));
#560=DIRECTION('',(2.77555756156289E-17,1.,-1.34815096107107E-33));
#570=AXIS2_PLACEMENT_3D('',#540,#550,#560);
#580=CIRCLE('',#570,4.);
#590=EDGE_CURVE('',#320,#510,#580,.T.);
#600=ORIENTED_EDGE('',*,*,#590,.T.);
#610=EDGE_LOOP('',(#600,#530,#450,#360));
#620=FACE_OUTER_BOUND('',#610,.T.);
#630=ADVANCED_FACE('',(#620),#260,.T.);
#640=CARTESIAN_POINT('',(38.3227649954118,95.4635217418937,-185.));
#650=DIRECTION('',(0.,0.,-1.));
#660=DIRECTION('',(-1.,0.,0.));
#670=AXIS2_PLACEMENT_3D('',#640,#650,#660);
#680=PLANE('',#670);
#690=EDGE_CURVE('',#510,#320,#580,.T.);
#700=ORIENTED_EDGE('',*,*,#690,.F.);
#710=ORIENTED_EDGE('',*,*,#590,.F.);
#720=EDGE_LOOP('',(#710,#700));
#730=FACE_BOUND('',#720,.T.);
#740=CARTESIAN_POINT('',(30.,105.,-185.));
#750=DIRECTION('',(0.,0.,1.));
#760=DIRECTION('',(1.,0.,0.));
#770=AXIS2_PLACEMENT_3D('',#740,#750,#760);
#780=CIRCLE('',#770,6.99999999999998);
#790=CARTESIAN_POINT('',(37.,105.,-185.));
#800=VERTEX_POINT('',#790);
#810=CARTESIAN_POINT('',(23.,105.,-185.));
#820=VERTEX_POINT('',#810);
#830=EDGE_CURVE('',#800,#820,#780,.T.);
#840=ORIENTED_EDGE('',*,*,#830,.F.);
#850=EDGE_CURVE('',#820,#800,#780,.T.);
#860=ORIENTED_EDGE('',*,*,#850,.F.);
#870=EDGE_LOOP('',(#860,#840));
#880=FACE_OUTER_BOUND('',#870,.T.);
#890=ADVANCED_FACE('',(#730,#880),#680,.T.);
#900=CARTESIAN_POINT('',(30.,105.,-203.97499685));
#910=DIRECTION('',(-7.07007254075142E-15,5.65605803260113E-15,1.));
#920=DIRECTION('',(1.,0.,7.07007254075142E-15));
#930=AXIS2_PLACEMENT_3D('',#900,#910,#920);
#940=CONICAL_SURFACE('',#930,5.02500315000002,0.785398163397442);
#950=CARTESIAN_POINT('',(35.02500315,105.,-203.97499685));
#960=DIRECTION('',(0.707106781186539,3.99943698963693E-15,
0.707106781186556));
#970=VECTOR('',#960,7.1064276056976);
#980=LINE('',#950,#970);
#990=CARTESIAN_POINT('',(35.,105.,-204.));
#1000=VERTEX_POINT('',#990);
#1010=EDGE_CURVE('',#120,#1000,#980,.T.);
#1020=ORIENTED_EDGE('',*,*,#1010,.T.);
#1030=ORIENTED_EDGE('',*,*,#150,.F.);
#1040=CARTESIAN_POINT('',(24.97499685,105.,-203.97499685));
#1050=DIRECTION('',(-0.707106781186548,3.99943698963693E-15,
0.707106781186548));
#1060=VECTOR('',#1050,7.10642760569761);
#1070=LINE('',#1040,#1060);
#1080=CARTESIAN_POINT('',(25.,105.,-204.));
#1090=VERTEX_POINT('',#1080);
#1100=EDGE_CURVE('',#140,#1090,#1070,.T.);
#1110=ORIENTED_EDGE('',*,*,#1100,.F.);
#1120=CARTESIAN_POINT('',(30.,105.,-204.));
#1130=DIRECTION('',(3.53503627037571E-15,-2.82802901630057E-15,-1.));
#1140=DIRECTION('',(-1.,-9.99718514629744E-30,-3.53503627037571E-15));
#1150=AXIS2_PLACEMENT_3D('',#1120,#1130,#1140);
#1160=CIRCLE('',#1150,4.99999999999997);
#1170=EDGE_CURVE('',#1000,#1090,#1160,.T.);
#1180=ORIENTED_EDGE('',*,*,#1170,.T.);
#1190=EDGE_LOOP('',(#1180,#1110,#1030,#1020));
#1200=FACE_OUTER_BOUND('',#1190,.T.);
#1210=ADVANCED_FACE('',(#1200),#940,.T.);
#1220=CARTESIAN_POINT('',(30.,105.,4.50000000000014));
#1230=DIRECTION('',(0.,0.,1.));
#1240=DIRECTION('',(1.,0.,0.));
#1250=AXIS2_PLACEMENT_3D('',#1220,#1230,#1240);
#1260=CYLINDRICAL_SURFACE('',#1250,6.);
#1270=CARTESIAN_POINT('',(24.,105.,4.50000000000014));
#1280=DIRECTION('',(0.,0.,1.));
#1290=VECTOR('',#1280,1.);
#1300=LINE('',#1270,#1290);
#1310=CARTESIAN_POINT('',(24.,105.,25.));
#1320=VERTEX_POINT('',#1310);
#1330=CARTESIAN_POINT('',(24.,105.,25.0100000000004));
#1340=VERTEX_POINT('',#1330);
#1350=EDGE_CURVE('',#1320,#1340,#1300,.T.);
#1360=ORIENTED_EDGE('',*,*,#1350,.F.);
#1370=CARTESIAN_POINT('',(30.,105.,25.0100000000004));
#1380=DIRECTION('',(0.,0.,1.));
#1390=DIRECTION('',(1.,0.,0.));
#1400=AXIS2_PLACEMENT_3D('',#1370,#1380,#1390);
#1410=CIRCLE('',#1400,6.);
#1420=CARTESIAN_POINT('',(36.,105.,25.0100000000004));
#1430=VERTEX_POINT('',#1420);
#1440=EDGE_CURVE('',#1340,#1430,#1410,.T.);
#1450=ORIENTED_EDGE('',*,*,#1440,.F.);
#1460=CARTESIAN_POINT('',(36.,105.,4.50000000000014));
#1470=DIRECTION('',(0.,0.,1.));
#1480=VECTOR('',#1470,1.);
#1490=LINE('',#1460,#1480);
#1500=CARTESIAN_POINT('',(36.,105.,25.));
#1510=VERTEX_POINT('',#1500);
#1520=EDGE_CURVE('',#1510,#1430,#1490,.T.);
#1530=ORIENTED_EDGE('',*,*,#1520,.T.);
#1540=CARTESIAN_POINT('',(30.,105.,25.));
#1550=DIRECTION('',(0.,0.,1.));
#1560=DIRECTION('',(1.,0.,0.));
#1570=AXIS2_PLACEMENT_3D('',#1540,#1550,#1560);
#1580=CIRCLE('',#1570,6.);
#1590=CARTESIAN_POINT('',(35.9861921468275,104.593178686325,25.));
#1600=VERTEX_POINT('',#1590);
#1610=EDGE_CURVE('',#1600,#1510,#1580,.T.);
#1620=ORIENTED_EDGE('',*,*,#1610,.T.);
#1630=EDGE_CURVE('',#1320,#1600,#1580,.T.);
#1640=ORIENTED_EDGE('',*,*,#1630,.T.);
#1650=EDGE_LOOP('',(#1640,#1620,#1530,#1450,#1360));
#1660=FACE_OUTER_BOUND('',#1650,.T.);
#1670=ADVANCED_FACE('',(#1660),#1260,.T.);
#1680=CARTESIAN_POINT('',(30.,105.,-185.5));
#1690=DIRECTION('',(0.,0.,1.));
#1700=DIRECTION('',(1.,0.,0.));
#1710=AXIS2_PLACEMENT_3D('',#1680,#1690,#1700);
#1720=CYLINDRICAL_SURFACE('',#1710,6.99999999999998);
#1730=CARTESIAN_POINT('',(23.,105.,-185.5));
#1740=DIRECTION('',(0.,0.,1.));
#1750=VECTOR('',#1740,1.);
#1760=LINE('',#1730,#1750);
#1770=CARTESIAN_POINT('',(23.,105.,25.));
#1780=VERTEX_POINT('',#1770);
#1790=EDGE_CURVE('',#820,#1780,#1760,.T.);
#1800=ORIENTED_EDGE('',*,*,#1790,.F.);
#1810=CARTESIAN_POINT('',(30.,105.,25.));
#1820=DIRECTION('',(0.,0.,1.));
#1830=DIRECTION('',(1.,0.,0.));
#1840=AXIS2_PLACEMENT_3D('',#1810,#1820,#1830);
#1850=CIRCLE('',#1840,6.99999999999998);
#1860=CARTESIAN_POINT('',(37.,105.,25.));
#1870=VERTEX_POINT('',#1860);
#1880=EDGE_CURVE('',#1780,#1870,#1850,.T.);
#1890=ORIENTED_EDGE('',*,*,#1880,.F.);
#1900=CARTESIAN_POINT('',(37.,105.,-185.5));
#1910=DIRECTION('',(0.,0.,1.));
#1920=VECTOR('',#1910,1.);
#1930=LINE('',#1900,#1920);
#1940=EDGE_CURVE('',#800,#1870,#1930,.T.);
#1950=ORIENTED_EDGE('',*,*,#1940,.T.);
#1960=ORIENTED_EDGE('',*,*,#850,.T.);
#1970=EDGE_LOOP('',(#1960,#1950,#1890,#1800));
#1980=FACE_OUTER_BOUND('',#1970,.T.);
#1990=ADVANCED_FACE('',(#1980),#1720,.T.);
#2000=CARTESIAN_POINT('',(35.2486755108957,99.7486695465487,145.));
#2010=DIRECTION('',(0.,0.,1.));
#2020=DIRECTION('',(1.,0.,0.));
#2030=AXIS2_PLACEMENT_3D('',#2000,#2010,#2020);
#2040=PLANE('',#2030);
#2050=CARTESIAN_POINT('',(30.,105.,145.));
#2060=DIRECTION('',(0.,0.,1.));
#2070=DIRECTION('',(-1.,0.,0.));
#2080=AXIS2_PLACEMENT_3D('',#2050,#2060,#2070);
#2090=CIRCLE('',#2080,5.00000000000003);
#2100=CARTESIAN_POINT('',(25.,105.,145.));
#2110=VERTEX_POINT('',#2100);
#2120=CARTESIAN_POINT('',(35.,105.,145.));
#2130=VERTEX_POINT('',#2120);
#2140=EDGE_CURVE('',#2110,#2130,#2090,.T.);
#2150=ORIENTED_EDGE('',*,*,#2140,.T.);
#2160=EDGE_CURVE('',#2130,#2110,#2090,.T.);
#2170=ORIENTED_EDGE('',*,*,#2160,.T.);
#2180=EDGE_LOOP('',(#2170,#2150));
#2190=FACE_OUTER_BOUND('',#2180,.T.);
#2200=ADVANCED_FACE('',(#2190),#2040,.T.);
#2210=CARTESIAN_POINT('',(30.,105.,143.97499685));
#2220=DIRECTION('',(0.,0.,-1.));
#2230=DIRECTION('',(-1.,0.,0.));
#2240=AXIS2_PLACEMENT_3D('',#2210,#2220,#2230);
#2250=CONICAL_SURFACE('',#2240,6.02500315000003,0.785398163397479);
#2260=CARTESIAN_POINT('',(23.97499685,105.,143.97499685));
#2270=DIRECTION('',(-0.707106781186569,0.,-0.707106781186526));
#2280=VECTOR('',#2270,8.5206411680704);
#2290=LINE('',#2260,#2280);
#2300=CARTESIAN_POINT('',(24.,105.,144.));
#2310=VERTEX_POINT('',#2300);
#2320=EDGE_CURVE('',#2110,#2310,#2290,.T.);
#2330=ORIENTED_EDGE('',*,*,#2320,.T.);
#2340=ORIENTED_EDGE('',*,*,#2140,.F.);
#2350=CARTESIAN_POINT('',(36.02500315,105.,143.97499685));
#2360=DIRECTION('',(0.707106781186569,0.,-0.707106781186526));
#2370=VECTOR('',#2360,8.5206411680704);
#2380=LINE('',#2350,#2370);
#2390=CARTESIAN_POINT('',(36.,105.,144.));
#2400=VERTEX_POINT('',#2390);
#2410=EDGE_CURVE('',#2130,#2400,#2380,.T.);
#2420=ORIENTED_EDGE('',*,*,#2410,.F.);
#2430=CARTESIAN_POINT('',(30.,105.,144.));
#2440=DIRECTION('',(0.,0.,1.));
#2450=DIRECTION('',(-1.,0.,0.));
#2460=AXIS2_PLACEMENT_3D('',#2430,#2440,#2450);
#2470=CIRCLE('',#2460,6.00000000000001);
#2480=CARTESIAN_POINT('',(35.9861921468275,104.593178686325,144.));
#2490=VERTEX_POINT('',#2480);
#2500=EDGE_CURVE('',#2490,#2400,#2470,.T.);
#2510=ORIENTED_EDGE('',*,*,#2500,.T.);
#2520=EDGE_CURVE('',#2310,#2490,#2470,.T.);
#2530=ORIENTED_EDGE('',*,*,#2520,.T.);
#2540=EDGE_LOOP('',(#2530,#2510,#2420,#2340,#2330));
#2550=FACE_OUTER_BOUND('',#2540,.T.);
#2560=ADVANCED_FACE('',(#2550),#2250,.T.);
#2570=CARTESIAN_POINT('',(20.4635217418938,96.6772350045883,25.));
#2580=DIRECTION('',(0.,0.,1.));
#2590=DIRECTION('',(1.,0.,0.));
#2600=AXIS2_PLACEMENT_3D('',#2570,#2580,#2590);
#2610=PLANE('',#2600);
#2620=ORIENTED_EDGE('',*,*,#1610,.F.);
#2630=EDGE_CURVE('',#1510,#1320,#1580,.T.);
#2640=ORIENTED_EDGE('',*,*,#2630,.F.);
#2650=ORIENTED_EDGE('',*,*,#1630,.F.);
#2660=EDGE_LOOP('',(#2650,#2640,#2620));
#2670=FACE_BOUND('',#2660,.T.);
#2680=ORIENTED_EDGE('',*,*,#1880,.T.);
#2690=EDGE_CURVE('',#1870,#1780,#1850,.T.);
#2700=ORIENTED_EDGE('',*,*,#2690,.T.);
#2710=EDGE_LOOP('',(#2700,#2680));
#2720=FACE_OUTER_BOUND('',#2710,.T.);
#2730=ADVANCED_FACE('',(#2670,#2720),#2610,.T.);
#2740=CARTESIAN_POINT('',(30.,105.,-184.52499685));
#2750=DIRECTION('',(0.,0.,-1.));
#2760=DIRECTION('',(-1.,0.,0.));
#2770=AXIS2_PLACEMENT_3D('',#2740,#2750,#2760);
#2780=CYLINDRICAL_SURFACE('',#2770,4.99999999999998);
#2790=CARTESIAN_POINT('',(35.,105.,-184.52499685));
#2800=DIRECTION('',(0.,0.,-1.));
#2810=VECTOR('',#2800,1.);
#2820=LINE('',#2790,#2810);
#2830=CARTESIAN_POINT('',(35.,105.,-187.));
#2840=VERTEX_POINT('',#2830);
#2850=EDGE_CURVE('',#2840,#1000,#2820,.T.);
#2860=ORIENTED_EDGE('',*,*,#2850,.F.);
#2870=ORIENTED_EDGE('',*,*,#1170,.F.);
#2880=CARTESIAN_POINT('',(25.,105.,-184.52499685));
#2890=DIRECTION('',(0.,0.,-1.));
#2900=VECTOR('',#2890,1.);
#2910=LINE('',#2880,#2900);
#2920=CARTESIAN_POINT('',(25.,105.,-187.));
#2930=VERTEX_POINT('',#2920);
#2940=EDGE_CURVE('',#2930,#1090,#2910,.T.);
#2950=ORIENTED_EDGE('',*,*,#2940,.T.);
#2960=CARTESIAN_POINT('',(30.,105.,-187.));
#2970=DIRECTION('',(0.,0.,-1.));
#2980=DIRECTION('',(-1.,0.,0.));
#2990=AXIS2_PLACEMENT_3D('',#2960,#2970,#2980);
#3000=CIRCLE('',#2990,4.99999999999998);
#3010=EDGE_CURVE('',#2840,#2930,#3000,.T.);
#3020=ORIENTED_EDGE('',*,*,#3010,.T.);
#3030=EDGE_LOOP('',(#3020,#2950,#2870,#2860));
#3040=FACE_OUTER_BOUND('',#3030,.T.);
#3050=ADVANCED_FACE('',(#3040),#2780,.T.);
#3060=COLOUR_RGB('',0.,0.,0.501960813999176);
#3070=FILL_AREA_STYLE_COLOUR('',#3060);
#3080=FILL_AREA_STYLE('',(#3070));
#3090=SURFACE_STYLE_FILL_AREA(#3080);
#3100=SURFACE_SIDE_STYLE('',(#3090));
#3110=SURFACE_STYLE_USAGE(.BOTH.,#3100);
#3120=PRESENTATION_STYLE_ASSIGNMENT((#3110));
#3130=CARTESIAN_POINT('',(24.,105.,4.50000000000014));
#3140=DIRECTION('',(0.,0.,1.));
#3150=VECTOR('',#3140,1.);
#3160=LINE('',#3130,#3150);
#3170=CARTESIAN_POINT('',(24.,105.,25.1000000000004));
#3180=VERTEX_POINT('',#3170);
#3190=EDGE_CURVE('',#3180,#2310,#3160,.T.);
#3200=ORIENTED_EDGE('',*,*,#3190,.F.);
#3210=ORIENTED_EDGE('',*,*,#2520,.F.);
#3220=ORIENTED_EDGE('',*,*,#2500,.F.);
#3230=CARTESIAN_POINT('',(36.,105.,4.50000000000014));
#3240=DIRECTION('',(0.,0.,1.));
#3250=VECTOR('',#3240,1.);
#3260=LINE('',#3230,#3250);
#3270=CARTESIAN_POINT('',(36.,105.,25.1000000000004));
#3280=VERTEX_POINT('',#3270);
#3290=EDGE_CURVE('',#3280,#2400,#3260,.T.);
#3300=ORIENTED_EDGE('',*,*,#3290,.T.);
#3310=CARTESIAN_POINT('',(30.,105.,25.1000000000004));
#3320=DIRECTION('',(0.,0.,1.));
#3330=DIRECTION('',(1.,0.,0.));
#3340=AXIS2_PLACEMENT_3D('',#3310,#3320,#3330);
#3350=CIRCLE('',#3340,6.);
#3360=EDGE_CURVE('',#3180,#3280,#3350,.T.);
#3370=ORIENTED_EDGE('',*,*,#3360,.T.);
#3380=EDGE_LOOP('',(#3370,#3300,#3220,#3210,#3200));
#3390=FACE_OUTER_BOUND('',#3380,.T.);
#3400=ADVANCED_FACE('M12x1.75_466660',(#3390),#1260,.T.);
#3410=COLOUR_RGB('',0.,0.,0.501960813999176);
#3420=FILL_AREA_STYLE_COLOUR('',#3410);
#3430=FILL_AREA_STYLE('',(#3420));
#3440=SURFACE_STYLE_FILL_AREA(#3430);
#3450=SURFACE_SIDE_STYLE('',(#3440));
#3460=SURFACE_STYLE_USAGE(.BOTH.,#3450);
#3470=PRESENTATION_STYLE_ASSIGNMENT((#3460));
#3480=CARTESIAN_POINT('',(24.,105.,4.50000000000014));
#3490=DIRECTION('',(0.,0.,1.));
#3500=VECTOR('',#3490,1.);
#3510=LINE('',#3480,#3500);
#3520=EDGE_CURVE('',#1340,#3180,#3510,.T.);
#3530=ORIENTED_EDGE('',*,*,#3520,.F.);
#3540=ORIENTED_EDGE('',*,*,#3360,.F.);
#3550=CARTESIAN_POINT('',(36.,105.,4.50000000000014));
#3560=DIRECTION('',(0.,0.,1.));
#3570=VECTOR('',#3560,1.);
#3580=LINE('',#3550,#3570);
#3590=EDGE_CURVE('',#1430,#3280,#3580,.T.);
#3600=ORIENTED_EDGE('',*,*,#3590,.T.);
#3610=ORIENTED_EDGE('',*,*,#1440,.T.);
#3620=EDGE_LOOP('',(#3610,#3600,#3540,#3530));
#3630=FACE_OUTER_BOUND('',#3620,.T.);
#3640=ADVANCED_FACE('',(#3630),#1260,.T.);
#3650=CARTESIAN_POINT('',(30.,109.553,-187.));
#3660=DIRECTION('',(-3.08148791101958E-33,-1.11022302462516E-16,-1.));
#3670=DIRECTION('',(2.77555756156289E-17,1.,-1.11022302462516E-16));
#3680=AXIS2_PLACEMENT_3D('',#3650,#3660,#3670);
#3690=PLANE('',#3680);
#3700=EDGE_CURVE('',#430,#340,#410,.T.);
#3710=ORIENTED_EDGE('',*,*,#3700,.T.);
#3720=ORIENTED_EDGE('',*,*,#440,.T.);
#3730=EDGE_LOOP('',(#3720,#3710));
#3740=FACE_BOUND('',#3730,.T.);
#3750=EDGE_CURVE('',#2930,#2840,#3000,.T.);
#3760=ORIENTED_EDGE('',*,*,#3750,.F.);
#3770=ORIENTED_EDGE('',*,*,#3010,.F.);
#3780=EDGE_LOOP('',(#3770,#3760));
#3790=FACE_OUTER_BOUND('',#3780,.T.);
#3800=ADVANCED_FACE('',(#3740,#3790),#3690,.F.);
#3810=CARTESIAN_POINT('',(30.,105.,4.50000000000014));
#3820=DIRECTION('',(0.,0.,1.));
#3830=DIRECTION('',(1.,0.,0.));
#3840=AXIS2_PLACEMENT_3D('',#3810,#3820,#3830);
#3850=CYLINDRICAL_SURFACE('',#3840,6.);
#3860=EDGE_CURVE('',#1430,#1340,#1410,.T.);
#3870=ORIENTED_EDGE('',*,*,#3860,.F.);
#3880=ORIENTED_EDGE('',*,*,#1350,.T.);
#3890=ORIENTED_EDGE('',*,*,#2630,.T.);
#3900=ORIENTED_EDGE('',*,*,#1520,.F.);
#3910=EDGE_LOOP('',(#3900,#3890,#3880,#3870));
#3920=FACE_OUTER_BOUND('',#3910,.T.);
#3930=ADVANCED_FACE('',(#3920),#3850,.T.);
#3940=CARTESIAN_POINT('',(30.,105.,-203.97499685));
#3950=DIRECTION('',(-7.07007254075142E-15,5.65605803260113E-15,1.));
#3960=DIRECTION('',(1.,0.,7.07007254075142E-15));
#3970=AXIS2_PLACEMENT_3D('',#3940,#3950,#3960);
#3980=CONICAL_SURFACE('',#3970,5.02500315000002,0.785398163397442);
#3990=ORIENTED_EDGE('',*,*,#1010,.F.);
#4000=EDGE_CURVE('',#1090,#1000,#1160,.T.);
#4010=ORIENTED_EDGE('',*,*,#4000,.T.);
#4020=ORIENTED_EDGE('',*,*,#1100,.T.);
#4030=ORIENTED_EDGE('',*,*,#170,.F.);
#4040=EDGE_LOOP('',(#4030,#4020,#4010,#3990));
#4050=FACE_OUTER_BOUND('',#4040,.T.);
#4060=ADVANCED_FACE('',(#4050),#3980,.T.);
#4070=CARTESIAN_POINT('',(30.,105.,-184.52499685));
#4080=DIRECTION('',(0.,0.,-1.));
#4090=DIRECTION('',(-1.,0.,0.));
#4100=AXIS2_PLACEMENT_3D('',#4070,#4080,#4090);
#4110=CYLINDRICAL_SURFACE('',#4100,4.99999999999998);
#4120=ORIENTED_EDGE('',*,*,#4000,.F.);
#4130=ORIENTED_EDGE('',*,*,#2850,.T.);
#4140=ORIENTED_EDGE('',*,*,#3750,.T.);
#4150=ORIENTED_EDGE('',*,*,#2940,.F.);
#4160=EDGE_LOOP('',(#4150,#4140,#4130,#4120));
#4170=FACE_OUTER_BOUND('',#4160,.T.);
#4180=ADVANCED_FACE('',(#4170),#4110,.T.);
#4190=COLOUR_RGB('',0.,0.,0.501960813999176);
#4200=FILL_AREA_STYLE_COLOUR('',#4190);
#4210=FILL_AREA_STYLE('',(#4200));
#4220=SURFACE_STYLE_FILL_AREA(#4210);
#4230=SURFACE_SIDE_STYLE('',(#4220));
#4240=SURFACE_STYLE_USAGE(.BOTH.,#4230);
#4250=PRESENTATION_STYLE_ASSIGNMENT((#4240));
#4260=EDGE_CURVE('',#3280,#3180,#3350,.T.);
#4270=ORIENTED_EDGE('',*,*,#4260,.F.);
#4280=ORIENTED_EDGE('',*,*,#3520,.T.);
#4290=ORIENTED_EDGE('',*,*,#3860,.T.);
#4300=ORIENTED_EDGE('',*,*,#3590,.F.);
#4310=EDGE_LOOP('',(#4300,#4290,#4280,#4270));
#4320=FACE_OUTER_BOUND('',#4310,.T.);
#4330=ADVANCED_FACE('',(#4320),#3850,.T.);
#4340=CARTESIAN_POINT('',(30.,105.,-185.5));
#4350=DIRECTION('',(0.,0.,1.));
#4360=DIRECTION('',(1.,0.,0.));
#4370=AXIS2_PLACEMENT_3D('',#4340,#4350,#4360);
#4380=CYLINDRICAL_SURFACE('',#4370,6.99999999999998);
#4390=ORIENTED_EDGE('',*,*,#1790,.T.);
#4400=ORIENTED_EDGE('',*,*,#830,.T.);
#4410=ORIENTED_EDGE('',*,*,#1940,.F.);
#4420=ORIENTED_EDGE('',*,*,#2690,.F.);
#4430=EDGE_LOOP('',(#4420,#4410,#4400,#4390));
#4440=FACE_OUTER_BOUND('',#4430,.T.);
#4450=ADVANCED_FACE('',(#4440),#4380,.T.);
#4460=EDGE_CURVE('',#2400,#2310,#2470,.T.);
#4470=ORIENTED_EDGE('',*,*,#4460,.F.);
#4480=ORIENTED_EDGE('',*,*,#3190,.T.);
#4490=ORIENTED_EDGE('',*,*,#4260,.T.);
#4500=ORIENTED_EDGE('',*,*,#3290,.F.);
#4510=EDGE_LOOP('',(#4500,#4490,#4480,#4470));
#4520=FACE_OUTER_BOUND('',#4510,.T.);
#4530=ADVANCED_FACE('',(#4520),#3850,.T.);
#4540=COLOUR_RGB('',0.,0.,0.501960813999176);
#4550=FILL_AREA_STYLE_COLOUR('',#4540);
#4560=FILL_AREA_STYLE('',(#4550));
#4570=SURFACE_STYLE_FILL_AREA(#4560);
#4580=SURFACE_SIDE_STYLE('',(#4570));
#4590=SURFACE_STYLE_USAGE(.BOTH.,#4580);
#4600=PRESENTATION_STYLE_ASSIGNMENT((#4590));
#4610=CARTESIAN_POINT('',(30.,105.,143.97499685));
#4620=DIRECTION('',(0.,0.,-1.));
#4630=DIRECTION('',(-1.,0.,0.));
#4640=AXIS2_PLACEMENT_3D('',#4610,#4620,#4630);
#4650=CONICAL_SURFACE('',#4640,6.02500315000003,0.785398163397479);
#4660=ORIENTED_EDGE('',*,*,#2320,.F.);
#4670=ORIENTED_EDGE('',*,*,#4460,.T.);
#4680=ORIENTED_EDGE('',*,*,#2410,.T.);
#4690=ORIENTED_EDGE('',*,*,#2160,.F.);
#4700=EDGE_LOOP('',(#4690,#4680,#4670,#4660));
#4710=FACE_OUTER_BOUND('',#4700,.T.);
#4720=ADVANCED_FACE('',(#4710),#4650,.T.);
#4730=CARTESIAN_POINT('',(30.,105.,-186.));
#4740=DIRECTION('',(-6.16297582203915E-33,-1.34815096107107E-33,-1.));
#4750=DIRECTION('',(2.77555756156289E-17,1.,9.86076131526265E-32));
#4760=AXIS2_PLACEMENT_3D('',#4730,#4740,#4750);
#4770=CYLINDRICAL_SURFACE('',#4760,4.);
#4780=ORIENTED_EDGE('',*,*,#3700,.F.);
#4790=ORIENTED_EDGE('',*,*,#350,.T.);
#4800=ORIENTED_EDGE('',*,*,#690,.T.);
#4810=ORIENTED_EDGE('',*,*,#520,.F.);
#4820=EDGE_LOOP('',(#4810,#4800,#4790,#4780));
#4830=FACE_OUTER_BOUND('',#4820,.T.);
#4840=ADVANCED_FACE('',(#4830),#4770,.T.);
#4850=CLOSED_SHELL('',(#210,#630,#890,#1210,#1670,#1990,#2200,#2560,
#2730,#3050,#3400,#3640,#3800,#3930,#4060,#4180,#4330,#4450,#4530,#4720,
#4840));
#4860=MANIFOLD_SOLID_BREP('',#4850);
#4870=CARTESIAN_POINT('',(0.,0.,0.));
#4880=DIRECTION('',(0.,0.,1.));
#4890=DIRECTION('',(1.,0.,0.));
#4900=AXIS2_PLACEMENT_3D('',#4870,#4880,#4890);
#4910=APPLICATION_CONTEXT(' ');
#4920=APPLICATION_PROTOCOL_DEFINITION(' ','automotive_design',1998,#4910
);
#4930=PRODUCT_CONTEXT('',#4910,'mechanical');
#4940=PRODUCT_DEFINITION_CONTEXT('part definition',#4910,'design');
#4950=PRODUCT('tuberessort','tuberessort','',(#4930));
#4960=PRODUCT_RELATED_PRODUCT_CATEGORY('part',' ',(#4950));
#4970=PRODUCT_DEFINITION_FORMATION_WITH_SPECIFIED_SOURCE('','',#4950,
.BOUGHT.);
#4980=PRODUCT_DEFINITION('',' ',#4970,#4940);
#4990=PRODUCT_DEFINITION_SHAPE('','',#4980);
#5000=DIMENSIONAL_EXPONENTS(1.,0.,0.,0.,0.,0.,0.);
#5010=DIMENSIONAL_EXPONENTS(0.,0.,0.,0.,0.,0.,0.);
#5020=DIMENSIONAL_EXPONENTS(0.,0.,0.,0.,0.,0.,0.);
#5030=(LENGTH_UNIT() NAMED_UNIT(*) SI_UNIT(.MILLI.,.METRE.));
#5040=(NAMED_UNIT(*) PLANE_ANGLE_UNIT() SI_UNIT($,.RADIAN.));
#5050=(NAMED_UNIT(*) SI_UNIT($,.STERADIAN.) SOLID_ANGLE_UNIT());
#5060=(GEOMETRIC_REPRESENTATION_CONTEXT(3) 
GLOBAL_UNCERTAINTY_ASSIGNED_CONTEXT((#5070)) 
GLOBAL_UNIT_ASSIGNED_CONTEXT((#5030,#5040,#5050)) REPRESENTATION_CONTEXT
('',''));
#5070=UNCERTAINTY_MEASURE_WITH_UNIT(LENGTH_MEASURE(6.1E-5),#5030,
'distance_accuracy_value','maximum gap value');
#5080=ADVANCED_BREP_SHAPE_REPRESENTATION('',(#4900,#4860),#5060);
#5090=SHAPE_DEFINITION_REPRESENTATION(#4990,#5080);
#5100=COLOUR_RGB('',1.,0.,1.);
#5110=FILL_AREA_STYLE_COLOUR('',#5100);
#5120=FILL_AREA_STYLE('',(#5110));
#5130=SURFACE_STYLE_FILL_AREA(#5120);
#5140=SURFACE_SIDE_STYLE('',(#5130));
#5150=SURFACE_STYLE_USAGE(.BOTH.,#5140);
#5160=PRESENTATION_STYLE_ASSIGNMENT((#5150));
#5170=STYLED_ITEM('',(#5160),#4860);
#5180=OVER_RIDING_STYLED_ITEM('',(#3120),#3050,#5170);
#5190=OVER_RIDING_STYLED_ITEM('',(#3470),#3400,#5170);
#5200=OVER_RIDING_STYLED_ITEM('',(#4250),#4180,#5170);
#5210=OVER_RIDING_STYLED_ITEM('',(#4600),#4530,#5170);
#5220=DRAUGHTING_MODEL('',(#5170,#5180,#5190,#5200,#5210),#5060);
#5230=CARTESIAN_POINT('',(-101.536017317883,-547.98873987638,
-368.679890142735));
#5240=DIRECTION('',(-0.048754307315027,-0.726124178506219,
0.685832847643579));
#5250=DIRECTION('',(0.998584683132142,-0.0208257493792925,
0.0489379073589235));
#5260=AXIS2_PLACEMENT_3D('',#5230,#5240,#5250);
#5270=ITEM_DEFINED_TRANSFORMATION('tuberessort.1','',#4900,#5260);
#5280=APPLICATION_CONTEXT(' ');
#5290=APPLICATION_PROTOCOL_DEFINITION(' ','automotive_design',1998,#5280
);
#5300=PRODUCT_CONTEXT('',#5280,'mechanical');
#5310=PRODUCT_DEFINITION_CONTEXT('part definition',#5280,'design');
#5320=PRODUCT('tuberessort.1','tuberessort.1','',(#5300));
#5330=PRODUCT_RELATED_PRODUCT_CATEGORY('part',' ',(#5320));
#5340=PRODUCT_DEFINITION_FORMATION_WITH_SPECIFIED_SOURCE('','',#5320,
.BOUGHT.);
#5350=PRODUCT_DEFINITION('',' ',#5340,#5310);
#5360=PRODUCT_DEFINITION_SHAPE('','',#5350);
#5370=DIMENSIONAL_EXPONENTS(1.,0.,0.,0.,0.,0.,0.);
#5380=DIMENSIONAL_EXPONENTS(0.,0.,0.,0.,0.,0.,0.);
#5390=DIMENSIONAL_EXPONENTS(0.,0.,0.,0.,0.,0.,0.);
#5400=(LENGTH_UNIT() NAMED_UNIT(*) SI_UNIT(.MILLI.,.METRE.));
#5410=(NAMED_UNIT(*) PLANE_ANGLE_UNIT() SI_UNIT($,.RADIAN.));
#5420=(NAMED_UNIT(*) SI_UNIT($,.STERADIAN.) SOLID_ANGLE_UNIT());
#5430=(GEOMETRIC_REPRESENTATION_CONTEXT(3) 
GLOBAL_UNCERTAINTY_ASSIGNED_CONTEXT((#5440)) 
GLOBAL_UNIT_ASSIGNED_CONTEXT((#5400,#5410,#5420)) REPRESENTATION_CONTEXT
('',''));
#5440=UNCERTAINTY_MEASURE_WITH_UNIT(LENGTH_MEASURE(6.1E-5),#5400,
'distance_accuracy_value','maximum gap value');
#5450=SHAPE_REPRESENTATION('',(#4900,#5260),#5430);
#5460=SHAPE_DEFINITION_REPRESENTATION(#5360,#5450);
#5470=(REPRESENTATION_RELATIONSHIP('','',#5080,#5450) 
REPRESENTATION_RELATIONSHIP_WITH_TRANSFORMATION(#5270) 
SHAPE_REPRESENTATION_RELATIONSHIP());
#5480=NEXT_ASSEMBLY_USAGE_OCCURRENCE('1','','tuberessort.1',#5350,#4980,
'');
#5490=PRODUCT_DEFINITION_SHAPE('','',#5480);
#5500=CONTEXT_DEPENDENT_SHAPE_REPRESENTATION(#5470,#5490);
ENDSEC;
END-ISO-10303-21;
