ISO-10303-21;
HEADER;
FILE_DESCRIPTION(('Creo Elements/Direct Modeling STEP Export'),'2;1');
FILE_NAME('bague_guidon.stp','2015-12-02T10:11:12',(''),(''),
'Creo Elements/Direct Modeling STEP processor for AP214 (Solid Model)',
'Creo Elements/Direct Modeling 18.1B  29-Sep-2012 (C) Parametric Technol
ogy GmbH','');
FILE_SCHEMA(('AUTOMOTIVE_DESIGN { 1 0 10303 214 1 1 1 1 }'));
ENDSEC;
DATA;
#10=CARTESIAN_POINT('',(0.,0.,20.));
#20=DIRECTION('',(0.,0.,1.));
#30=DIRECTION('',(1.,0.,0.));
#40=AXIS2_PLACEMENT_3D('',#10,#20,#30);
#50=PLANE('',#40);
#60=CARTESIAN_POINT('',(0.,0.,20.));
#70=DIRECTION('',(0.,0.,1.));
#80=DIRECTION('',(1.,0.,0.));
#90=AXIS2_PLACEMENT_3D('',#60,#70,#80);
#100=CIRCLE('',#90,10.);
#110=CARTESIAN_POINT('',(10.,0.,20.));
#120=VERTEX_POINT('',#110);
#130=CARTESIAN_POINT('',(-10.,1.22464679914735E-15,20.));
#140=VERTEX_POINT('',#130);
#150=EDGE_CURVE('',#120,#140,#100,.T.);
#160=ORIENTED_EDGE('',*,*,#150,.T.);
#170=EDGE_CURVE('',#140,#120,#100,.T.);
#180=ORIENTED_EDGE('',*,*,#170,.T.);
#190=EDGE_LOOP('',(#180,#160));
#200=FACE_OUTER_BOUND('',#190,.T.);
#210=ADVANCED_FACE('',(#200),#50,.T.);
#220=CARTESIAN_POINT('',(0.,0.,0.));
#230=DIRECTION('',(0.,0.,1.));
#240=DIRECTION('',(1.,0.,0.));
#250=AXIS2_PLACEMENT_3D('',#220,#230,#240);
#260=CYLINDRICAL_SURFACE('',#250,10.);
#270=CARTESIAN_POINT('',(10.,0.,0.));
#280=DIRECTION('',(0.,0.,1.));
#290=VECTOR('',#280,1.);
#300=LINE('',#270,#290);
#310=CARTESIAN_POINT('',(10.,0.,0.));
#320=VERTEX_POINT('',#310);
#330=EDGE_CURVE('',#320,#120,#300,.T.);
#340=ORIENTED_EDGE('',*,*,#330,.T.);
#350=CARTESIAN_POINT('',(0.,0.,0.));
#360=DIRECTION('',(0.,0.,1.));
#370=DIRECTION('',(1.,0.,0.));
#380=AXIS2_PLACEMENT_3D('',#350,#360,#370);
#390=CIRCLE('',#380,10.);
#400=CARTESIAN_POINT('',(-10.,1.22464679914735E-15,0.));
#410=VERTEX_POINT('',#400);
#420=EDGE_CURVE('',#410,#320,#390,.T.);
#430=ORIENTED_EDGE('',*,*,#420,.T.);
#440=CARTESIAN_POINT('',(-10.,1.22464679914735E-15,0.));
#450=DIRECTION('',(0.,0.,1.));
#460=VECTOR('',#450,1.);
#470=LINE('',#440,#460);
#480=EDGE_CURVE('',#410,#140,#470,.T.);
#490=ORIENTED_EDGE('',*,*,#480,.F.);
#500=ORIENTED_EDGE('',*,*,#170,.F.);
#510=EDGE_LOOP('',(#500,#490,#430,#340));
#520=FACE_OUTER_BOUND('',#510,.T.);
#530=ADVANCED_FACE('',(#520),#260,.T.);
#540=CARTESIAN_POINT('',(0.,0.,0.));
#550=DIRECTION('',(0.,0.,1.));
#560=DIRECTION('',(1.,0.,0.));
#570=AXIS2_PLACEMENT_3D('',#540,#550,#560);
#580=PLANE('',#570);
#590=EDGE_CURVE('',#320,#410,#390,.T.);
#600=ORIENTED_EDGE('',*,*,#590,.F.);
#610=ORIENTED_EDGE('',*,*,#420,.F.);
#620=EDGE_LOOP('',(#610,#600));
#630=FACE_BOUND('',#620,.T.);
#640=CARTESIAN_POINT('',(0.,0.,0.));
#650=DIRECTION('',(0.,0.,1.));
#660=DIRECTION('',(1.,0.,0.));
#670=AXIS2_PLACEMENT_3D('',#640,#650,#660);
#680=CIRCLE('',#670,15.);
#690=CARTESIAN_POINT('',(15.,0.,0.));
#700=VERTEX_POINT('',#690);
#710=CARTESIAN_POINT('',(-15.,1.83697019872103E-15,0.));
#720=VERTEX_POINT('',#710);
#730=EDGE_CURVE('',#700,#720,#680,.T.);
#740=ORIENTED_EDGE('',*,*,#730,.T.);
#750=EDGE_CURVE('',#720,#700,#680,.T.);
#760=ORIENTED_EDGE('',*,*,#750,.T.);
#770=EDGE_LOOP('',(#760,#740));
#780=FACE_OUTER_BOUND('',#770,.T.);
#790=ADVANCED_FACE('',(#630,#780),#580,.T.);
#800=CARTESIAN_POINT('',(0.,0.,-10.));
#810=DIRECTION('',(0.,0.,1.));
#820=DIRECTION('',(1.,0.,0.));
#830=AXIS2_PLACEMENT_3D('',#800,#810,#820);
#840=PLANE('',#830);
#850=CARTESIAN_POINT('',(0.,0.,-10.));
#860=DIRECTION('',(0.,0.,1.));
#870=DIRECTION('',(1.,0.,0.));
#880=AXIS2_PLACEMENT_3D('',#850,#860,#870);
#890=CIRCLE('',#880,11.);
#900=CARTESIAN_POINT('',(11.,0.,-10.));
#910=VERTEX_POINT('',#900);
#920=CARTESIAN_POINT('',(-11.,1.34711147906209E-15,-10.));
#930=VERTEX_POINT('',#920);
#940=EDGE_CURVE('',#910,#930,#890,.T.);
#950=ORIENTED_EDGE('',*,*,#940,.T.);
#960=EDGE_CURVE('',#930,#910,#890,.T.);
#970=ORIENTED_EDGE('',*,*,#960,.T.);
#980=EDGE_LOOP('',(#970,#950));
#990=FACE_BOUND('',#980,.T.);
#1000=CARTESIAN_POINT('',(0.,0.,-10.));
#1010=DIRECTION('',(0.,0.,1.));
#1020=DIRECTION('',(1.,0.,0.));
#1030=AXIS2_PLACEMENT_3D('',#1000,#1010,#1020);
#1040=CIRCLE('',#1030,15.);
#1050=CARTESIAN_POINT('',(15.,0.,-10.));
#1060=VERTEX_POINT('',#1050);
#1070=CARTESIAN_POINT('',(-15.,1.83697019872103E-15,-10.));
#1080=VERTEX_POINT('',#1070);
#1090=EDGE_CURVE('',#1060,#1080,#1040,.T.);
#1100=ORIENTED_EDGE('',*,*,#1090,.F.);
#1110=EDGE_CURVE('',#1080,#1060,#1040,.T.);
#1120=ORIENTED_EDGE('',*,*,#1110,.F.);
#1130=EDGE_LOOP('',(#1120,#1100));
#1140=FACE_OUTER_BOUND('',#1130,.T.);
#1150=ADVANCED_FACE('',(#990,#1140),#840,.F.);
#1160=CARTESIAN_POINT('',(0.,0.,0.));
#1170=DIRECTION('',(0.,0.,1.));
#1180=DIRECTION('',(1.,0.,0.));
#1190=AXIS2_PLACEMENT_3D('',#1160,#1170,#1180);
#1200=CYLINDRICAL_SURFACE('',#1190,15.);
#1210=CARTESIAN_POINT('',(15.,0.,0.));
#1220=DIRECTION('',(0.,0.,1.));
#1230=VECTOR('',#1220,1.);
#1240=LINE('',#1210,#1230);
#1250=EDGE_CURVE('',#1060,#700,#1240,.T.);
#1260=ORIENTED_EDGE('',*,*,#1250,.T.);
#1270=ORIENTED_EDGE('',*,*,#1110,.T.);
#1280=CARTESIAN_POINT('',(-15.,1.83697019872103E-15,0.));
#1290=DIRECTION('',(0.,0.,1.));
#1300=VECTOR('',#1290,1.);
#1310=LINE('',#1280,#1300);
#1320=EDGE_CURVE('',#1080,#720,#1310,.T.);
#1330=ORIENTED_EDGE('',*,*,#1320,.F.);
#1340=ORIENTED_EDGE('',*,*,#750,.F.);
#1350=EDGE_LOOP('',(#1340,#1330,#1270,#1260));
#1360=FACE_OUTER_BOUND('',#1350,.T.);
#1370=ADVANCED_FACE('',(#1360),#1200,.T.);
#1380=CARTESIAN_POINT('',(0.,0.,-30.));
#1390=DIRECTION('',(0.,0.,1.));
#1400=DIRECTION('',(1.,0.,0.));
#1410=AXIS2_PLACEMENT_3D('',#1380,#1390,#1400);
#1420=PLANE('',#1410);
#1430=CARTESIAN_POINT('',(0.,0.,-30.));
#1440=DIRECTION('',(0.,0.,1.));
#1450=DIRECTION('',(1.,0.,0.));
#1460=AXIS2_PLACEMENT_3D('',#1430,#1440,#1450);
#1470=CIRCLE('',#1460,11.);
#1480=CARTESIAN_POINT('',(11.,0.,-30.));
#1490=VERTEX_POINT('',#1480);
#1500=CARTESIAN_POINT('',(-11.,1.34711147906209E-15,-30.));
#1510=VERTEX_POINT('',#1500);
#1520=EDGE_CURVE('',#1490,#1510,#1470,.T.);
#1530=ORIENTED_EDGE('',*,*,#1520,.F.);
#1540=EDGE_CURVE('',#1510,#1490,#1470,.T.);
#1550=ORIENTED_EDGE('',*,*,#1540,.F.);
#1560=EDGE_LOOP('',(#1550,#1530));
#1570=FACE_OUTER_BOUND('',#1560,.T.);
#1580=ADVANCED_FACE('',(#1570),#1420,.F.);
#1590=CARTESIAN_POINT('',(0.,0.,-10.));
#1600=DIRECTION('',(0.,0.,1.));
#1610=DIRECTION('',(1.,0.,0.));
#1620=AXIS2_PLACEMENT_3D('',#1590,#1600,#1610);
#1630=CYLINDRICAL_SURFACE('',#1620,11.);
#1640=CARTESIAN_POINT('',(11.,0.,-10.));
#1650=DIRECTION('',(0.,0.,1.));
#1660=VECTOR('',#1650,1.);
#1670=LINE('',#1640,#1660);
#1680=EDGE_CURVE('',#1490,#910,#1670,.T.);
#1690=ORIENTED_EDGE('',*,*,#1680,.T.);
#1700=ORIENTED_EDGE('',*,*,#1540,.T.);
#1710=CARTESIAN_POINT('',(-11.,1.34711147906209E-15,-10.));
#1720=DIRECTION('',(0.,0.,1.));
#1730=VECTOR('',#1720,1.);
#1740=LINE('',#1710,#1730);
#1750=EDGE_CURVE('',#1510,#930,#1740,.T.);
#1760=ORIENTED_EDGE('',*,*,#1750,.F.);
#1770=ORIENTED_EDGE('',*,*,#960,.F.);
#1780=EDGE_LOOP('',(#1770,#1760,#1700,#1690));
#1790=FACE_OUTER_BOUND('',#1780,.T.);
#1800=ADVANCED_FACE('',(#1790),#1630,.T.);
#1810=CARTESIAN_POINT('',(0.,0.,-10.));
#1820=DIRECTION('',(0.,0.,1.));
#1830=DIRECTION('',(1.,0.,0.));
#1840=AXIS2_PLACEMENT_3D('',#1810,#1820,#1830);
#1850=CYLINDRICAL_SURFACE('',#1840,11.);
#1860=ORIENTED_EDGE('',*,*,#940,.F.);
#1870=ORIENTED_EDGE('',*,*,#1750,.T.);
#1880=ORIENTED_EDGE('',*,*,#1520,.T.);
#1890=ORIENTED_EDGE('',*,*,#1680,.F.);
#1900=EDGE_LOOP('',(#1890,#1880,#1870,#1860));
#1910=FACE_OUTER_BOUND('',#1900,.T.);
#1920=ADVANCED_FACE('',(#1910),#1850,.T.);
#1930=CARTESIAN_POINT('',(0.,0.,0.));
#1940=DIRECTION('',(0.,0.,1.));
#1950=DIRECTION('',(1.,0.,0.));
#1960=AXIS2_PLACEMENT_3D('',#1930,#1940,#1950);
#1970=CYLINDRICAL_SURFACE('',#1960,15.);
#1980=ORIENTED_EDGE('',*,*,#730,.F.);
#1990=ORIENTED_EDGE('',*,*,#1320,.T.);
#2000=ORIENTED_EDGE('',*,*,#1090,.T.);
#2010=ORIENTED_EDGE('',*,*,#1250,.F.);
#2020=EDGE_LOOP('',(#2010,#2000,#1990,#1980));
#2030=FACE_OUTER_BOUND('',#2020,.T.);
#2040=ADVANCED_FACE('',(#2030),#1970,.T.);
#2050=CARTESIAN_POINT('',(0.,0.,0.));
#2060=DIRECTION('',(0.,0.,1.));
#2070=DIRECTION('',(1.,0.,0.));
#2080=AXIS2_PLACEMENT_3D('',#2050,#2060,#2070);
#2090=CYLINDRICAL_SURFACE('',#2080,10.);
#2100=ORIENTED_EDGE('',*,*,#150,.F.);
#2110=ORIENTED_EDGE('',*,*,#480,.T.);
#2120=ORIENTED_EDGE('',*,*,#590,.T.);
#2130=ORIENTED_EDGE('',*,*,#330,.F.);
#2140=EDGE_LOOP('',(#2130,#2120,#2110,#2100));
#2150=FACE_OUTER_BOUND('',#2140,.T.);
#2160=ADVANCED_FACE('',(#2150),#2090,.T.);
#2170=CLOSED_SHELL('',(#530,#790,#1150,#1370,#1580,#1800,#1920,#2040,
#2160,#210));
#2180=MANIFOLD_SOLID_BREP('',#2170);
#2190=CARTESIAN_POINT('',(0.,0.,0.));
#2200=DIRECTION('',(0.,0.,1.));
#2210=DIRECTION('',(1.,0.,0.));
#2220=AXIS2_PLACEMENT_3D('',#2190,#2200,#2210);
#2230=APPLICATION_CONTEXT(' ');
#2240=APPLICATION_PROTOCOL_DEFINITION(' ','automotive_design',1998,#2230
);
#2250=PRODUCT_CONTEXT('',#2230,'mechanical');
#2260=PRODUCT_DEFINITION_CONTEXT('part definition',#2230,'design');
#2270=PRODUCT('bagueguidon','bagueguidon','',(#2250));
#2280=PRODUCT_RELATED_PRODUCT_CATEGORY('part',' ',(#2270));
#2290=PRODUCT_DEFINITION_FORMATION_WITH_SPECIFIED_SOURCE('','',#2270,
.BOUGHT.);
#2300=PRODUCT_DEFINITION('',' ',#2290,#2260);
#2310=PRODUCT_DEFINITION_SHAPE('','',#2300);
#2320=DIMENSIONAL_EXPONENTS(1.,0.,0.,0.,0.,0.,0.);
#2330=DIMENSIONAL_EXPONENTS(0.,0.,0.,0.,0.,0.,0.);
#2340=DIMENSIONAL_EXPONENTS(0.,0.,0.,0.,0.,0.,0.);
#2350=(LENGTH_UNIT() NAMED_UNIT(*) SI_UNIT(.MILLI.,.METRE.));
#2360=(NAMED_UNIT(*) PLANE_ANGLE_UNIT() SI_UNIT($,.RADIAN.));
#2370=(NAMED_UNIT(*) SI_UNIT($,.STERADIAN.) SOLID_ANGLE_UNIT());
#2380=(GEOMETRIC_REPRESENTATION_CONTEXT(3) 
GLOBAL_UNCERTAINTY_ASSIGNED_CONTEXT((#2390)) 
GLOBAL_UNIT_ASSIGNED_CONTEXT((#2350,#2360,#2370)) REPRESENTATION_CONTEXT
('',''));
#2390=UNCERTAINTY_MEASURE_WITH_UNIT(LENGTH_MEASURE(1.E-6),#2350,
'distance_accuracy_value','maximum gap value');
#2400=ADVANCED_BREP_SHAPE_REPRESENTATION('',(#2220,#2180),#2380);
#2410=SHAPE_DEFINITION_REPRESENTATION(#2310,#2400);
#2420=COLOUR_RGB('',0.600000023841858,0.600000023841858,
0.600000023841858);
#2430=FILL_AREA_STYLE_COLOUR('',#2420);
#2440=FILL_AREA_STYLE('',(#2430));
#2450=SURFACE_STYLE_FILL_AREA(#2440);
#2460=SURFACE_SIDE_STYLE('',(#2450));
#2470=SURFACE_STYLE_USAGE(.BOTH.,#2460);
#2480=PRESENTATION_STYLE_ASSIGNMENT((#2470));
#2490=STYLED_ITEM('',(#2480),#2180);
#2500=DRAUGHTING_MODEL('',(#2490),#2380);
ENDSEC;
END-ISO-10303-21;
