ISO-10303-21;
HEADER;
FILE_DESCRIPTION (( 'STEP AP203' ),
    '1' );
FILE_NAME ('emporte pièce 5.STEP',
    '2015-11-23T19:29:16',
    ( '' ),
    ( '' ),
    'SwSTEP 2.0',
    'SolidWorks 2010',
    '' );
FILE_SCHEMA (( 'CONFIG_CONTROL_DESIGN' ));
ENDSEC;

DATA;
#1 = VERTEX_POINT ( 'NONE', #196 ) ;
#2 = EDGE_CURVE ( 'NONE', #161, #1, #202, .T. ) ;
#3 = ORIENTED_EDGE ( 'NONE', *, *, #9, .F. ) ;
#4 = EDGE_CURVE ( 'NONE', #147, #150, #188, .T. ) ;
#5 = ORIENTED_EDGE ( 'NONE', *, *, #9, .T. ) ;
#6 = ADVANCED_FACE ( 'NONE', ( #225 ), #211, .T. ) ;
#7 = EDGE_CURVE ( 'NONE', #11, #147, #220, .T. ) ;
#8 = EDGE_LOOP ( 'NONE', ( #10, #12, #13, #5 ) ) ;
#9 = EDGE_CURVE ( 'NONE', #1, #147, #224, .T. ) ;
#10 = ORIENTED_EDGE ( 'NONE', *, *, #7, .F. ) ;
#11 = VERTEX_POINT ( 'NONE', #209 ) ;
#12 = ORIENTED_EDGE ( 'NONE', *, *, #18, .F. ) ;
#13 = ORIENTED_EDGE ( 'NONE', *, *, #14, .T. ) ;
#14 = EDGE_CURVE ( 'NONE', #16, #1, #214, .T. ) ;
#15 = ADVANCED_FACE ( 'NONE', ( #195, #204, #182 ), #180, .T. ) ;
#16 = VERTEX_POINT ( 'NONE', #183 ) ;
#17 = EDGE_LOOP ( 'NONE', ( #20, #22 ) ) ;
#18 = EDGE_CURVE ( 'NONE', #16, #11, #82, .T. ) ;
#19 = ORIENTED_EDGE ( 'NONE', *, *, #34, .F. ) ;
#20 = ORIENTED_EDGE ( 'NONE', *, *, #29, .F. ) ;
#21 = ORIENTED_EDGE ( 'NONE', *, *, #162, .F. ) ;
#22 = ORIENTED_EDGE ( 'NONE', *, *, #54, .F. ) ;
#23 = ORIENTED_EDGE ( 'NONE', *, *, #7, .T. ) ;
#24 = ORIENTED_EDGE ( 'NONE', *, *, #145, .F. ) ;
#25 = EDGE_LOOP ( 'NONE', ( #28, #43, #35, #21 ) ) ;
#26 = ADVANCED_FACE ( 'NONE', ( #63 ), #205, .F. ) ;
#27 = EDGE_LOOP ( 'NONE', ( #39, #47, #46, #51 ) ) ;
#28 = ORIENTED_EDGE ( 'NONE', *, *, #30, .T. ) ;
#29 = EDGE_CURVE ( 'NONE', #73, #77, #87, .T. ) ;
#30 = EDGE_CURVE ( 'NONE', #148, #16, #59, .T. ) ;
#31 = EDGE_LOOP ( 'NONE', ( #36, #42, #23, #32 ) ) ;
#32 = ORIENTED_EDGE ( 'NONE', *, *, #4, .T. ) ;
#33 = ADVANCED_FACE ( 'NONE', ( #282 ), #279, .F. ) ;
#34 = EDGE_CURVE ( 'NONE', #177, #140, #310, .T. ) ;
#35 = ORIENTED_EDGE ( 'NONE', *, *, #37, .F. ) ;
#36 = ORIENTED_EDGE ( 'NONE', *, *, #153, .T. ) ;
#37 = EDGE_CURVE ( 'NONE', #127, #11, #241, .T. ) ;
#38 = ORIENTED_EDGE ( 'NONE', *, *, #135, .F. ) ;
#39 = ORIENTED_EDGE ( 'NONE', *, *, #2, .T. ) ;
#40 = ADVANCED_FACE ( 'NONE', ( #263 ), #259, .F. ) ;
#41 = EDGE_LOOP ( 'NONE', ( #45, #38, #48, #71 ) ) ;
#42 = ORIENTED_EDGE ( 'NONE', *, *, #37, .T. ) ;
#43 = ORIENTED_EDGE ( 'NONE', *, *, #18, .T. ) ;
#44 = EDGE_LOOP ( 'NONE', ( #70, #50, #52, #68 ) ) ;
#45 = ORIENTED_EDGE ( 'NONE', *, *, #163, .F. ) ;
#46 = ORIENTED_EDGE ( 'NONE', *, *, #30, .F. ) ;
#47 = ORIENTED_EDGE ( 'NONE', *, *, #14, .F. ) ;
#48 = ORIENTED_EDGE ( 'NONE', *, *, #128, .T. ) ;
#49 = ADVANCED_FACE ( 'NONE', ( #309 ), #242, .F. ) ;
#50 = ORIENTED_EDGE ( 'NONE', *, *, #151, .F. ) ;
#51 = ORIENTED_EDGE ( 'NONE', *, *, #126, .T. ) ;
#52 = ORIENTED_EDGE ( 'NONE', *, *, #173, .T. ) ;
#53 = EDGE_LOOP ( 'NONE', ( #56, #76, #72, #67 ) ) ;
#54 = EDGE_CURVE ( 'NONE', #77, #73, #272, .T. ) ;
#55 = VERTEX_POINT ( 'NONE', #315 ) ;
#56 = ORIENTED_EDGE ( 'NONE', *, *, #65, .F. ) ;
#57 = VERTEX_POINT ( 'NONE', #243 ) ;
#58 = ADVANCED_FACE ( 'NONE', ( #296 ), #254, .F. ) ;
#59 = LINE ( 'NONE', #60, #66 ) ;
#60 = CARTESIAN_POINT ( 'NONE',  ( 14.99999999999999600, 0.0000000000000000000, -60.00000000000000000 ) ) ;
#61 = EDGE_CURVE ( 'NONE', #57, #77, #255, .T. ) ;
#62 = CC_DESIGN_PERSON_AND_ORGANIZATION_ASSIGNMENT ( #369, #64, ( #372 ) ) ;
#63 = FACE_OUTER_BOUND ( 'NONE', #27, .T. ) ;
#64 = PERSON_AND_ORGANIZATION_ROLE ( 'design_owner' ) ;
#65 = EDGE_CURVE ( 'NONE', #57, #55, #308, .T. ) ;
#66 = VECTOR ( 'NONE', #74, 1000.000000000000100 ) ;
#67 = ORIENTED_EDGE ( 'NONE', *, *, #173, .F. ) ;
#68 = ORIENTED_EDGE ( 'NONE', *, *, #29, .T. ) ;
#69 = CLOSED_SHELL ( 'NONE', ( #58, #123, #149, #169, #6, #15, #33, #26, #49, #40 ) ) ;
#70 = ORIENTED_EDGE ( 'NONE', *, *, #61, .F. ) ;
#71 = ORIENTED_EDGE ( 'NONE', *, *, #34, .T. ) ;
#72 = ORIENTED_EDGE ( 'NONE', *, *, #54, .T. ) ;
#73 = VERTEX_POINT ( 'NONE', #266 ) ;
#74 = DIRECTION ( 'NONE',  ( 0.7071067811865474600, -0.0000000000000000000, -0.7071067811865474600 ) ) ;
#75 = MANIFOLD_SOLID_BREP ( 'Enlèv. mat.-Extru.2', #69 ) ;
#76 = ORIENTED_EDGE ( 'NONE', *, *, #61, .T. ) ;
#77 = VERTEX_POINT ( 'NONE', #253 ) ;
#78 = CALENDAR_DATE ( 2015, 23, 11 ) ;
#79 = DIRECTION ( 'NONE',  ( 0.0000000000000000000, 0.0000000000000000000, 1.000000000000000000 ) ) ;
#80 = VECTOR ( 'NONE', #79, 1000.000000000000000 ) ;
#81 = CARTESIAN_POINT ( 'NONE',  ( 15.00000000000000000, 0.0000000000000000000, -60.00000000000000000 ) ) ;
#82 = LINE ( 'NONE', #81, #80 ) ;
#83 = APPROVAL_DATE_TIME ( #84, #133 ) ;
#84 = DATE_AND_TIME ( #78, #129 ) ;
#85 = CC_DESIGN_APPROVAL ( #133, ( #166 ) ) ;
#86 = DIRECTION ( 'NONE',  ( 0.0000000000000000000, -1.000000000000000000, 0.0000000000000000000 ) ) ;
#87 = CIRCLE ( 'NONE', #89, 4.000000000000003600 ) ;
#88 = DIRECTION ( 'NONE',  ( 0.0000000000000000000, 0.0000000000000000000, -1.000000000000000000 ) ) ;
#89 = AXIS2_PLACEMENT_3D ( 'NONE', #90, #86, #88 ) ;
#90 = CARTESIAN_POINT ( 'NONE',  ( 7.499999999999996400, 0.0000000000000000000, -40.00000000000000000 ) ) ;
#91 = AXIS2_PLACEMENT_3D ( 'NONE', #94, #95, #92 ) ;
#92 = DIRECTION ( 'NONE',  ( 0.0000000000000000000, 0.0000000000000000000, -1.000000000000000000 ) ) ;
#93 = CIRCLE ( 'NONE', #91, 4.000000000000003600 ) ;
#94 = CARTESIAN_POINT ( 'NONE',  ( 7.499999999999996400, 15.00000000000000000, -40.00000000000000000 ) ) ;
#95 = DIRECTION ( 'NONE',  ( 0.0000000000000000000, -1.000000000000000000, 0.0000000000000000000 ) ) ;
#96 = SECURITY_CLASSIFICATION ( '', '', #121 ) ;
#97 = CC_DESIGN_SECURITY_CLASSIFICATION ( #96, ( #302 ) ) ;
#98 = PERSON_AND_ORGANIZATION ( #371, #370 ) ;
#99 = CC_DESIGN_PERSON_AND_ORGANIZATION_ASSIGNMENT ( #98, #101, ( #96 ) ) ;
#100 = PERSON_AND_ORGANIZATION ( #371, #370 ) ;
#101 = PERSON_AND_ORGANIZATION_ROLE ( 'classification_officer' ) ;
#102 = CC_DESIGN_APPROVAL ( #110, ( #96 ) ) ;
#103 = APPROVAL_DATE_TIME ( #104, #110 ) ;
#104 = DATE_AND_TIME ( #118, #119 ) ;
#105 = SHAPE_DEFINITION_REPRESENTATION ( #114, #368 ) ;
#106 = PRODUCT_RELATED_PRODUCT_CATEGORY ( 'detail', '', ( #372 ) ) ;
#107 = CALENDAR_DATE ( 2015, 23, 11 ) ;
#108 = CC_DESIGN_DATE_AND_TIME_ASSIGNMENT ( #113, #112, ( #96 ) ) ;
#109 = COORDINATED_UNIVERSAL_TIME_OFFSET ( 1, 0, .AHEAD. ) ;
#110 = APPROVAL ( #111, 'UNSPECIFIED' ) ;
#111 = APPROVAL_STATUS ( 'not_yet_approved' ) ;
#112 = DATE_TIME_ROLE ( 'classification_date' ) ;
#113 = DATE_AND_TIME ( #107, #117 ) ;
#114 = PRODUCT_DEFINITION_SHAPE ( 'NONE', 'NONE',  #166 ) ;
#115 = APPROVAL_PERSON_ORGANIZATION ( #100, #110, #116 ) ;
#116 = APPROVAL_ROLE ( '' ) ;
#117 = LOCAL_TIME ( 20, 29, 16.00000000000000000, #109 ) ;
#118 = CALENDAR_DATE ( 2015, 23, 11 ) ;
#119 = LOCAL_TIME ( 20, 29, 16.00000000000000000, #120 ) ;
#120 = COORDINATED_UNIVERSAL_TIME_OFFSET ( 1, 0, .AHEAD. ) ;
#121 = SECURITY_CLASSIFICATION_LEVEL ( 'unclassified' ) ;
#122 = ORIENTED_EDGE ( 'NONE', *, *, #128, .F. ) ;
#123 = ADVANCED_FACE ( 'NONE', ( #277 ), #314, .F. ) ;
#124 = EDGE_LOOP ( 'NONE', ( #144, #178, #167, #122 ) ) ;
#125 = EDGE_LOOP ( 'NONE', ( #160, #139, #146, #152 ) ) ;
#126 = EDGE_CURVE ( 'NONE', #148, #161, #262, .T. ) ;
#127 = VERTEX_POINT ( 'NONE', #313 ) ;
#128 = EDGE_CURVE ( 'NONE', #174, #177, #300, .T. ) ;
#129 = LOCAL_TIME ( 20, 29, 16.00000000000000000, #130 ) ;
#130 = COORDINATED_UNIVERSAL_TIME_OFFSET ( 1, 0, .AHEAD. ) ;
#131 = APPROVAL_PERSON_ORGANIZATION ( #165, #133, #132 ) ;
#132 = APPROVAL_ROLE ( '' ) ;
#133 = APPROVAL ( #171, 'UNSPECIFIED' ) ;
#134 = DESIGN_CONTEXT ( 'detailed design', #156, 'design' ) ;
#135 = EDGE_CURVE ( 'NONE', #174, #155, #269, .T. ) ;
#136 = ORIENTED_EDGE ( 'NONE', *, *, #170, .T. ) ;
#137 = EDGE_LOOP ( 'NONE', ( #164, #136, #175, #3 ) ) ;
#138 = ORIENTED_EDGE ( 'NONE', *, *, #179, .T. ) ;
#139 = ORIENTED_EDGE ( 'NONE', *, *, #162, .T. ) ;
#140 = VERTEX_POINT ( 'NONE', #312 ) ;
#141 = CARTESIAN_POINT ( 'NONE',  ( 0.0000000000000000000, 0.0000000000000000000, -60.00000000000000000 ) ) ;
#142 = DIRECTION ( 'NONE',  ( 0.0000000000000000000, -0.0000000000000000000, -1.000000000000000000 ) ) ;
#143 = DIRECTION ( 'NONE',  ( 0.0000000000000000000, -1.000000000000000000, 0.0000000000000000000 ) ) ;
#144 = ORIENTED_EDGE ( 'NONE', *, *, #179, .F. ) ;
#145 = EDGE_CURVE ( 'NONE', #140, #177, #298, .T. ) ;
#146 = ORIENTED_EDGE ( 'NONE', *, *, #153, .F. ) ;
#147 = VERTEX_POINT ( 'NONE', #293 ) ;
#148 = VERTEX_POINT ( 'NONE', #288 ) ;
#149 = ADVANCED_FACE ( 'NONE', ( #292 ), #318, .T. ) ;
#150 = VERTEX_POINT ( 'NONE', #232 ) ;
#151 = EDGE_CURVE ( 'NONE', #55, #57, #93, .T. ) ;
#152 = ORIENTED_EDGE ( 'NONE', *, *, #170, .F. ) ;
#153 = EDGE_CURVE ( 'NONE', #150, #127, #332, .T. ) ;
#154 = EDGE_LOOP ( 'NONE', ( #19, #24 ) ) ;
#155 = VERTEX_POINT ( 'NONE', #337 ) ;
#156 = APPLICATION_CONTEXT ( 'configuration controlled 3d designs of mechanical parts and assemblies' ) ;
#157 = EDGE_LOOP ( 'NONE', ( #181, #158 ) ) ;
#158 = ORIENTED_EDGE ( 'NONE', *, *, #65, .T. ) ;
#159 = EDGE_LOOP ( 'NONE', ( #168, #138 ) ) ;
#160 = ORIENTED_EDGE ( 'NONE', *, *, #126, .F. ) ;
#161 = VERTEX_POINT ( 'NONE', #357 ) ;
#162 = EDGE_CURVE ( 'NONE', #148, #127, #374, .T. ) ;
#163 = EDGE_CURVE ( 'NONE', #155, #140, #361, .T. ) ;
#164 = ORIENTED_EDGE ( 'NONE', *, *, #2, .F. ) ;
#165 = PERSON_AND_ORGANIZATION ( #371, #370 ) ;
#166 = PRODUCT_DEFINITION ( 'UNKNOWN', '', #302, #134 ) ;
#167 = ORIENTED_EDGE ( 'NONE', *, *, #145, .T. ) ;
#168 = ORIENTED_EDGE ( 'NONE', *, *, #135, .T. ) ;
#169 = ADVANCED_FACE ( 'NONE', ( #364, #360, #375 ), #341, .T. ) ;
#170 = EDGE_CURVE ( 'NONE', #161, #150, #358, .T. ) ;
#171 = APPROVAL_STATUS ( 'not_yet_approved' ) ;
#172 = APPLICATION_PROTOCOL_DEFINITION ( 'international standard', 'config_control_design', 1994, #156 ) ;
#173 = EDGE_CURVE ( 'NONE', #55, #73, #380, .T. ) ;
#174 = VERTEX_POINT ( 'NONE', #334 ) ;
#175 = ORIENTED_EDGE ( 'NONE', *, *, #4, .F. ) ;
#176 = AXIS2_PLACEMENT_3D ( 'NONE', #141, #143, #142 ) ;
#177 = VERTEX_POINT ( 'NONE', #382 ) ;
#178 = ORIENTED_EDGE ( 'NONE', *, *, #163, .T. ) ;
#179 = EDGE_CURVE ( 'NONE', #155, #174, #354, .T. ) ;
#180 = PLANE ( 'NONE',  #176 ) ;
#181 = ORIENTED_EDGE ( 'NONE', *, *, #151, .T. ) ;
#182 = FACE_OUTER_BOUND ( 'NONE', #25, .T. ) ;
#183 = CARTESIAN_POINT ( 'NONE',  ( 14.99999999999999600, 0.0000000000000000000, -60.00000000000000000 ) ) ;
#184 = COORDINATED_UNIVERSAL_TIME_OFFSET ( 1, 0, .AHEAD. ) ;
#185 = DIRECTION ( 'NONE',  ( -1.000000000000000000, -0.0000000000000000000, -0.0000000000000000000 ) ) ;
#186 = VECTOR ( 'NONE', #185, 1000.000000000000000 ) ;
#187 = CARTESIAN_POINT ( 'NONE',  ( -3.469446951953614200E-015, 15.00000000000000000, 0.0000000000000000000 ) ) ;
#188 = LINE ( 'NONE', #187, #186 ) ;
#189 = CC_DESIGN_PERSON_AND_ORGANIZATION_ASSIGNMENT ( #203, #190, ( #166 ) ) ;
#190 = PERSON_AND_ORGANIZATION_ROLE ( 'creator' ) ;
#191 = DIRECTION ( 'NONE',  ( 0.7071067811865474600, 0.0000000000000000000, -0.7071067811865474600 ) ) ;
#192 = DIRECTION ( 'NONE',  ( 0.7071067811865475700, 0.0000000000000000000, 0.7071067811865475700 ) ) ;
#193 = CARTESIAN_POINT ( 'NONE',  ( 14.99999999999999600, 0.0000000000000000000, -60.00000000000000000 ) ) ;
#194 = AXIS2_PLACEMENT_3D ( 'NONE', #193, #192, #191 ) ;
#195 = FACE_BOUND ( 'NONE', #17, .T. ) ;
#196 = CARTESIAN_POINT ( 'NONE',  ( 14.99999999999999600, 15.00000000000000000, -60.00000000000000000 ) ) ;
#197 = CC_DESIGN_DATE_AND_TIME_ASSIGNMENT ( #199, #198, ( #166 ) ) ;
#198 = DATE_TIME_ROLE ( 'creation_date' ) ;
#199 = DATE_AND_TIME ( #200, #201 ) ;
#200 = CALENDAR_DATE ( 2015, 23, 11 ) ;
#201 = LOCAL_TIME ( 20, 29, 16.00000000000000000, #184 ) ;
#202 = LINE ( 'NONE', #208, #207 ) ;
#203 = PERSON_AND_ORGANIZATION ( #371, #370 ) ;
#204 = FACE_BOUND ( 'NONE', #154, .T. ) ;
#205 = PLANE ( 'NONE',  #194 ) ;
#206 = DIRECTION ( 'NONE',  ( 0.7071067811865474600, -0.0000000000000000000, -0.7071067811865474600 ) ) ;
#207 = VECTOR ( 'NONE', #206, 1000.000000000000100 ) ;
#208 = CARTESIAN_POINT ( 'NONE',  ( 14.99999999999999600, 15.00000000000000000, -60.00000000000000000 ) ) ;
#209 = CARTESIAN_POINT ( 'NONE',  ( 15.00000000000000000, 0.0000000000000000000, 0.0000000000000000000 ) ) ;
#210 = DIRECTION ( 'NONE',  ( -2.312964634635743000E-016, 1.000000000000000000, 0.0000000000000000000 ) ) ;
#211 = PLANE ( 'NONE',  #222 ) ;
#212 = DIRECTION ( 'NONE',  ( -2.312964634635743000E-016, 1.000000000000000000, 0.0000000000000000000 ) ) ;
#213 = CARTESIAN_POINT ( 'NONE',  ( 15.00000000000000000, 0.0000000000000000000, -60.00000000000000000 ) ) ;
#214 = LINE ( 'NONE', #213, #221 ) ;
#215 = DIRECTION ( 'NONE',  ( 1.000000000000000000, 2.312964634635743000E-016, -0.0000000000000000000 ) ) ;
#216 = DIRECTION ( 'NONE',  ( -2.312964634635743000E-016, 1.000000000000000000, 0.0000000000000000000 ) ) ;
#217 = VECTOR ( 'NONE', #216, 1000.000000000000000 ) ;
#218 = CARTESIAN_POINT ( 'NONE',  ( 15.00000000000000000, 0.0000000000000000000, -60.00000000000000000 ) ) ;
#219 = CARTESIAN_POINT ( 'NONE',  ( 15.00000000000000000, 0.0000000000000000000, 0.0000000000000000000 ) ) ;
#220 = LINE ( 'NONE', #219, #217 ) ;
#221 = VECTOR ( 'NONE', #212, 1000.000000000000000 ) ;
#222 = AXIS2_PLACEMENT_3D ( 'NONE', #218, #215, #210 ) ;
#223 = CARTESIAN_POINT ( 'NONE',  ( 14.99999999999999600, 15.00000000000000000, -60.00000000000000000 ) ) ;
#224 = LINE ( 'NONE', #223, #227 ) ;
#225 = FACE_OUTER_BOUND ( 'NONE', #8, .T. ) ;
#226 = DIRECTION ( 'NONE',  ( 0.0000000000000000000, 0.0000000000000000000, 1.000000000000000000 ) ) ;
#227 = VECTOR ( 'NONE', #226, 1000.000000000000000 ) ;
#228 = VECTOR ( 'NONE', #297, 1000.000000000000000 ) ;
#229 = AXIS2_PLACEMENT_3D ( 'NONE', #295, #294, #250 ) ;
#230 = DATE_AND_TIME ( #325, #231 ) ;
#231 = LOCAL_TIME ( 20, 29, 16.00000000000000000, #285 ) ;
#232 = CARTESIAN_POINT ( 'NONE',  ( -3.469446951953614200E-015, 15.00000000000000000, 0.0000000000000000000 ) ) ;
#233 = DIRECTION ( 'NONE',  ( 0.0000000000000000000, 0.0000000000000000000, -1.000000000000000000 ) ) ;
#234 = AXIS2_PLACEMENT_3D ( 'NONE', #316, #287, #233 ) ;
#235 = DIRECTION ( 'NONE',  ( -1.000000000000000000, 0.0000000000000000000, -0.0000000000000000000 ) ) ;
#236 = CARTESIAN_POINT ( 'NONE',  ( 0.0000000000000000000, 0.0000000000000000000, 0.0000000000000000000 ) ) ;
#237 = DIRECTION ( 'NONE',  ( -0.0000000000000000000, -1.000000000000000000, -0.0000000000000000000 ) ) ;
#238 = APPROVAL_STATUS ( 'not_yet_approved' ) ;
#239 = PERSON_AND_ORGANIZATION ( #371, #370 ) ;
#240 = DIRECTION ( 'NONE',  ( -0.0000000000000000000, 1.000000000000000000, -0.0000000000000000000 ) ) ;
#241 = LINE ( 'NONE', #236, #228 ) ;
#242 = CYLINDRICAL_SURFACE ( 'NONE', #229, 4.000000000000000000 ) ;
#243 = CARTESIAN_POINT ( 'NONE',  ( 7.499999999999997300, 15.00000000000000000, -36.00000000000000000 ) ) ;
#244 = CARTESIAN_POINT ( 'NONE',  ( 7.499999999999996400, 15.00000000000000000, -40.00000000000000000 ) ) ;
#245 = DIRECTION ( 'NONE',  ( 0.0000000000000000000, 0.0000000000000000000, -1.000000000000000000 ) ) ;
#246 = DIRECTION ( 'NONE',  ( 0.0000000000000000000, -1.000000000000000000, 0.0000000000000000000 ) ) ;
#247 = AXIS2_PLACEMENT_3D ( 'NONE', #249, #246, #245 ) ;
#248 = DIRECTION ( 'NONE',  ( 0.0000000000000000000, 0.0000000000000000000, -1.000000000000000000 ) ) ;
#249 = CARTESIAN_POINT ( 'NONE',  ( 7.499999999999996400, 0.0000000000000000000, -40.00000000000000000 ) ) ;
#250 = DIRECTION ( 'NONE',  ( 0.0000000000000000000, 0.0000000000000000000, -1.000000000000000000 ) ) ;
#251 = CARTESIAN_POINT ( 'NONE',  ( 7.499999999999996400, 15.00000000000000000, -40.00000000000000000 ) ) ;
#252 = DIRECTION ( 'NONE',  ( 0.0000000000000000000, 0.0000000000000000000, -1.000000000000000000 ) ) ;
#253 = CARTESIAN_POINT ( 'NONE',  ( 7.499999999999997300, 0.0000000000000000000, -36.00000000000000000 ) ) ;
#254 = CYLINDRICAL_SURFACE ( 'NONE', #319, 4.000000000000003600 ) ;
#255 = LINE ( 'NONE', #306, #305 ) ;
#256 = AXIS2_PLACEMENT_3D ( 'NONE', #244, #268, #267 ) ;
#257 = CARTESIAN_POINT ( 'NONE',  ( -3.469446951953614200E-015, 15.00000000000000000, 0.0000000000000000000 ) ) ;
#258 = DIRECTION ( 'NONE',  ( 0.0000000000000000000, 0.0000000000000000000, -1.000000000000000000 ) ) ;
#259 = CYLINDRICAL_SURFACE ( 'NONE', #307, 4.000000000000003600 ) ;
#260 = DIRECTION ( 'NONE',  ( 0.0000000000000000000, 0.0000000000000000000, -1.000000000000000000 ) ) ;
#261 = DIRECTION ( 'NONE',  ( -0.0000000000000000000, -1.000000000000000000, -0.0000000000000000000 ) ) ;
#262 = LINE ( 'NONE', #280, #284 ) ;
#263 = FACE_OUTER_BOUND ( 'NONE', #44, .T. ) ;
#264 = DIRECTION ( 'NONE',  ( -0.0000000000000000000, -1.000000000000000000, -0.0000000000000000000 ) ) ;
#265 = VECTOR ( 'NONE', #264, 1000.000000000000000 ) ;
#266 = CARTESIAN_POINT ( 'NONE',  ( 7.499999999999996400, 0.0000000000000000000, -44.00000000000000700 ) ) ;
#267 = DIRECTION ( 'NONE',  ( 0.0000000000000000000, 0.0000000000000000000, -1.000000000000000000 ) ) ;
#268 = DIRECTION ( 'NONE',  ( 0.0000000000000000000, -1.000000000000000000, 0.0000000000000000000 ) ) ;
#269 = CIRCLE ( 'NONE', #286, 4.000000000000000000 ) ;
#270 = AXIS2_PLACEMENT_3D ( 'NONE', #273, #261, #260 ) ;
#271 = DIRECTION ( 'NONE',  ( 0.0000000000000000000, -1.000000000000000000, 0.0000000000000000000 ) ) ;
#272 = CIRCLE ( 'NONE', #247, 4.000000000000003600 ) ;
#273 = CARTESIAN_POINT ( 'NONE',  ( 7.499999999999996400, 15.00000000000000000, -10.00000000000000200 ) ) ;
#274 = DIRECTION ( 'NONE',  ( 0.0000000000000000000, -1.000000000000000000, 0.0000000000000000000 ) ) ;
#275 = AXIS2_PLACEMENT_3D ( 'NONE', #257, #252, #235 ) ;
#276 = CARTESIAN_POINT ( 'NONE',  ( 7.499999999999996400, 15.00000000000000000, -40.00000000000000000 ) ) ;
#277 = FACE_OUTER_BOUND ( 'NONE', #124, .T. ) ;
#278 = CARTESIAN_POINT ( 'NONE',  ( 7.499999999999996400, 0.0000000000000000000, -10.00000000000000200 ) ) ;
#279 = PLANE ( 'NONE',  #275 ) ;
#280 = CARTESIAN_POINT ( 'NONE',  ( -3.469446951953614200E-015, 0.0000000000000000000, -45.00000000000000000 ) ) ;
#281 = AXIS2_PLACEMENT_3D ( 'NONE', #278, #271, #258 ) ;
#282 = FACE_OUTER_BOUND ( 'NONE', #31, .T. ) ;
#283 = DIRECTION ( 'NONE',  ( 0.0000000000000000000, 0.0000000000000000000, -1.000000000000000000 ) ) ;
#284 = VECTOR ( 'NONE', #240, 1000.000000000000000 ) ;
#285 = COORDINATED_UNIVERSAL_TIME_OFFSET ( 1, 0, .AHEAD. ) ;
#286 = AXIS2_PLACEMENT_3D ( 'NONE', #311, #274, #301 ) ;
#287 = DIRECTION ( 'NONE',  ( 0.0000000000000000000, -1.000000000000000000, 0.0000000000000000000 ) ) ;
#288 = CARTESIAN_POINT ( 'NONE',  ( -3.469446951953614200E-015, 0.0000000000000000000, -45.00000000000000000 ) ) ;
#289 = AXIS2_PLACEMENT_3D ( 'NONE', #323, #322, #321 ) ;
#290 = APPROVAL_DATE_TIME ( #230, #320 ) ;
#291 = APPROVAL_ROLE ( '' ) ;
#292 = FACE_OUTER_BOUND ( 'NONE', #125, .T. ) ;
#293 = CARTESIAN_POINT ( 'NONE',  ( 14.99999999999999600, 15.00000000000000000, 0.0000000000000000000 ) ) ;
#294 = DIRECTION ( 'NONE',  ( -0.0000000000000000000, -1.000000000000000000, -0.0000000000000000000 ) ) ;
#295 = CARTESIAN_POINT ( 'NONE',  ( 7.499999999999996400, 15.00000000000000000, -10.00000000000000200 ) ) ;
#296 = FACE_OUTER_BOUND ( 'NONE', #53, .T. ) ;
#297 = DIRECTION ( 'NONE',  ( 1.000000000000000000, 0.0000000000000000000, 0.0000000000000000000 ) ) ;
#298 = CIRCLE ( 'NONE', #234, 4.000000000000000000 ) ;
#299 = CARTESIAN_POINT ( 'NONE',  ( 7.499999999999996400, 15.00000000000000000, -14.00000000000000200 ) ) ;
#300 = LINE ( 'NONE', #299, #265 ) ;
#301 = DIRECTION ( 'NONE',  ( 0.0000000000000000000, 0.0000000000000000000, -1.000000000000000000 ) ) ;
#302 = PRODUCT_DEFINITION_FORMATION_WITH_SPECIFIED_SOURCE ( 'ANY', '', #372, .NOT_KNOWN. ) ;
#303 = DIRECTION ( 'NONE',  ( -0.0000000000000000000, -1.000000000000000000, -0.0000000000000000000 ) ) ;
#304 = DIRECTION ( 'NONE',  ( -0.0000000000000000000, -1.000000000000000000, -0.0000000000000000000 ) ) ;
#305 = VECTOR ( 'NONE', #304, 1000.000000000000000 ) ;
#306 = CARTESIAN_POINT ( 'NONE',  ( 7.499999999999997300, 15.00000000000000000, -36.00000000000000000 ) ) ;
#307 = AXIS2_PLACEMENT_3D ( 'NONE', #251, #303, #248 ) ;
#308 = CIRCLE ( 'NONE', #256, 4.000000000000003600 ) ;
#309 = FACE_OUTER_BOUND ( 'NONE', #41, .T. ) ;
#310 = CIRCLE ( 'NONE', #281, 4.000000000000000000 ) ;
#311 = CARTESIAN_POINT ( 'NONE',  ( 7.499999999999996400, 15.00000000000000000, -10.00000000000000200 ) ) ;
#312 = CARTESIAN_POINT ( 'NONE',  ( 7.499999999999997300, 0.0000000000000000000, -6.000000000000000900 ) ) ;
#313 = CARTESIAN_POINT ( 'NONE',  ( 0.0000000000000000000, 0.0000000000000000000, 0.0000000000000000000 ) ) ;
#314 = CYLINDRICAL_SURFACE ( 'NONE', #270, 4.000000000000000000 ) ;
#315 = CARTESIAN_POINT ( 'NONE',  ( 7.499999999999996400, 15.00000000000000000, -44.00000000000000700 ) ) ;
#316 = CARTESIAN_POINT ( 'NONE',  ( 7.499999999999996400, 0.0000000000000000000, -10.00000000000000200 ) ) ;
#317 = APPROVAL_PERSON_ORGANIZATION ( #239, #320, #291 ) ;
#318 = PLANE ( 'NONE',  #289 ) ;
#319 = AXIS2_PLACEMENT_3D ( 'NONE', #276, #237, #283 ) ;
#320 = APPROVAL ( #238, 'UNSPECIFIED' ) ;
#321 = DIRECTION ( 'NONE',  ( 2.312964634635743000E-016, -1.000000000000000000, 0.0000000000000000000 ) ) ;
#322 = DIRECTION ( 'NONE',  ( -1.000000000000000000, -2.312964634635743000E-016, 0.0000000000000000000 ) ) ;
#323 = CARTESIAN_POINT ( 'NONE',  ( 0.0000000000000000000, 0.0000000000000000000, -60.00000000000000000 ) ) ;
#324 = CC_DESIGN_APPROVAL ( #320, ( #302 ) ) ;
#325 = CALENDAR_DATE ( 2015, 23, 11 ) ;
#326 = PERSON_AND_ORGANIZATION_ROLE ( 'creator' ) ;
#327 = PERSON_AND_ORGANIZATION_ROLE ( 'design_supplier' ) ;
#328 = CC_DESIGN_PERSON_AND_ORGANIZATION_ASSIGNMENT ( #330, #326, ( #302 ) ) ;
#329 = PERSON_AND_ORGANIZATION ( #371, #370 ) ;
#330 = PERSON_AND_ORGANIZATION ( #371, #370 ) ;
#331 = CC_DESIGN_PERSON_AND_ORGANIZATION_ASSIGNMENT ( #329, #327, ( #302 ) ) ;
#332 = LINE ( 'NONE', #333, #355 ) ;
#333 = CARTESIAN_POINT ( 'NONE',  ( 0.0000000000000000000, 0.0000000000000000000, 0.0000000000000000000 ) ) ;
#334 = CARTESIAN_POINT ( 'NONE',  ( 7.499999999999996400, 15.00000000000000000, -14.00000000000000200 ) ) ;
#335 = DIRECTION ( 'NONE',  ( -0.0000000000000000000, -1.000000000000000000, -0.0000000000000000000 ) ) ;
#336 = DIRECTION ( 'NONE',  ( 0.0000000000000000000, 1.000000000000000000, 0.0000000000000000000 ) ) ;
#337 = CARTESIAN_POINT ( 'NONE',  ( 7.499999999999997300, 15.00000000000000000, -6.000000000000000900 ) ) ;
#338 = CARTESIAN_POINT ( 'NONE',  ( -3.469446951953614200E-015, 15.00000000000000000, -60.00000000000000000 ) ) ;
#339 = VECTOR ( 'NONE', #356, 1000.000000000000000 ) ;
#340 = AXIS2_PLACEMENT_3D ( 'NONE', #367, #366, #365 ) ;
#341 = PLANE ( 'NONE',  #362 ) ;
#342 = DIRECTION ( 'NONE',  ( 0.0000000000000000000, -0.0000000000000000000, 1.000000000000000000 ) ) ;
#343 = DIRECTION ( 'NONE',  ( 0.0000000000000000000, 0.0000000000000000000, 1.000000000000000000 ) ) ;
#344 =( NAMED_UNIT ( * ) SI_UNIT ( $, .STERADIAN. ) SOLID_ANGLE_UNIT ( ) );
#345 =( NAMED_UNIT ( * ) PLANE_ANGLE_UNIT ( ) SI_UNIT ( $, .RADIAN. ) );
#346 = CARTESIAN_POINT ( 'NONE',  ( -3.469446951953614200E-015, 15.00000000000000000, -60.00000000000000000 ) ) ;
#347 =( GEOMETRIC_REPRESENTATION_CONTEXT ( 3 ) GLOBAL_UNCERTAINTY_ASSIGNED_CONTEXT ( ( #348 ) ) GLOBAL_UNIT_ASSIGNED_CONTEXT ( ( #352, #345, #344 ) ) REPRESENTATION_CONTEXT ( 'NONE', 'WORKASPACE' ) );
#348 = UNCERTAINTY_MEASURE_WITH_UNIT (LENGTH_MEASURE( 1.000000000000000100E-005 ), #352, 'distance_accuracy_value', 'NONE');
#349 = VECTOR ( 'NONE', #335, 1000.000000000000000 ) ;
#350 = DIRECTION ( 'NONE',  ( 2.312964634635743000E-016, -1.000000000000000000, -0.0000000000000000000 ) ) ;
#351 = VECTOR ( 'NONE', #343, 1000.000000000000000 ) ;
#352 =( LENGTH_UNIT ( ) NAMED_UNIT ( * ) SI_UNIT ( .MILLI., .METRE. ) );
#353 = AXIS2_PLACEMENT_3D ( 'NONE', #377, #378, #383 ) ;
#354 = CIRCLE ( 'NONE', #340, 4.000000000000000000 ) ;
#355 = VECTOR ( 'NONE', #350, 1000.000000000000000 ) ;
#356 = DIRECTION ( 'NONE',  ( -0.0000000000000000000, -1.000000000000000000, -0.0000000000000000000 ) ) ;
#357 = CARTESIAN_POINT ( 'NONE',  ( -3.469446951953614200E-015, 15.00000000000000000, -45.00000000000000000 ) ) ;
#358 = LINE ( 'NONE', #346, #376 ) ;
#359 = CARTESIAN_POINT ( 'NONE',  ( 0.0000000000000000000, 0.0000000000000000000, -60.00000000000000000 ) ) ;
#360 = FACE_BOUND ( 'NONE', #159, .T. ) ;
#361 = LINE ( 'NONE', #363, #339 ) ;
#362 = AXIS2_PLACEMENT_3D ( 'NONE', #338, #336, #342 ) ;
#363 = CARTESIAN_POINT ( 'NONE',  ( 7.499999999999997300, 15.00000000000000000, -6.000000000000000900 ) ) ;
#364 = FACE_BOUND ( 'NONE', #157, .T. ) ;
#365 = DIRECTION ( 'NONE',  ( 0.0000000000000000000, 0.0000000000000000000, -1.000000000000000000 ) ) ;
#366 = DIRECTION ( 'NONE',  ( 0.0000000000000000000, -1.000000000000000000, 0.0000000000000000000 ) ) ;
#367 = CARTESIAN_POINT ( 'NONE',  ( 7.499999999999996400, 15.00000000000000000, -10.00000000000000200 ) ) ;
#368 = ADVANCED_BREP_SHAPE_REPRESENTATION ( 'emporte pièce 5', ( #75, #353 ), #347 ) ;
#369 = PERSON_AND_ORGANIZATION ( #371, #370 ) ;
#370 = ORGANIZATION ( 'UNSPECIFIED', 'UNSPECIFIED', '' ) ;
#371 = PERSON ( 'UNSPECIFIED', 'UNSPECIFIED', 'UNSPECIFIED', ('UNSPECIFIED'), ('UNSPECIFIED'), ('UNSPECIFIED') ) ;
#372 = PRODUCT ( 'emporte pièce 5', 'emporte pièce 5', '', ( #373 ) ) ;
#373 = MECHANICAL_CONTEXT ( 'NONE', #385, 'mechanical' ) ;
#374 = LINE ( 'NONE', #359, #351 ) ;
#375 = FACE_OUTER_BOUND ( 'NONE', #137, .T. ) ;
#376 = VECTOR ( 'NONE', #381, 1000.000000000000000 ) ;
#377 = CARTESIAN_POINT ( 'NONE',  ( 0.0000000000000000000, 0.0000000000000000000, 0.0000000000000000000 ) ) ;
#378 = DIRECTION ( 'NONE',  ( 0.0000000000000000000, 0.0000000000000000000, 1.000000000000000000 ) ) ;
#379 = CARTESIAN_POINT ( 'NONE',  ( 7.499999999999996400, 15.00000000000000000, -44.00000000000000700 ) ) ;
#380 = LINE ( 'NONE', #379, #349 ) ;
#381 = DIRECTION ( 'NONE',  ( 0.0000000000000000000, 0.0000000000000000000, 1.000000000000000000 ) ) ;
#382 = CARTESIAN_POINT ( 'NONE',  ( 7.499999999999996400, 0.0000000000000000000, -14.00000000000000200 ) ) ;
#383 = DIRECTION ( 'NONE',  ( 1.000000000000000000, 0.0000000000000000000, 0.0000000000000000000 ) ) ;
#384 = APPLICATION_PROTOCOL_DEFINITION ( 'international standard', 'config_control_design', 1994, #385 ) ;
#385 = APPLICATION_CONTEXT ( 'configuration controlled 3d designs of mechanical parts and assemblies' ) ;
ENDSEC;
END-ISO-10303-21;
